  0
SECTION
  2
HEADER
  9
$ACADVER
  1
AC1014
  9
$ACADMAINTVER
 70
     9
  9
$DWGCODEPAGE
  3
ANSI_1252
  9
$INSBASE
 10
0.0
 20
0.0
 30
0.0
  9
$EXTMIN
 10
1.000000000000000E+20
 20
1.000000000000000E+20
 30
1.000000000000000E+20
  9
$EXTMAX
 10
-1.000000000000000E+20
 20
-1.000000000000000E+20
 30
-1.000000000000000E+20
  9
$LIMMIN
 10
0.0
 20
0.0
  9
$LIMMAX
 10
12.0
 20
9.0
  9
$ORTHOMODE
 70
     0
  9
$REGENMODE
 70
     1
  9
$FILLMODE
 70
     1
  9
$QTEXTMODE
 70
     0
  9
$MIRRTEXT
 70
     1
  9
$DRAGMODE
 70
     2
  9
$LTSCALE
 40
1.0
  9
$OSMODE
 70
    37
  9
$ATTMODE
 70
     1
  9
$TEXTSIZE
 40
0.2
  9
$TRACEWID
 40
0.05
  9
$TEXTSTYLE
  7
STANDARD
  9
$CLAYER
  8
0
  9
$CELTYPE
  6
BYLAYER
  9
$CECOLOR
 62
   256
  9
$CELTSCALE
 40
1.0
  9
$DELOBJ
 70
     1
  9
$DISPSILH
 70
     0
  9
$DIMSCALE
 40
1.0
  9
$DIMASZ
 40
0.18
  9
$DIMEXO
 40
0.0625
  9
$DIMDLI
 40
0.38
  9
$DIMRND
 40
0.0
  9
$DIMDLE
 40
0.0
  9
$DIMEXE
 40
0.18
  9
$DIMTP
 40
0.0
  9
$DIMTM
 40
0.0
  9
$DIMTXT
 40
0.18
  9
$DIMCEN
 40
0.09
  9
$DIMTSZ
 40
0.0
  9
$DIMTOL
 70
     0
  9
$DIMLIM
 70
     0
  9
$DIMTIH
 70
     1
  9
$DIMTOH
 70
     1
  9
$DIMSE1
 70
     0
  9
$DIMSE2
 70
     0
  9
$DIMTAD
 70
     0
  9
$DIMZIN
 70
     0
  9
$DIMBLK
  1

  9
$DIMASO
 70
     1
  9
$DIMSHO
 70
     1
  9
$DIMPOST
  1

  9
$DIMAPOST
  1

  9
$DIMALT
 70
     0
  9
$DIMALTD
 70
     2
  9
$DIMALTF
 40
25.4
  9
$DIMLFAC
 40
1.0
  9
$DIMTOFL
 70
     0
  9
$DIMTVP
 40
0.0
  9
$DIMTIX
 70
     0
  9
$DIMSOXD
 70
     0
  9
$DIMSAH
 70
     0
  9
$DIMBLK1
  1

  9
$DIMBLK2
  1

  9
$DIMSTYLE
  2
STANDARD
  9
$DIMCLRD
 70
     0
  9
$DIMCLRE
 70
     0
  9
$DIMCLRT
 70
     0
  9
$DIMTFAC
 40
1.0
  9
$DIMGAP
 40
0.09
  9
$DIMJUST
 70
     0
  9
$DIMSD1
 70
     0
  9
$DIMSD2
 70
     0
  9
$DIMTOLJ
 70
     1
  9
$DIMTZIN
 70
     0
  9
$DIMALTZ
 70
     0
  9
$DIMALTTZ
 70
     0
  9
$DIMFIT
 70
     3
  9
$DIMUPT
 70
     0
  9
$DIMUNIT
 70
     2
  9
$DIMDEC
 70
     4
  9
$DIMTDEC
 70
     4
  9
$DIMALTU
 70
     2
  9
$DIMALTTD
 70
     2
  9
$DIMTXSTY
  7
STANDARD
  9
$DIMAUNIT
 70
     0
  9
$LUNITS
 70
     2
  9
$LUPREC
 70
     4
  9
$SKETCHINC
 40
0.1
  9
$FILLETRAD
 40
0.5
  9
$AUNITS
 70
     0
  9
$AUPREC
 70
     0
  9
$MENU
  1
.
  9
$ELEVATION
 40
0.0
  9
$PELEVATION
 40
0.0
  9
$THICKNESS
 40
0.0
  9
$LIMCHECK
 70
     0
  9
$CHAMFERA
 40
0.5
  9
$CHAMFERB
 40
0.5
  9
$CHAMFERC
 40
1.0
  9
$CHAMFERD
 40
0.0
  9
$SKPOLY
 70
     0
  9
$TDCREATE
 40
2459971.554894954
  9
$TDUPDATE
 40
2459971.554895139
  9
$TDINDWG
 40
0.0000000116
  9
$TDUSRTIMER
 40
0.0000000116
  9
$USRTIMER
 70
     1
  9
$ANGBASE
 50
0.0
  9
$ANGDIR
 70
     0
  9
$PDMODE
 70
     0
  9
$PDSIZE
 40
0.0
  9
$PLINEWID
 40
0.0
  9
$COORDS
 70
     1
  9
$SPLFRAME
 70
     0
  9
$SPLINETYPE
 70
     6
  9
$SPLINESEGS
 70
     8
  9
$ATTDIA
 70
     0
  9
$ATTREQ
 70
     1
  9
$HANDLING
 70
     1
  9
$HANDSEED
  5
381
  9
$SURFTAB1
 70
     6
  9
$SURFTAB2
 70
     6
  9
$SURFTYPE
 70
     6
  9
$SURFU
 70
     6
  9
$SURFV
 70
     6
  9
$UCSNAME
  2

  9
$UCSORG
 10
0.0
 20
0.0
 30
0.0
  9
$UCSXDIR
 10
1.0
 20
0.0
 30
0.0
  9
$UCSYDIR
 10
0.0
 20
1.0
 30
0.0
  9
$PUCSNAME
  2

  9
$PUCSORG
 10
0.0
 20
0.0
 30
0.0
  9
$PUCSXDIR
 10
1.0
 20
0.0
 30
0.0
  9
$PUCSYDIR
 10
0.0
 20
1.0
 30
0.0
  9
$USERI1
 70
     0
  9
$USERI2
 70
     0
  9
$USERI3
 70
     0
  9
$USERI4
 70
     0
  9
$USERI5
 70
     0
  9
$USERR1
 40
0.0
  9
$USERR2
 40
0.0
  9
$USERR3
 40
0.0
  9
$USERR4
 40
0.0
  9
$USERR5
 40
0.0
  9
$WORLDVIEW
 70
     1
  9
$SHADEDGE
 70
     3
  9
$SHADEDIF
 70
    70
  9
$TILEMODE
 70
     1
  9
$MAXACTVP
 70
    64
  9
$PINSBASE
 10
0.0
 20
0.0
 30
0.0
  9
$PLIMCHECK
 70
     0
  9
$PEXTMIN
 10
1.000000000000000E+20
 20
1.000000000000000E+20
 30
1.000000000000000E+20
  9
$PEXTMAX
 10
-1.000000000000000E+20
 20
-1.000000000000000E+20
 30
-1.000000000000000E+20
  9
$PLIMMIN
 10
0.0
 20
0.0
  9
$PLIMMAX
 10
12.0
 20
9.0
  9
$UNITMODE
 70
     0
  9
$VISRETAIN
 70
     1
  9
$PLINEGEN
 70
     0
  9
$PSLTSCALE
 70
     1
  9
$TREEDEPTH
 70
  3020
  9
$PICKSTYLE
 70
     1
  9
$CMLSTYLE
  2
STANDARD
  9
$CMLJUST
 70
     0
  9
$CMLSCALE
 40
1.0
  9
$PROXYGRAPHICS
 70
     1
  9
$MEASUREMENT
 70
     0
  0
ENDSEC
  0
SECTION
  2
CLASSES
  0
CLASS
  1
ACDBDICTIONARYWDFLT
  2
AcDbDictionaryWithDefault
  3
ObjectDBX Classes
 90
        0
280
     0
281
     0
  0
CLASS
  1
VISUALSTYLE
  2
AcDbVisualStyle
  3
ObjectDBX Classes
 90
     4095
280
     0
281
     0
  0
CLASS
  1
MATERIAL
  2
AcDbMaterial
  3
ObjectDBX Classes
 90
     1153
280
     0
281
     0
  0
CLASS
  1
SUN
  2
AcDbSun
  3
SCENEOE
 90
     1024
280
     0
281
     0
  0
CLASS
  1
DICTIONARYVAR
  2
AcDbDictionaryVar
  3
ObjectDBX Classes
 90
        0
280
     0
281
     0
  0
CLASS
  1
XRECORD
  2
AcDbXrecord
  3
AutoCAD 2000
 90
        0
280
     0
281
     0
  0
CLASS
  1
LWPOLYLINE
  2
AcDbPolyline
  3
AutoCAD 2000
 90
        0
280
     0
281
     1
  0
CLASS
  1
HATCH
  2
AcDbHatch
  3
AutoCAD 2000
 90
        0
280
     0
281
     1
  0
CLASS
  1
ACDBPLACEHOLDER
  2
AcDbPlaceHolder
  3
ObjectDBX Classes
 90
        0
280
     0
281
     0
  0
CLASS
  1
LAYOUT
  2
AcDbLayout
  3
ObjectDBX Classes
 90
        0
280
     0
281
     0
  0
ENDSEC
  0
SECTION
  2
TABLES
  0
TABLE
  2
VPORT
  5
8
330
0
100
AcDbSymbolTable
 70
     1
  0
VPORT
  5
29
330
8
100
AcDbSymbolTableRecord
100
AcDbViewportTableRecord
  2
*ACTIVE
 70
     0
 10
0.0
 20
0.0
 11
1.0
 21
1.0
 12
0.0
 22
0.0
 13
0.0
 23
0.0
 14
0.5
 24
0.5
 15
0.5
 25
0.5
 16
0.0
 26
0.0
 36
1.0
 17
74.99999786197358
 27
39.74999886684608
 37
0.0
 40
39.99999998999989
 41
1.000000000000008
 42
50.0
 43
0.0
 44
0.0
 50
0.0
 51
0.0
 71
     0
 72
   100
 73
     1
 74
     3
 75
     0
 76
     0
 77
     0
 78
     0
  0
ENDTAB
  0
TABLE
  2
LTYPE
  5
5
330
0
100
AcDbSymbolTable
 70
     1
  0
LTYPE
  5
14
330
5
100
AcDbSymbolTableRecord
100
AcDbLinetypeTableRecord
  2
BYBLOCK
 70
     0
  3

 72
    65
 73
     0
 40
0.0
  0
LTYPE
  5
15
330
5
100
AcDbSymbolTableRecord
100
AcDbLinetypeTableRecord
  2
BYLAYER
 70
     0
  3

 72
    65
 73
     0
 40
0.0
  0
LTYPE
  5
16
330
5
100
AcDbSymbolTableRecord
100
AcDbLinetypeTableRecord
  2
CONTINUOUS
 70
     0
  3
Solid line
 72
    65
 73
     0
 40
0.0
  0
ENDTAB
  0
TABLE
  2
LAYER
  5
2
330
0
100
AcDbSymbolTable
 70
     6
  0
LAYER
  5
10
330
2
100
AcDbSymbolTableRecord
100
AcDbLayerTableRecord
  2
0
 70
     0
 62
     7
  6
CONTINUOUS
  0
LAYER
  5
40
330
2
100
AcDbSymbolTableRecord
100
AcDbLayerTableRecord
  2
REFERENCIAS
 70
     0
 62
     7
  6
CONTINUOUS
  0
LAYER
  5
43
330
2
100
AcDbSymbolTableRecord
100
AcDbLayerTableRecord
  2
M_U_00C1RGENES
 70
     4
 62
     7
  6
CONTINUOUS
  0
LAYER
  5
52
330
2
100
AcDbSymbolTableRecord
100
AcDbLayerTableRecord
  2
DIBUJOS
 70
     4
 62
     7
  6
CONTINUOUS
  0
LAYER
  5
340
330
2
100
AcDbSymbolTableRecord
100
AcDbLayerTableRecord
  2
COTAS_LINEA
 70
     4
 62
     7
  6
CONTINUOUS
  0
LAYER
  5
351
330
2
100
AcDbSymbolTableRecord
100
AcDbLayerTableRecord
  2
COTAS_N_U_00DAMERO
 70
     4
 62
     7
  6
CONTINUOUS
  0
ENDTAB
  0
TABLE
  2
STYLE
  5
3
330
0
100
AcDbSymbolTable
 70
     1
  0
STYLE
  5
11
330
3
100
AcDbSymbolTableRecord
100
AcDbTextStyleTableRecord
  2
STANDARD
 70
     0
 40
0.0
 41
1.0
 50
0.0
 71
     0
 42
0.2
  3
txt
  4

  0
ENDTAB
  0
TABLE
  2
VIEW
  5
6
330
0
100
AcDbSymbolTable
 70
     0
  0
ENDTAB
  0
TABLE
  2
UCS
  5
7
330
0
100
AcDbSymbolTable
 70
     0
  0
ENDTAB
  0
TABLE
  2
APPID
  5
9
330
0
100
AcDbSymbolTable
 70
     1
  0
APPID
  5
12
330
9
100
AcDbSymbolTableRecord
100
AcDbRegAppTableRecord
  2
ACAD
 70
     0
  0
ENDTAB
  0
TABLE
  2
DIMSTYLE
  5
A
330
0
100
AcDbSymbolTable
 70
     1
  0
DIMSTYLE
105
27
330
A
100
AcDbSymbolTableRecord
100
AcDbDimStyleTableRecord
  2
STANDARD
 70
     0
  3

  4

  5

  6

  7

 40
1.0
 41
0.18
 42
0.0625
 43
0.38
 44
0.18
 45
0.0
 46
0.0
 47
0.0
 48
0.0
140
0.18
141
0.09
142
0.0
143
25.4
144
1.0
145
0.0
146
1.0
147
0.09
 71
     0
 72
     0
 73
     1
 74
     1
 75
     0
 76
     0
 77
     0
 78
     0
170
     0
171
     2
172
     0
173
     0
174
     0
175
     0
176
     0
177
     0
178
     0
270
     2
271
     4
272
     4
273
     2
274
     2
340
11
275
     0
280
     0
281
     0
282
     0
283
     1
284
     0
285
     0
286
     0
287
     3
288
     0
  0
ENDTAB
  0
TABLE
  2
BLOCK_RECORD
  5
1
330
0
100
AcDbSymbolTable
 70
     3
  0
BLOCK_RECORD
  5
1F
330
1
100
AcDbSymbolTableRecord
100
AcDbBlockTableRecord
  2
*MODEL_SPACE
  0
BLOCK_RECORD
  5
1B
330
1
100
AcDbSymbolTableRecord
100
AcDbBlockTableRecord
  2
*PAPER_SPACE
  0
BLOCK_RECORD
  5
53
330
1
100
AcDbSymbolTableRecord
100
AcDbBlockTableRecord
  2
BLOCK_2
  0
BLOCK_RECORD
  5
12B
330
1
100
AcDbSymbolTableRecord
100
AcDbBlockTableRecord
  2
BLOCK_3
  0
ENDTAB
  0
ENDSEC
  0
SECTION
  2
BLOCKS
  0
BLOCK
  5
20
330
1F
100
AcDbEntity
  8
0
100
AcDbBlockBegin
  2
*MODEL_SPACE
 70
     0
 10
0.0
 20
0.0
 30
0.0
  3
*MODEL_SPACE
  1

  0
ENDBLK
  5
21
330
1F
100
AcDbEntity
  8
0
100
AcDbBlockEnd
  0
BLOCK
  5
1C
330
1B
100
AcDbEntity
 67
     1
  8
0
100
AcDbBlockBegin
  2
*PAPER_SPACE
 70
     0
 10
0.0
 20
0.0
 30
0.0
  3
*PAPER_SPACE
  1

  0
ENDBLK
  5
1D
330
1B
100
AcDbEntity
 67
     1
  8
0
100
AcDbBlockEnd
  0
BLOCK
  5
55
330
53
100
AcDbEntity
  8
0
100
AcDbBlockBegin
  2
BLOCK_2
 70
     0
 10
0.0
 20
0.0
 30
0.0
  3
BLOCK_2
  1

  0
POLYLINE
  5
57
330
53
100
AcDbEntity
  8
DIBUJOS
 62
     7
100
AcDb2dPolyline
 66
     1
 10
0.0
 20
0.0
 30
0.0
  0
VERTEX
  5
58
330
57
100
AcDbEntity
  8
DIBUJOS
 62
     7
100
AcDbVertex
100
AcDb2dVertex
 10
82.77010963979014
 20
46.96208299248845
 30
0.0
  0
VERTEX
  5
59
330
57
100
AcDbEntity
  8
DIBUJOS
 62
     7
100
AcDbVertex
100
AcDb2dVertex
 10
82.77569914023702
 20
46.96767550289754
 30
0.0
  0
SEQEND
  5
5A
330
57
100
AcDbEntity
  8
DIBUJOS
 62
     7
  0
POLYLINE
  5
5B
330
53
100
AcDbEntity
  8
DIBUJOS
 62
     7
100
AcDb2dPolyline
 66
     1
 10
0.0
 20
0.0
 30
0.0
  0
VERTEX
  5
5C
330
5B
100
AcDbEntity
  8
DIBUJOS
 62
     7
100
AcDbVertex
100
AcDb2dVertex
 10
78.78885626093707
 20
46.95649349204188
 30
0.0
  0
VERTEX
  5
5D
330
5B
100
AcDbEntity
  8
DIBUJOS
 62
     7
100
AcDbVertex
100
AcDb2dVertex
 10
76.82059660318339
 20
46.96767550289754
 30
0.0
  0
VERTEX
  5
5E
330
5B
100
AcDbEntity
  8
DIBUJOS
 62
     7
100
AcDbVertex
100
AcDb2dVertex
 10
76.82059660318339
 20
47.14660874632293
 30
0.0
  0
VERTEX
  5
5F
330
5B
100
AcDbEntity
  8
DIBUJOS
 62
     7
100
AcDbVertex
100
AcDb2dVertex
 10
76.8317786140384
 20
47.15779075717794
 30
0.0
  0
VERTEX
  5
60
330
5B
100
AcDbEntity
  8
DIBUJOS
 62
     7
100
AcDbVertex
100
AcDb2dVertex
 10
82.76451712938074
 20
47.15779075717794
 30
0.0
  0
VERTEX
  5
61
330
5B
100
AcDbEntity
  8
DIBUJOS
 62
     7
100
AcDbVertex
100
AcDb2dVertex
 10
82.77681884630366
 20
47.14157608894716
 30
0.0
  0
VERTEX
  5
62
330
5B
100
AcDbEntity
  8
DIBUJOS
 62
     7
100
AcDbVertex
100
AcDb2dVertex
 10
82.77569914023702
 20
47.04036609836457
 30
0.0
  0
VERTEX
  5
63
330
5B
100
AcDbEntity
  8
DIBUJOS
 62
     7
100
AcDbVertex
100
AcDb2dVertex
 10
82.77569914023702
 20
46.96767550289754
 30
0.0
  0
SEQEND
  5
64
330
5B
100
AcDbEntity
  8
DIBUJOS
 62
     7
  0
POLYLINE
  5
65
330
53
100
AcDbEntity
  8
DIBUJOS
 62
     7
100
AcDb2dPolyline
 66
     1
 10
0.0
 20
0.0
 30
0.0
  0
VERTEX
  5
66
330
65
100
AcDbEntity
  8
DIBUJOS
 62
     7
100
AcDbVertex
100
AcDb2dVertex
 10
78.79444576138333
 20
46.95649349204188
 30
0.0
  0
VERTEX
  5
67
330
65
100
AcDbEntity
  8
DIBUJOS
 62
     7
100
AcDbVertex
100
AcDb2dVertex
 10
78.78885626093707
 20
46.95649349204188
 30
0.0
  0
SEQEND
  5
68
330
65
100
AcDbEntity
  8
DIBUJOS
 62
     7
  0
POLYLINE
  5
69
330
53
100
AcDbEntity
  8
DIBUJOS
 62
     7
100
AcDb2dPolyline
 66
     1
 10
0.0
 20
0.0
 30
0.0
  0
VERTEX
  5
6A
330
69
100
AcDbEntity
  8
DIBUJOS
 62
     7
100
AcDbVertex
100
AcDb2dVertex
 10
78.80003827179209
 20
46.95649349204188
 30
0.0
  0
VERTEX
  5
6B
330
69
100
AcDbEntity
  8
DIBUJOS
 62
     7
100
AcDbVertex
100
AcDb2dVertex
 10
78.79444576138333
 20
46.95649349204188
 30
0.0
  0
SEQEND
  5
6C
330
69
100
AcDbEntity
  8
DIBUJOS
 62
     7
  0
POLYLINE
  5
6D
330
53
100
AcDbEntity
  8
DIBUJOS
 62
     7
100
AcDb2dPolyline
 66
     1
 10
0.0
 20
0.0
 30
0.0
  0
VERTEX
  5
6E
330
6D
100
AcDbEntity
  8
DIBUJOS
 62
     7
100
AcDbVertex
100
AcDb2dVertex
 10
79.23059535410927
 20
46.95649349204188
 30
0.0
  0
VERTEX
  5
6F
330
6D
100
AcDbEntity
  8
DIBUJOS
 62
     7
100
AcDbVertex
100
AcDb2dVertex
 10
78.80003827179209
 20
46.95649349204188
 30
0.0
  0
SEQEND
  5
70
330
6D
100
AcDbEntity
  8
DIBUJOS
 62
     7
  0
POLYLINE
  5
71
330
53
100
AcDbEntity
  8
DIBUJOS
 62
     7
100
AcDb2dPolyline
 66
     1
 10
0.0
 20
0.0
 30
0.0
  0
VERTEX
  5
72
330
71
100
AcDbEntity
  8
DIBUJOS
 62
     7
100
AcDbVertex
100
AcDb2dVertex
 10
79.23618786451867
 20
46.95649349204188
 30
0.0
  0
VERTEX
  5
73
330
71
100
AcDbEntity
  8
DIBUJOS
 62
     7
100
AcDbVertex
100
AcDb2dVertex
 10
79.23059535410927
 20
46.95649349204188
 30
0.0
  0
SEQEND
  5
74
330
71
100
AcDbEntity
  8
DIBUJOS
 62
     7
  0
POLYLINE
  5
75
330
53
100
AcDbEntity
  8
DIBUJOS
 62
     7
100
AcDb2dPolyline
 66
     1
 10
0.0
 20
0.0
 30
0.0
  0
VERTEX
  5
76
330
75
100
AcDbEntity
  8
DIBUJOS
 62
     7
100
AcDbVertex
100
AcDb2dVertex
 10
79.24177736496556
 20
46.95649349204188
 30
0.0
  0
VERTEX
  5
77
330
75
100
AcDbEntity
  8
DIBUJOS
 62
     7
100
AcDbVertex
100
AcDb2dVertex
 10
79.23618786451867
 20
46.95649349204188
 30
0.0
  0
SEQEND
  5
78
330
75
100
AcDbEntity
  8
DIBUJOS
 62
     7
  0
POLYLINE
  5
79
330
53
100
AcDbEntity
  8
DIBUJOS
 62
     7
100
AcDb2dPolyline
 66
     1
 10
0.0
 20
0.0
 30
0.0
  0
VERTEX
  5
7A
330
79
100
AcDbEntity
  8
DIBUJOS
 62
     7
100
AcDbVertex
100
AcDb2dVertex
 10
79.6835194681009
 20
46.95649349204188
 30
0.0
  0
VERTEX
  5
7B
330
79
100
AcDbEntity
  8
DIBUJOS
 62
     7
100
AcDbVertex
100
AcDb2dVertex
 10
79.6723344472821
 20
46.96208299248845
 30
0.0
  0
VERTEX
  5
7C
330
79
100
AcDbEntity
  8
DIBUJOS
 62
     7
100
AcDbVertex
100
AcDb2dVertex
 10
79.25296238578308
 20
46.96208299248845
 30
0.0
  0
VERTEX
  5
7D
330
79
100
AcDbEntity
  8
DIBUJOS
 62
     7
100
AcDbVertex
100
AcDb2dVertex
 10
79.24177736496556
 20
46.95649349204188
 30
0.0
  0
SEQEND
  5
7E
330
79
100
AcDbEntity
  8
DIBUJOS
 62
     7
  0
POLYLINE
  5
7F
330
53
100
AcDbEntity
  8
DIBUJOS
 62
     7
100
AcDb2dPolyline
 66
     1
 10
0.0
 20
0.0
 30
0.0
  0
VERTEX
  5
80
330
7F
100
AcDbEntity
  8
DIBUJOS
 62
     7
100
AcDbVertex
100
AcDb2dVertex
 10
79.6891119785103
 20
46.95649349204188
 30
0.0
  0
VERTEX
  5
81
330
7F
100
AcDbEntity
  8
DIBUJOS
 62
     7
100
AcDbVertex
100
AcDb2dVertex
 10
79.6835194681009
 20
46.95649349204188
 30
0.0
  0
SEQEND
  5
82
330
7F
100
AcDbEntity
  8
DIBUJOS
 62
     7
  0
POLYLINE
  5
83
330
53
100
AcDbEntity
  8
DIBUJOS
 62
     7
100
AcDb2dPolyline
 66
     1
 10
0.0
 20
0.0
 30
0.0
  0
VERTEX
  5
84
330
83
100
AcDbEntity
  8
DIBUJOS
 62
     7
100
AcDbVertex
100
AcDb2dVertex
 10
79.69470147895655
 20
46.95649349204188
 30
0.0
  0
VERTEX
  5
85
330
83
100
AcDbEntity
  8
DIBUJOS
 62
     7
100
AcDbVertex
100
AcDb2dVertex
 10
79.6891119785103
 20
46.95649349204188
 30
0.0
  0
SEQEND
  5
86
330
83
100
AcDbEntity
  8
DIBUJOS
 62
     7
  0
POLYLINE
  5
87
330
53
100
AcDbEntity
  8
DIBUJOS
 62
     7
100
AcDb2dPolyline
 66
     1
 10
0.0
 20
0.0
 30
0.0
  0
VERTEX
  5
88
330
87
100
AcDbEntity
  8
DIBUJOS
 62
     7
100
AcDbVertex
100
AcDb2dVertex
 10
79.8960017540551
 20
46.95649349204188
 30
0.0
  0
VERTEX
  5
89
330
87
100
AcDbEntity
  8
DIBUJOS
 62
     7
100
AcDbVertex
100
AcDb2dVertex
 10
79.69470147895655
 20
46.95649349204188
 30
0.0
  0
SEQEND
  5
8A
330
87
100
AcDbEntity
  8
DIBUJOS
 62
     7
  0
POLYLINE
  5
8B
330
53
100
AcDbEntity
  8
DIBUJOS
 62
     7
100
AcDb2dPolyline
 66
     1
 10
0.0
 20
0.0
 30
0.0
  0
VERTEX
  5
8C
330
8B
100
AcDbEntity
  8
DIBUJOS
 62
     7
100
AcDbVertex
100
AcDb2dVertex
 10
79.90159426446387
 20
46.95649349204188
 30
0.0
  0
VERTEX
  5
8D
330
8B
100
AcDbEntity
  8
DIBUJOS
 62
     7
100
AcDbVertex
100
AcDb2dVertex
 10
79.8960017540551
 20
46.95649349204188
 30
0.0
  0
SEQEND
  5
8E
330
8B
100
AcDbEntity
  8
DIBUJOS
 62
     7
  0
POLYLINE
  5
8F
330
53
100
AcDbEntity
  8
DIBUJOS
 62
     7
100
AcDb2dPolyline
 66
     1
 10
0.0
 20
0.0
 30
0.0
  0
VERTEX
  5
90
330
8F
100
AcDbEntity
  8
DIBUJOS
 62
     7
100
AcDbVertex
100
AcDb2dVertex
 10
79.90718376491013
 20
46.95649349204188
 30
0.0
  0
VERTEX
  5
91
330
8F
100
AcDbEntity
  8
DIBUJOS
 62
     7
100
AcDbVertex
100
AcDb2dVertex
 10
79.90159426446387
 20
46.95649349204188
 30
0.0
  0
SEQEND
  5
92
330
8F
100
AcDbEntity
  8
DIBUJOS
 62
     7
  0
POLYLINE
  5
93
330
53
100
AcDbEntity
  8
DIBUJOS
 62
     7
100
AcDb2dPolyline
 66
     1
 10
0.0
 20
0.0
 30
0.0
  0
VERTEX
  5
94
330
93
100
AcDbEntity
  8
DIBUJOS
 62
     7
100
AcDbVertex
100
AcDb2dVertex
 10
80.78507245081018
 20
46.95649349204188
 30
0.0
  0
VERTEX
  5
95
330
93
100
AcDbEntity
  8
DIBUJOS
 62
     7
100
AcDbVertex
100
AcDb2dVertex
 10
79.91277627531888
 20
46.96208299248845
 30
0.0
  0
VERTEX
  5
96
330
93
100
AcDbEntity
  8
DIBUJOS
 62
     7
100
AcDbVertex
100
AcDb2dVertex
 10
79.90718376491013
 20
46.95649349204188
 30
0.0
  0
SEQEND
  5
97
330
93
100
AcDbEntity
  8
DIBUJOS
 62
     7
  0
POLYLINE
  5
98
330
53
100
AcDbEntity
  8
DIBUJOS
 62
     7
100
AcDb2dPolyline
 66
     1
 10
0.0
 20
0.0
 30
0.0
  0
VERTEX
  5
99
330
98
100
AcDbEntity
  8
DIBUJOS
 62
     7
100
AcDbVertex
100
AcDb2dVertex
 10
80.79066496121894
 20
46.95649349204188
 30
0.0
  0
VERTEX
  5
9A
330
98
100
AcDbEntity
  8
DIBUJOS
 62
     7
100
AcDbVertex
100
AcDb2dVertex
 10
80.78507245081018
 20
46.95649349204188
 30
0.0
  0
SEQEND
  5
9B
330
98
100
AcDbEntity
  8
DIBUJOS
 62
     7
  0
POLYLINE
  5
9C
330
53
100
AcDbEntity
  8
DIBUJOS
 62
     7
100
AcDb2dPolyline
 66
     1
 10
0.0
 20
0.0
 30
0.0
  0
VERTEX
  5
9D
330
9C
100
AcDbEntity
  8
DIBUJOS
 62
     7
100
AcDbVertex
100
AcDb2dVertex
 10
80.79625747162834
 20
46.95649349204188
 30
0.0
  0
VERTEX
  5
9E
330
9C
100
AcDbEntity
  8
DIBUJOS
 62
     7
100
AcDbVertex
100
AcDb2dVertex
 10
80.79066496121894
 20
46.95649349204188
 30
0.0
  0
SEQEND
  5
9F
330
9C
100
AcDbEntity
  8
DIBUJOS
 62
     7
  0
POLYLINE
  5
A0
330
53
100
AcDbEntity
  8
DIBUJOS
 62
     7
100
AcDb2dPolyline
 66
     1
 10
0.0
 20
0.0
 30
0.0
  0
VERTEX
  5
A1
330
A0
100
AcDbEntity
  8
DIBUJOS
 62
     7
100
AcDbVertex
100
AcDb2dVertex
 10
80.79625747162834
 20
46.95649349204188
 30
0.0
  0
VERTEX
  5
A2
330
A0
100
AcDbEntity
  8
DIBUJOS
 62
     7
100
AcDbVertex
100
AcDb2dVertex
 10
80.80184697207395
 20
46.96208299248845
 30
0.0
  0
VERTEX
  5
A3
330
A0
100
AcDbEntity
  8
DIBUJOS
 62
     7
100
AcDbVertex
100
AcDb2dVertex
 10
82.77010963979014
 20
46.96208299248845
 30
0.0
  0
SEQEND
  5
A4
330
A0
100
AcDbEntity
  8
DIBUJOS
 62
     7
  0
POLYLINE
  5
A5
330
53
100
AcDbEntity
  8
DIBUJOS
 62
     7
100
AcDb2dPolyline
 66
     1
 10
0.0
 20
0.0
 30
0.0
  0
VERTEX
  5
A6
330
A5
100
AcDbEntity
  8
DIBUJOS
 62
     7
100
AcDbVertex
100
AcDb2dVertex
 10
78.79444576138333
 20
46.95090098163313
 30
0.0
  0
VERTEX
  5
A7
330
A5
100
AcDbEntity
  8
DIBUJOS
 62
     7
100
AcDbVertex
100
AcDb2dVertex
 10
78.79444576138333
 20
46.95649349204188
 30
0.0
  0
SEQEND
  5
A8
330
A5
100
AcDbEntity
  8
DIBUJOS
 62
     7
  0
POLYLINE
  5
A9
330
53
100
AcDbEntity
  8
DIBUJOS
 62
     7
100
AcDb2dPolyline
 66
     1
 10
0.0
 20
0.0
 30
0.0
  0
VERTEX
  5
AA
330
A9
100
AcDbEntity
  8
DIBUJOS
 62
     7
100
AcDbVertex
100
AcDb2dVertex
 10
79.23618786451867
 20
46.95090098163313
 30
0.0
  0
VERTEX
  5
AB
330
A9
100
AcDbEntity
  8
DIBUJOS
 62
     7
100
AcDbVertex
100
AcDb2dVertex
 10
79.23618786451867
 20
46.95649349204188
 30
0.0
  0
SEQEND
  5
AC
330
A9
100
AcDbEntity
  8
DIBUJOS
 62
     7
  0
POLYLINE
  5
AD
330
53
100
AcDbEntity
  8
DIBUJOS
 62
     7
100
AcDb2dPolyline
 66
     1
 10
0.0
 20
0.0
 30
0.0
  0
VERTEX
  5
AE
330
AD
100
AcDbEntity
  8
DIBUJOS
 62
     7
100
AcDbVertex
100
AcDb2dVertex
 10
79.6891119785103
 20
46.95090098163313
 30
0.0
  0
VERTEX
  5
AF
330
AD
100
AcDbEntity
  8
DIBUJOS
 62
     7
100
AcDbVertex
100
AcDb2dVertex
 10
79.6891119785103
 20
46.95649349204188
 30
0.0
  0
SEQEND
  5
B0
330
AD
100
AcDbEntity
  8
DIBUJOS
 62
     7
  0
POLYLINE
  5
B1
330
53
100
AcDbEntity
  8
DIBUJOS
 62
     7
100
AcDb2dPolyline
 66
     1
 10
0.0
 20
0.0
 30
0.0
  0
VERTEX
  5
B2
330
B1
100
AcDbEntity
  8
DIBUJOS
 62
     7
100
AcDbVertex
100
AcDb2dVertex
 10
79.90159426446387
 20
46.95090098163313
 30
0.0
  0
VERTEX
  5
B3
330
B1
100
AcDbEntity
  8
DIBUJOS
 62
     7
100
AcDbVertex
100
AcDb2dVertex
 10
79.90159426446387
 20
46.95649349204188
 30
0.0
  0
SEQEND
  5
B4
330
B1
100
AcDbEntity
  8
DIBUJOS
 62
     7
  0
POLYLINE
  5
B5
330
53
100
AcDbEntity
  8
DIBUJOS
 62
     7
100
AcDb2dPolyline
 66
     1
 10
0.0
 20
0.0
 30
0.0
  0
VERTEX
  5
B6
330
B5
100
AcDbEntity
  8
DIBUJOS
 62
     7
100
AcDbVertex
100
AcDb2dVertex
 10
80.79066496121894
 20
46.95090098163313
 30
0.0
  0
VERTEX
  5
B7
330
B5
100
AcDbEntity
  8
DIBUJOS
 62
     7
100
AcDbVertex
100
AcDb2dVertex
 10
80.79066496121894
 20
46.95649349204188
 30
0.0
  0
SEQEND
  5
B8
330
B5
100
AcDbEntity
  8
DIBUJOS
 62
     7
  0
POLYLINE
  5
B9
330
53
100
AcDbEntity
  8
DIBUJOS
 62
     7
100
AcDb2dPolyline
 66
     1
 10
0.0
 20
0.0
 30
0.0
  0
VERTEX
  5
BA
330
B9
100
AcDbEntity
  8
DIBUJOS
 62
     7
100
AcDbVertex
100
AcDb2dVertex
 10
79.22500284370115
 20
45.77106188308587
 30
0.0
  0
VERTEX
  5
BB
330
B9
100
AcDbEntity
  8
DIBUJOS
 62
     7
100
AcDbVertex
100
AcDb2dVertex
 10
79.21941334325426
 20
45.77106188308587
 30
0.0
  0
SEQEND
  5
BC
330
B9
100
AcDbEntity
  8
DIBUJOS
 62
     7
  0
POLYLINE
  5
BD
330
53
100
AcDbEntity
  8
DIBUJOS
 62
     7
100
AcDb2dPolyline
 66
     1
 10
0.0
 20
0.0
 30
0.0
  0
VERTEX
  5
BE
330
BD
100
AcDbEntity
  8
DIBUJOS
 62
     7
100
AcDbVertex
100
AcDb2dVertex
 10
79.22500284370115
 20
45.77106188308587
 30
0.0
  0
VERTEX
  5
BF
330
BD
100
AcDbEntity
  8
DIBUJOS
 62
     7
100
AcDbVertex
100
AcDb2dVertex
 10
79.24177736496556
 20
45.78783941431246
 30
0.0
  0
VERTEX
  5
C0
330
BD
100
AcDbEntity
  8
DIBUJOS
 62
     7
100
AcDbVertex
100
AcDb2dVertex
 10
79.24177736496556
 20
46.93971897077779
 30
0.0
  0
VERTEX
  5
C1
330
BD
100
AcDbEntity
  8
DIBUJOS
 62
     7
100
AcDbVertex
100
AcDb2dVertex
 10
79.23618786451867
 20
46.95090098163313
 30
0.0
  0
SEQEND
  5
C2
330
BD
100
AcDbEntity
  8
DIBUJOS
 62
     7
  0
POLYLINE
  5
C3
330
53
100
AcDbEntity
  8
DIBUJOS
 62
     7
100
AcDb2dPolyline
 66
     1
 10
0.0
 20
0.0
 30
0.0
  0
VERTEX
  5
C4
330
C3
100
AcDbEntity
  8
DIBUJOS
 62
     7
100
AcDbVertex
100
AcDb2dVertex
 10
80.36010787890176
 20
45.77106188308587
 30
0.0
  0
VERTEX
  5
C5
330
C3
100
AcDbEntity
  8
DIBUJOS
 62
     7
100
AcDbVertex
100
AcDb2dVertex
 10
80.35451536849236
 20
45.7766543934943
 30
0.0
  0
SEQEND
  5
C6
330
C3
100
AcDbEntity
  8
DIBUJOS
 62
     7
  0
POLYLINE
  5
C7
330
53
100
AcDbEntity
  8
DIBUJOS
 62
     7
100
AcDb2dPolyline
 66
     1
 10
0.0
 20
0.0
 30
0.0
  0
VERTEX
  5
C8
330
C7
100
AcDbEntity
  8
DIBUJOS
 62
     7
100
AcDbVertex
100
AcDb2dVertex
 10
80.36570038930986
 20
45.77106188308587
 30
0.0
  0
VERTEX
  5
C9
330
C7
100
AcDbEntity
  8
DIBUJOS
 62
     7
100
AcDbVertex
100
AcDb2dVertex
 10
80.36010787890176
 20
45.77106188308587
 30
0.0
  0
SEQEND
  5
CA
330
C7
100
AcDbEntity
  8
DIBUJOS
 62
     7
  0
POLYLINE
  5
CB
330
53
100
AcDbEntity
  8
DIBUJOS
 62
     7
100
AcDb2dPolyline
 66
     1
 10
0.0
 20
0.0
 30
0.0
  0
VERTEX
  5
CC
330
CB
100
AcDbEntity
  8
DIBUJOS
 62
     7
100
AcDbVertex
100
AcDb2dVertex
 10
79.22500284370115
 20
45.76547238263897
 30
0.0
  0
VERTEX
  5
CD
330
CB
100
AcDbEntity
  8
DIBUJOS
 62
     7
100
AcDbVertex
100
AcDb2dVertex
 10
79.22500284370115
 20
45.77106188308587
 30
0.0
  0
SEQEND
  5
CE
330
CB
100
AcDbEntity
  8
DIBUJOS
 62
     7
  0
POLYLINE
  5
CF
330
53
100
AcDbEntity
  8
DIBUJOS
 62
     7
100
AcDb2dPolyline
 66
     1
 10
0.0
 20
0.0
 30
0.0
  0
VERTEX
  5
D0
330
CF
100
AcDbEntity
  8
DIBUJOS
 62
     7
100
AcDbVertex
100
AcDb2dVertex
 10
80.36010787890176
 20
45.76547238263897
 30
0.0
  0
VERTEX
  5
D1
330
CF
100
AcDbEntity
  8
DIBUJOS
 62
     7
100
AcDbVertex
100
AcDb2dVertex
 10
80.36010787890176
 20
45.77106188308587
 30
0.0
  0
SEQEND
  5
D2
330
CF
100
AcDbEntity
  8
DIBUJOS
 62
     7
  0
POLYLINE
  5
D3
330
53
100
AcDbEntity
  8
DIBUJOS
 62
     7
100
AcDb2dPolyline
 66
     1
 10
0.0
 20
0.0
 30
0.0
  0
VERTEX
  5
D4
330
D3
100
AcDbEntity
  8
DIBUJOS
 62
     7
100
AcDbVertex
100
AcDb2dVertex
 10
79.67792695769214
 20
45.7598798722299
 30
0.0
  0
VERTEX
  5
D5
330
D3
100
AcDbEntity
  8
DIBUJOS
 62
     7
100
AcDbVertex
100
AcDb2dVertex
 10
79.6723344472821
 20
45.7598798722299
 30
0.0
  0
SEQEND
  5
D6
330
D3
100
AcDbEntity
  8
DIBUJOS
 62
     7
  0
POLYLINE
  5
D7
330
53
100
AcDbEntity
  8
DIBUJOS
 62
     7
100
AcDb2dPolyline
 66
     1
 10
0.0
 20
0.0
 30
0.0
  0
VERTEX
  5
D8
330
D7
100
AcDbEntity
  8
DIBUJOS
 62
     7
100
AcDbVertex
100
AcDb2dVertex
 10
79.67792695769214
 20
45.7598798722299
 30
0.0
  0
VERTEX
  5
D9
330
D7
100
AcDbEntity
  8
DIBUJOS
 62
     7
100
AcDbVertex
100
AcDb2dVertex
 10
79.6891119785103
 20
46.95090098163313
 30
0.0
  0
SEQEND
  5
DA
330
D7
100
AcDbEntity
  8
DIBUJOS
 62
     7
  0
POLYLINE
  5
DB
330
53
100
AcDbEntity
  8
DIBUJOS
 62
     7
100
AcDb2dPolyline
 66
     1
 10
0.0
 20
0.0
 30
0.0
  0
VERTEX
  5
DC
330
DB
100
AcDbEntity
  8
DIBUJOS
 62
     7
100
AcDbVertex
100
AcDb2dVertex
 10
79.90718376491013
 20
45.7598798722299
 30
0.0
  0
VERTEX
  5
DD
330
DB
100
AcDbEntity
  8
DIBUJOS
 62
     7
100
AcDbVertex
100
AcDb2dVertex
 10
79.90159426446387
 20
46.95090098163313
 30
0.0
  0
SEQEND
  5
DE
330
DB
100
AcDbEntity
  8
DIBUJOS
 62
     7
  0
POLYLINE
  5
DF
330
53
100
AcDbEntity
  8
DIBUJOS
 62
     7
100
AcDb2dPolyline
 66
     1
 10
0.0
 20
0.0
 30
0.0
  0
VERTEX
  5
E0
330
DF
100
AcDbEntity
  8
DIBUJOS
 62
     7
100
AcDbVertex
100
AcDb2dVertex
 10
79.22500284370115
 20
45.76547238263897
 30
0.0
  0
VERTEX
  5
E1
330
DF
100
AcDbEntity
  8
DIBUJOS
 62
     7
100
AcDbVertex
100
AcDb2dVertex
 10
79.24122052189443
 20
45.75820332309214
 30
0.0
  0
VERTEX
  5
E2
330
DF
100
AcDbEntity
  8
DIBUJOS
 62
     7
100
AcDbVertex
100
AcDb2dVertex
 10
79.66730178990763
 20
45.75876016616295
 30
0.0
  0
VERTEX
  5
E3
330
DF
100
AcDbEntity
  8
DIBUJOS
 62
     7
100
AcDbVertex
100
AcDb2dVertex
 10
79.6723344472821
 20
45.7598798722299
 30
0.0
  0
SEQEND
  5
E4
330
DF
100
AcDbEntity
  8
DIBUJOS
 62
     7
  0
POLYLINE
  5
E5
330
53
100
AcDbEntity
  8
DIBUJOS
 62
     7
100
AcDb2dPolyline
 66
     1
 10
0.0
 20
0.0
 30
0.0
  0
VERTEX
  5
E6
330
E5
100
AcDbEntity
  8
DIBUJOS
 62
     7
100
AcDbVertex
100
AcDb2dVertex
 10
79.67792695769214
 20
45.75428736182082
 30
0.0
  0
VERTEX
  5
E7
330
E5
100
AcDbEntity
  8
DIBUJOS
 62
     7
100
AcDbVertex
100
AcDb2dVertex
 10
79.67792695769214
 20
45.7598798722299
 30
0.0
  0
SEQEND
  5
E8
330
E5
100
AcDbEntity
  8
DIBUJOS
 62
     7
  0
POLYLINE
  5
E9
330
53
100
AcDbEntity
  8
DIBUJOS
 62
     7
100
AcDb2dPolyline
 66
     1
 10
0.0
 20
0.0
 30
0.0
  0
VERTEX
  5
EA
330
E9
100
AcDbEntity
  8
DIBUJOS
 62
     7
100
AcDbVertex
100
AcDb2dVertex
 10
79.90718376491013
 20
45.75428736182082
 30
0.0
  0
VERTEX
  5
EB
330
E9
100
AcDbEntity
  8
DIBUJOS
 62
     7
100
AcDbVertex
100
AcDb2dVertex
 10
79.90718376491013
 20
45.7598798722299
 30
0.0
  0
SEQEND
  5
EC
330
E9
100
AcDbEntity
  8
DIBUJOS
 62
     7
  0
POLYLINE
  5
ED
330
53
100
AcDbEntity
  8
DIBUJOS
 62
     7
100
AcDb2dPolyline
 66
     1
 10
0.0
 20
0.0
 30
0.0
  0
VERTEX
  5
EE
330
ED
100
AcDbEntity
  8
DIBUJOS
 62
     7
100
AcDbVertex
100
AcDb2dVertex
 10
79.91277627531888
 20
45.75428736182082
 30
0.0
  0
VERTEX
  5
EF
330
ED
100
AcDbEntity
  8
DIBUJOS
 62
     7
100
AcDbVertex
100
AcDb2dVertex
 10
79.90718376491013
 20
45.75428736182082
 30
0.0
  0
SEQEND
  5
F0
330
ED
100
AcDbEntity
  8
DIBUJOS
 62
     7
  0
POLYLINE
  5
F1
330
53
100
AcDbEntity
  8
DIBUJOS
 62
     7
100
AcDb2dPolyline
 66
     1
 10
0.0
 20
0.0
 30
0.0
  0
VERTEX
  5
F2
330
F1
100
AcDbEntity
  8
DIBUJOS
 62
     7
100
AcDbVertex
100
AcDb2dVertex
 10
79.91277627531888
 20
45.75428736182082
 30
0.0
  0
VERTEX
  5
F3
330
F1
100
AcDbEntity
  8
DIBUJOS
 62
     7
100
AcDbVertex
100
AcDb2dVertex
 10
79.91780893269528
 20
45.75540706788776
 30
0.0
  0
VERTEX
  5
F4
330
F1
100
AcDbEntity
  8
DIBUJOS
 62
     7
100
AcDbVertex
100
AcDb2dVertex
 10
80.35395852542186
 20
45.76099957829684
 30
0.0
  0
VERTEX
  5
F5
330
F1
100
AcDbEntity
  8
DIBUJOS
 62
     7
100
AcDbVertex
100
AcDb2dVertex
 10
80.36010787890176
 20
45.76547238263897
 30
0.0
  0
SEQEND
  5
F6
330
F1
100
AcDbEntity
  8
DIBUJOS
 62
     7
  0
POLYLINE
  5
F7
330
53
100
AcDbEntity
  8
DIBUJOS
 62
     7
100
AcDb2dPolyline
 66
     1
 10
0.0
 20
0.0
 30
0.0
  0
VERTEX
  5
F8
330
F7
100
AcDbEntity
  8
DIBUJOS
 62
     7
100
AcDbVertex
100
AcDb2dVertex
 10
79.90718376491013
 20
45.74869786137456
 30
0.0
  0
VERTEX
  5
F9
330
F7
100
AcDbEntity
  8
DIBUJOS
 62
     7
100
AcDbVertex
100
AcDb2dVertex
 10
79.90718376491013
 20
45.75428736182082
 30
0.0
  0
SEQEND
  5
FA
330
F7
100
AcDbEntity
  8
DIBUJOS
 62
     7
  0
POLYLINE
  5
FB
330
53
100
AcDbEntity
  8
DIBUJOS
 62
     7
100
AcDb2dPolyline
 66
     1
 10
0.0
 20
0.0
 30
0.0
  0
VERTEX
  5
FC
330
FB
100
AcDbEntity
  8
DIBUJOS
 62
     7
100
AcDbVertex
100
AcDb2dVertex
 10
78.79444576138333
 20
46.95090098163313
 30
0.0
  0
VERTEX
  5
FD
330
FB
100
AcDbEntity
  8
DIBUJOS
 62
     7
100
AcDbVertex
100
AcDb2dVertex
 10
78.64738501134836
 20
46.61596137948914
 30
0.0
  0
VERTEX
  5
FE
330
FB
100
AcDbEntity
  8
DIBUJOS
 62
     7
100
AcDbVertex
100
AcDb2dVertex
 10
77.92662239023545
 20
45.11180784658274
 30
0.0
  0
VERTEX
  5
FF
330
FB
100
AcDbEntity
  8
DIBUJOS
 62
     7
100
AcDbVertex
100
AcDb2dVertex
 10
77.78906710191902
 20
44.82551525909454
 30
0.0
  0
VERTEX
  5
100
330
FB
100
AcDbEntity
  8
DIBUJOS
 62
     7
100
AcDbVertex
100
AcDb2dVertex
 10
76.90446920950544
 20
42.99201463445291
 30
0.0
  0
VERTEX
  5
101
330
FB
100
AcDbEntity
  8
DIBUJOS
 62
     7
100
AcDbVertex
100
AcDb2dVertex
 10
76.9156542303236
 20
42.98082961363508
 30
0.0
  0
VERTEX
  5
102
330
FB
100
AcDbEntity
  8
DIBUJOS
 62
     7
100
AcDbVertex
100
AcDb2dVertex
 10
77.19523460133608
 20
42.98642212404415
 30
0.0
  0
VERTEX
  5
103
330
FB
100
AcDbEntity
  8
DIBUJOS
 62
     7
100
AcDbVertex
100
AcDb2dVertex
 10
77.2580344598797
 20
43.07502940145017
 30
0.0
  0
VERTEX
  5
104
330
FB
100
AcDbEntity
  8
DIBUJOS
 62
     7
100
AcDbVertex
100
AcDb2dVertex
 10
77.29459346495346
 20
43.13266416426584
 30
0.0
  0
VERTEX
  5
105
330
FB
100
AcDbEntity
  8
DIBUJOS
 62
     7
100
AcDbVertex
100
AcDb2dVertex
 10
78.92305544101485
 20
45.62568069215148
 30
0.0
  0
VERTEX
  5
106
330
FB
100
AcDbEntity
  8
DIBUJOS
 62
     7
100
AcDbVertex
100
AcDb2dVertex
 10
78.99015352607313
 20
45.69277877720943
 30
0.0
  0
VERTEX
  5
107
330
FB
100
AcDbEntity
  8
DIBUJOS
 62
     7
100
AcDbVertex
100
AcDb2dVertex
 10
79.0413409491168
 20
45.72503955576917
 30
0.0
  0
VERTEX
  5
108
330
FB
100
AcDbEntity
  8
DIBUJOS
 62
     7
100
AcDbVertex
100
AcDb2dVertex
 10
79.11820335267102
 20
45.76099957829684
 30
0.0
  0
VERTEX
  5
109
330
FB
100
AcDbEntity
  8
DIBUJOS
 62
     7
100
AcDbVertex
100
AcDb2dVertex
 10
79.1248463400083
 20
45.76349784720909
 30
0.0
  0
VERTEX
  5
10A
330
FB
100
AcDbEntity
  8
DIBUJOS
 62
     7
100
AcDbVertex
100
AcDb2dVertex
 10
79.2138208328455
 20
45.7766543934943
 30
0.0
  0
VERTEX
  5
10B
330
FB
100
AcDbEntity
  8
DIBUJOS
 62
     7
100
AcDbVertex
100
AcDb2dVertex
 10
79.21941334325426
 20
45.77106188308587
 30
0.0
  0
SEQEND
  5
10C
330
FB
100
AcDbEntity
  8
DIBUJOS
 62
     7
  0
POLYLINE
  5
10D
330
53
100
AcDbEntity
  8
DIBUJOS
 62
     7
100
AcDb2dPolyline
 66
     1
 10
0.0
 20
0.0
 30
0.0
  0
VERTEX
  5
10E
330
10D
100
AcDbEntity
  8
DIBUJOS
 62
     7
100
AcDbVertex
100
AcDb2dVertex
 10
79.67792695769214
 20
45.75428736182082
 30
0.0
  0
VERTEX
  5
10F
330
10D
100
AcDbEntity
  8
DIBUJOS
 62
     7
100
AcDbVertex
100
AcDb2dVertex
 10
79.6835194681009
 20
42.99201463445291
 30
0.0
  0
VERTEX
  5
110
330
10D
100
AcDbEntity
  8
DIBUJOS
 62
     7
100
AcDbVertex
100
AcDb2dVertex
 10
79.69470147895655
 20
42.98082961363508
 30
0.0
  0
VERTEX
  5
111
330
10D
100
AcDbEntity
  8
DIBUJOS
 62
     7
100
AcDbVertex
100
AcDb2dVertex
 10
79.8960017540551
 20
42.98082961363508
 30
0.0
  0
VERTEX
  5
112
330
10D
100
AcDbEntity
  8
DIBUJOS
 62
     7
100
AcDbVertex
100
AcDb2dVertex
 10
79.90718376491013
 20
42.99201463445291
 30
0.0
  0
VERTEX
  5
113
330
10D
100
AcDbEntity
  8
DIBUJOS
 62
     7
100
AcDbVertex
100
AcDb2dVertex
 10
79.90718376491013
 20
45.74869786137456
 30
0.0
  0
SEQEND
  5
114
330
10D
100
AcDbEntity
  8
DIBUJOS
 62
     7
  0
POLYLINE
  5
115
330
53
100
AcDbEntity
  8
DIBUJOS
 62
     7
100
AcDb2dPolyline
 66
     1
 10
0.0
 20
0.0
 30
0.0
  0
VERTEX
  5
116
330
115
100
AcDbEntity
  8
DIBUJOS
 62
     7
100
AcDbVertex
100
AcDb2dVertex
 10
80.36570038930986
 20
45.77106188308587
 30
0.0
  0
VERTEX
  5
117
330
115
100
AcDbEntity
  8
DIBUJOS
 62
     7
100
AcDbVertex
100
AcDb2dVertex
 10
80.37129289971926
 20
45.7766543934943
 30
0.0
  0
VERTEX
  5
118
330
115
100
AcDbEntity
  8
DIBUJOS
 62
     7
100
AcDbVertex
100
AcDb2dVertex
 10
80.40484194224808
 20
45.7766543934943
 30
0.0
  0
VERTEX
  5
119
330
115
100
AcDbEntity
  8
DIBUJOS
 62
     7
100
AcDbVertex
100
AcDb2dVertex
 10
80.46019816341708
 20
45.76379282353872
 30
0.0
  0
VERTEX
  5
11A
330
115
100
AcDbEntity
  8
DIBUJOS
 62
     7
100
AcDbVertex
100
AcDb2dVertex
 10
80.4669073699306
 20
45.76155642136797
 30
0.0
  0
VERTEX
  5
11B
330
115
100
AcDbEntity
  8
DIBUJOS
 62
     7
100
AcDbVertex
100
AcDb2dVertex
 10
80.53818027303922
 20
45.73063206617793
 30
0.0
  0
VERTEX
  5
11C
330
115
100
AcDbEntity
  8
DIBUJOS
 62
     7
100
AcDbVertex
100
AcDb2dVertex
 10
80.55108398247009
 20
45.7220295932239
 30
0.0
  0
VERTEX
  5
11D
330
115
100
AcDbEntity
  8
DIBUJOS
 62
     7
100
AcDbVertex
100
AcDb2dVertex
 10
80.58936468612038
 20
45.69837128761819
 30
0.0
  0
VERTEX
  5
11E
330
115
100
AcDbEntity
  8
DIBUJOS
 62
     7
100
AcDbVertex
100
AcDb2dVertex
 10
80.67324030240492
 20
45.61449567133364
 30
0.0
  0
VERTEX
  5
11F
330
115
100
AcDbEntity
  8
DIBUJOS
 62
     7
100
AcDbVertex
100
AcDb2dVertex
 10
82.30471224101191
 20
43.11417095438807
 30
0.0
  0
VERTEX
  5
120
330
115
100
AcDbEntity
  8
DIBUJOS
 62
     7
100
AcDbVertex
100
AcDb2dVertex
 10
82.34084082144139
 20
43.0599735687988
 30
0.0
  0
VERTEX
  5
121
330
115
100
AcDbEntity
  8
DIBUJOS
 62
     7
100
AcDbVertex
100
AcDb2dVertex
 10
82.38987612126618
 20
42.98642212404415
 30
0.0
  0
VERTEX
  5
122
330
115
100
AcDbEntity
  8
DIBUJOS
 62
     7
100
AcDbVertex
100
AcDb2dVertex
 10
82.43433627802133
 20
42.98396900456969
 30
0.0
  0
VERTEX
  5
123
330
115
100
AcDbEntity
  8
DIBUJOS
 62
     7
100
AcDbVertex
100
AcDb2dVertex
 10
82.68623402350558
 20
42.98642212404415
 30
0.0
  0
VERTEX
  5
124
330
115
100
AcDbEntity
  8
DIBUJOS
 62
     7
100
AcDbVertex
100
AcDb2dVertex
 10
81.80946203370965
 20
44.804267933488
 30
0.0
  0
VERTEX
  5
125
330
115
100
AcDbEntity
  8
DIBUJOS
 62
     7
100
AcDbVertex
100
AcDb2dVertex
 10
81.66967335318498
 20
45.09503332531801
 30
0.0
  0
VERTEX
  5
126
330
115
100
AcDbEntity
  8
DIBUJOS
 62
     7
100
AcDbVertex
100
AcDb2dVertex
 10
80.93996211342402
 20
46.62043418383127
 30
0.0
  0
VERTEX
  5
127
330
115
100
AcDbEntity
  8
DIBUJOS
 62
     7
100
AcDbVertex
100
AcDb2dVertex
 10
80.93716585821963
 20
46.62714339034479
 30
0.0
  0
VERTEX
  5
128
330
115
100
AcDbEntity
  8
DIBUJOS
 62
     7
100
AcDbVertex
100
AcDb2dVertex
 10
80.80497432315889
 20
46.93264555879622
 30
0.0
  0
VERTEX
  5
129
330
115
100
AcDbEntity
  8
DIBUJOS
 62
     7
100
AcDbVertex
100
AcDb2dVertex
 10
80.79066496121894
 20
46.95090098163313
 30
0.0
  0
SEQEND
  5
12A
330
115
100
AcDbEntity
  8
DIBUJOS
 62
     7
  0
ENDBLK
  5
56
330
53
100
AcDbEntity
  8
0
100
AcDbBlockEnd
  0
BLOCK
  5
12D
330
12B
100
AcDbEntity
  8
0
100
AcDbBlockBegin
  2
BLOCK_3
 70
     0
 10
0.0
 20
0.0
 30
0.0
  3
BLOCK_3
  1

  0
POLYLINE
  5
12F
330
12B
100
AcDbEntity
  8
DIBUJOS
 62
     7
100
AcDb2dPolyline
 66
     1
 10
0.0
 20
0.0
 30
0.0
  0
VERTEX
  5
130
330
12F
100
AcDbEntity
  8
DIBUJOS
 62
     7
100
AcDbVertex
100
AcDb2dVertex
 10
67.07536053409132
 20
47.53243176529313
 30
0.0
  0
VERTEX
  5
131
330
12F
100
AcDbEntity
  8
DIBUJOS
 62
     7
100
AcDbVertex
100
AcDb2dVertex
 10
67.06976952866349
 20
47.53802427570221
 30
0.0
  0
SEQEND
  5
132
330
12F
100
AcDbEntity
  8
DIBUJOS
 62
     7
  0
POLYLINE
  5
133
330
12B
100
AcDbEntity
  8
DIBUJOS
 62
     7
100
AcDb2dPolyline
 66
     1
 10
0.0
 20
0.0
 30
0.0
  0
VERTEX
  5
134
330
133
100
AcDbEntity
  8
DIBUJOS
 62
     7
100
AcDbVertex
100
AcDb2dVertex
 10
63.08851614981042
 20
47.34231651101241
 30
0.0
  0
VERTEX
  5
135
330
133
100
AcDbEntity
  8
DIBUJOS
 62
     7
100
AcDbVertex
100
AcDb2dVertex
 10
61.12025649205706
 20
47.34790902142149
 30
0.0
  0
VERTEX
  5
136
330
133
100
AcDbEntity
  8
DIBUJOS
 62
     7
100
AcDbVertex
100
AcDb2dVertex
 10
61.11466473413861
 20
47.35349852186806
 30
0.0
  0
VERTEX
  5
137
330
133
100
AcDbEntity
  8
DIBUJOS
 62
     7
100
AcDbVertex
100
AcDb2dVertex
 10
61.11466473413861
 20
47.53243176529313
 30
0.0
  0
VERTEX
  5
138
330
133
100
AcDbEntity
  8
DIBUJOS
 62
     7
100
AcDbVertex
100
AcDb2dVertex
 10
61.12584824997519
 20
47.54361678611129
 30
0.0
  0
VERTEX
  5
139
330
133
100
AcDbEntity
  8
DIBUJOS
 62
     7
100
AcDbVertex
100
AcDb2dVertex
 10
66.52738029794105
 20
47.53802427570221
 30
0.0
  0
VERTEX
  5
13A
330
133
100
AcDbEntity
  8
DIBUJOS
 62
     7
100
AcDbVertex
100
AcDb2dVertex
 10
66.71749555222273
 20
47.53802427570221
 30
0.0
  0
VERTEX
  5
13B
330
133
100
AcDbEntity
  8
DIBUJOS
 62
     7
100
AcDbVertex
100
AcDb2dVertex
 10
66.72308806263118
 20
47.54361678611129
 30
0.0
  0
VERTEX
  5
13C
330
133
100
AcDbEntity
  8
DIBUJOS
 62
     7
100
AcDbVertex
100
AcDb2dVertex
 10
66.7343152229243
 20
47.54077237150598
 30
0.0
  0
VERTEX
  5
13D
330
133
100
AcDbEntity
  8
DIBUJOS
 62
     7
100
AcDbVertex
100
AcDb2dVertex
 10
67.06976952866349
 20
47.53802427570221
 30
0.0
  0
SEQEND
  5
13E
330
133
100
AcDbEntity
  8
DIBUJOS
 62
     7
  0
POLYLINE
  5
13F
330
12B
100
AcDbEntity
  8
DIBUJOS
 62
     7
100
AcDb2dPolyline
 66
     1
 10
0.0
 20
0.0
 30
0.0
  0
VERTEX
  5
140
330
13F
100
AcDbEntity
  8
DIBUJOS
 62
     7
100
AcDbVertex
100
AcDb2dVertex
 10
63.09410866021918
 20
47.34231651101241
 30
0.0
  0
VERTEX
  5
141
330
13F
100
AcDbEntity
  8
DIBUJOS
 62
     7
100
AcDbVertex
100
AcDb2dVertex
 10
63.08851614981042
 20
47.34231651101241
 30
0.0
  0
SEQEND
  5
142
330
13F
100
AcDbEntity
  8
DIBUJOS
 62
     7
  0
POLYLINE
  5
143
330
12B
100
AcDbEntity
  8
DIBUJOS
 62
     7
100
AcDb2dPolyline
 66
     1
 10
0.0
 20
0.0
 30
0.0
  0
VERTEX
  5
144
330
143
100
AcDbEntity
  8
DIBUJOS
 62
     7
100
AcDbVertex
100
AcDb2dVertex
 10
63.09969966564701
 20
47.34231651101241
 30
0.0
  0
VERTEX
  5
145
330
143
100
AcDbEntity
  8
DIBUJOS
 62
     7
100
AcDbVertex
100
AcDb2dVertex
 10
63.09410866021918
 20
47.34231651101241
 30
0.0
  0
SEQEND
  5
146
330
143
100
AcDbEntity
  8
DIBUJOS
 62
     7
  0
POLYLINE
  5
147
330
12B
100
AcDbEntity
  8
DIBUJOS
 62
     7
100
AcDb2dPolyline
 66
     1
 10
0.0
 20
0.0
 30
0.0
  0
VERTEX
  5
148
330
147
100
AcDbEntity
  8
DIBUJOS
 62
     7
100
AcDbVertex
100
AcDb2dVertex
 10
63.53025674796451
 20
47.34231651101241
 30
0.0
  0
VERTEX
  5
149
330
147
100
AcDbEntity
  8
DIBUJOS
 62
     7
100
AcDbVertex
100
AcDb2dVertex
 10
63.09969966564701
 20
47.34231651101241
 30
0.0
  0
SEQEND
  5
14A
330
147
100
AcDbEntity
  8
DIBUJOS
 62
     7
  0
POLYLINE
  5
14B
330
12B
100
AcDbEntity
  8
DIBUJOS
 62
     7
100
AcDb2dPolyline
 66
     1
 10
0.0
 20
0.0
 30
0.0
  0
VERTEX
  5
14C
330
14B
100
AcDbEntity
  8
DIBUJOS
 62
     7
100
AcDbVertex
100
AcDb2dVertex
 10
63.53584775339202
 20
47.34231651101241
 30
0.0
  0
VERTEX
  5
14D
330
14B
100
AcDbEntity
  8
DIBUJOS
 62
     7
100
AcDbVertex
100
AcDb2dVertex
 10
63.53025674796451
 20
47.34231651101241
 30
0.0
  0
SEQEND
  5
14E
330
14B
100
AcDbEntity
  8
DIBUJOS
 62
     7
  0
POLYLINE
  5
14F
330
12B
100
AcDbEntity
  8
DIBUJOS
 62
     7
100
AcDb2dPolyline
 66
     1
 10
0.0
 20
0.0
 30
0.0
  0
VERTEX
  5
150
330
14F
100
AcDbEntity
  8
DIBUJOS
 62
     7
100
AcDbVertex
100
AcDb2dVertex
 10
63.54144026380109
 20
47.34231651101241
 30
0.0
  0
VERTEX
  5
151
330
14F
100
AcDbEntity
  8
DIBUJOS
 62
     7
100
AcDbVertex
100
AcDb2dVertex
 10
63.53584775339202
 20
47.34231651101241
 30
0.0
  0
SEQEND
  5
152
330
14F
100
AcDbEntity
  8
DIBUJOS
 62
     7
  0
POLYLINE
  5
153
330
12B
100
AcDbEntity
  8
DIBUJOS
 62
     7
100
AcDb2dPolyline
 66
     1
 10
0.0
 20
0.0
 30
0.0
  0
VERTEX
  5
154
330
153
100
AcDbEntity
  8
DIBUJOS
 62
     7
100
AcDbVertex
100
AcDb2dVertex
 10
65.09032635507354
 20
47.34231651101241
 30
0.0
  0
VERTEX
  5
155
330
153
100
AcDbEntity
  8
DIBUJOS
 62
     7
100
AcDbVertex
100
AcDb2dVertex
 10
65.08473534964602
 20
47.34231651101241
 30
0.0
  0
SEQEND
  5
156
330
153
100
AcDbEntity
  8
DIBUJOS
 62
     7
  0
POLYLINE
  5
157
330
12B
100
AcDbEntity
  8
DIBUJOS
 62
     7
100
AcDb2dPolyline
 66
     1
 10
0.0
 20
0.0
 30
0.0
  0
VERTEX
  5
158
330
157
100
AcDbEntity
  8
DIBUJOS
 62
     7
100
AcDbVertex
100
AcDb2dVertex
 10
65.09591736050136
 20
47.34231651101241
 30
0.0
  0
VERTEX
  5
159
330
157
100
AcDbEntity
  8
DIBUJOS
 62
     7
100
AcDbVertex
100
AcDb2dVertex
 10
65.09032635507354
 20
47.34231651101241
 30
0.0
  0
SEQEND
  5
15A
330
157
100
AcDbEntity
  8
DIBUJOS
 62
     7
  0
POLYLINE
  5
15B
330
12B
100
AcDbEntity
  8
DIBUJOS
 62
     7
100
AcDb2dPolyline
 66
     1
 10
0.0
 20
0.0
 30
0.0
  0
VERTEX
  5
15C
330
15B
100
AcDbEntity
  8
DIBUJOS
 62
     7
100
AcDbVertex
100
AcDb2dVertex
 10
65.09591736050136
 20
47.34231651101241
 30
0.0
  0
VERTEX
  5
15D
330
15B
100
AcDbEntity
  8
DIBUJOS
 62
     7
100
AcDbVertex
100
AcDb2dVertex
 10
67.07536053409132
 20
47.35349852186806
 30
0.0
  0
VERTEX
  5
15E
330
15B
100
AcDbEntity
  8
DIBUJOS
 62
     7
100
AcDbVertex
100
AcDb2dVertex
 10
67.07536053409132
 20
47.53243176529313
 30
0.0
  0
SEQEND
  5
15F
330
15B
100
AcDbEntity
  8
DIBUJOS
 62
     7
  0
POLYLINE
  5
160
330
12B
100
AcDbEntity
  8
DIBUJOS
 62
     7
100
AcDb2dPolyline
 66
     1
 10
0.0
 20
0.0
 30
0.0
  0
VERTEX
  5
161
330
160
100
AcDbEntity
  8
DIBUJOS
 62
     7
100
AcDbVertex
100
AcDb2dVertex
 10
63.09410866021918
 20
47.33672400060365
 30
0.0
  0
VERTEX
  5
162
330
160
100
AcDbEntity
  8
DIBUJOS
 62
     7
100
AcDbVertex
100
AcDb2dVertex
 10
63.09410866021918
 20
47.34231651101241
 30
0.0
  0
SEQEND
  5
163
330
160
100
AcDbEntity
  8
DIBUJOS
 62
     7
  0
POLYLINE
  5
164
330
12B
100
AcDbEntity
  8
DIBUJOS
 62
     7
100
AcDb2dPolyline
 66
     1
 10
0.0
 20
0.0
 30
0.0
  0
VERTEX
  5
165
330
164
100
AcDbEntity
  8
DIBUJOS
 62
     7
100
AcDbVertex
100
AcDb2dVertex
 10
63.53584775339202
 20
47.33672400060365
 30
0.0
  0
VERTEX
  5
166
330
164
100
AcDbEntity
  8
DIBUJOS
 62
     7
100
AcDbVertex
100
AcDb2dVertex
 10
63.53584775339202
 20
47.34231651101241
 30
0.0
  0
SEQEND
  5
167
330
164
100
AcDbEntity
  8
DIBUJOS
 62
     7
  0
POLYLINE
  5
168
330
12B
100
AcDbEntity
  8
DIBUJOS
 62
     7
100
AcDb2dPolyline
 66
     1
 10
0.0
 20
0.0
 30
0.0
  0
VERTEX
  5
169
330
168
100
AcDbEntity
  8
DIBUJOS
 62
     7
100
AcDbVertex
100
AcDb2dVertex
 10
63.97758835154674
 20
47.33672400060365
 30
0.0
  0
VERTEX
  5
16A
330
168
100
AcDbEntity
  8
DIBUJOS
 62
     7
100
AcDbVertex
100
AcDb2dVertex
 10
63.9719973461186
 20
47.34231651101241
 30
0.0
  0
VERTEX
  5
16B
330
168
100
AcDbEntity
  8
DIBUJOS
 62
     7
100
AcDbVertex
100
AcDb2dVertex
 10
63.54144026380109
 20
47.34231651101241
 30
0.0
  0
SEQEND
  5
16C
330
168
100
AcDbEntity
  8
DIBUJOS
 62
     7
  0
POLYLINE
  5
16D
330
12B
100
AcDbEntity
  8
DIBUJOS
 62
     7
100
AcDb2dPolyline
 66
     1
 10
0.0
 20
0.0
 30
0.0
  0
VERTEX
  5
16E
330
16D
100
AcDbEntity
  8
DIBUJOS
 62
     7
100
AcDbVertex
100
AcDb2dVertex
 10
63.98317935697425
 20
47.33672400060365
 30
0.0
  0
VERTEX
  5
16F
330
16D
100
AcDbEntity
  8
DIBUJOS
 62
     7
100
AcDbVertex
100
AcDb2dVertex
 10
63.97758835154674
 20
47.33672400060365
 30
0.0
  0
SEQEND
  5
170
330
16D
100
AcDbEntity
  8
DIBUJOS
 62
     7
  0
POLYLINE
  5
171
330
12B
100
AcDbEntity
  8
DIBUJOS
 62
     7
100
AcDb2dPolyline
 66
     1
 10
0.0
 20
0.0
 30
0.0
  0
VERTEX
  5
172
330
171
100
AcDbEntity
  8
DIBUJOS
 62
     7
100
AcDbVertex
100
AcDb2dVertex
 10
64.19566314790971
 20
47.33672400060365
 30
0.0
  0
VERTEX
  5
173
330
171
100
AcDbEntity
  8
DIBUJOS
 62
     7
100
AcDbVertex
100
AcDb2dVertex
 10
64.19007063750064
 20
47.34231651101241
 30
0.0
  0
VERTEX
  5
174
330
171
100
AcDbEntity
  8
DIBUJOS
 62
     7
100
AcDbVertex
100
AcDb2dVertex
 10
63.98877186738333
 20
47.34231651101241
 30
0.0
  0
VERTEX
  5
175
330
171
100
AcDbEntity
  8
DIBUJOS
 62
     7
100
AcDbVertex
100
AcDb2dVertex
 10
63.98317935697425
 20
47.33672400060365
 30
0.0
  0
SEQEND
  5
176
330
171
100
AcDbEntity
  8
DIBUJOS
 62
     7
  0
POLYLINE
  5
177
330
12B
100
AcDbEntity
  8
DIBUJOS
 62
     7
100
AcDb2dPolyline
 66
     1
 10
0.0
 20
0.0
 30
0.0
  0
VERTEX
  5
178
330
177
100
AcDbEntity
  8
DIBUJOS
 62
     7
100
AcDbVertex
100
AcDb2dVertex
 10
64.20125415333754
 20
47.33672400060365
 30
0.0
  0
VERTEX
  5
179
330
177
100
AcDbEntity
  8
DIBUJOS
 62
     7
100
AcDbVertex
100
AcDb2dVertex
 10
64.19566314790971
 20
47.33672400060365
 30
0.0
  0
SEQEND
  5
17A
330
177
100
AcDbEntity
  8
DIBUJOS
 62
     7
  0
POLYLINE
  5
17B
330
12B
100
AcDbEntity
  8
DIBUJOS
 62
     7
100
AcDb2dPolyline
 66
     1
 10
0.0
 20
0.0
 30
0.0
  0
VERTEX
  5
17C
330
17B
100
AcDbEntity
  8
DIBUJOS
 62
     7
100
AcDbVertex
100
AcDb2dVertex
 10
64.20125415333754
 20
47.33672400060365
 30
0.0
  0
VERTEX
  5
17D
330
17B
100
AcDbEntity
  8
DIBUJOS
 62
     7
100
AcDbVertex
100
AcDb2dVertex
 10
64.20684666374662
 20
47.34231651101241
 30
0.0
  0
VERTEX
  5
17E
330
17B
100
AcDbEntity
  8
DIBUJOS
 62
     7
100
AcDbVertex
100
AcDb2dVertex
 10
65.08473534964602
 20
47.34231651101241
 30
0.0
  0
SEQEND
  5
17F
330
17B
100
AcDbEntity
  8
DIBUJOS
 62
     7
  0
POLYLINE
  5
180
330
12B
100
AcDbEntity
  8
DIBUJOS
 62
     7
100
AcDb2dPolyline
 66
     1
 10
0.0
 20
0.0
 30
0.0
  0
VERTEX
  5
181
330
180
100
AcDbEntity
  8
DIBUJOS
 62
     7
100
AcDbVertex
100
AcDb2dVertex
 10
65.09032635507354
 20
47.33672400060365
 30
0.0
  0
VERTEX
  5
182
330
180
100
AcDbEntity
  8
DIBUJOS
 62
     7
100
AcDbVertex
100
AcDb2dVertex
 10
65.09032635507354
 20
47.34231651101241
 30
0.0
  0
SEQEND
  5
183
330
180
100
AcDbEntity
  8
DIBUJOS
 62
     7
  0
POLYLINE
  5
184
330
12B
100
AcDbEntity
  8
DIBUJOS
 62
     7
100
AcDb2dPolyline
 66
     1
 10
0.0
 20
0.0
 30
0.0
  0
VERTEX
  5
185
330
184
100
AcDbEntity
  8
DIBUJOS
 62
     7
100
AcDbVertex
100
AcDb2dVertex
 10
63.98317935697425
 20
47.33113149019458
 30
0.0
  0
VERTEX
  5
186
330
184
100
AcDbEntity
  8
DIBUJOS
 62
     7
100
AcDbVertex
100
AcDb2dVertex
 10
63.98317935697425
 20
47.33672400060365
 30
0.0
  0
SEQEND
  5
187
330
184
100
AcDbEntity
  8
DIBUJOS
 62
     7
  0
POLYLINE
  5
188
330
12B
100
AcDbEntity
  8
DIBUJOS
 62
     7
100
AcDb2dPolyline
 66
     1
 10
0.0
 20
0.0
 30
0.0
  0
VERTEX
  5
189
330
188
100
AcDbEntity
  8
DIBUJOS
 62
     7
100
AcDbVertex
100
AcDb2dVertex
 10
64.20125415333754
 20
47.33113149019458
 30
0.0
  0
VERTEX
  5
18A
330
188
100
AcDbEntity
  8
DIBUJOS
 62
     7
100
AcDbVertex
100
AcDb2dVertex
 10
64.20125415333754
 20
47.33672400060365
 30
0.0
  0
SEQEND
  5
18B
330
188
100
AcDbEntity
  8
DIBUJOS
 62
     7
  0
POLYLINE
  5
18C
330
12B
100
AcDbEntity
  8
DIBUJOS
 62
     7
100
AcDb2dPolyline
 66
     1
 10
0.0
 20
0.0
 30
0.0
  0
VERTEX
  5
18D
330
18C
100
AcDbEntity
  8
DIBUJOS
 62
     7
100
AcDbVertex
100
AcDb2dVertex
 10
63.52466423755543
 20
46.15688791201858
 30
0.0
  0
VERTEX
  5
18E
330
18C
100
AcDbEntity
  8
DIBUJOS
 62
     7
100
AcDbVertex
100
AcDb2dVertex
 10
63.51907323212793
 20
46.15688791201858
 30
0.0
  0
SEQEND
  5
18F
330
18C
100
AcDbEntity
  8
DIBUJOS
 62
     7
  0
POLYLINE
  5
190
330
12B
100
AcDbEntity
  8
DIBUJOS
 62
     7
100
AcDb2dPolyline
 66
     1
 10
0.0
 20
0.0
 30
0.0
  0
VERTEX
  5
191
330
190
100
AcDbEntity
  8
DIBUJOS
 62
     7
100
AcDbVertex
100
AcDb2dVertex
 10
63.52466423755543
 20
46.15688791201858
 30
0.0
  0
VERTEX
  5
192
330
190
100
AcDbEntity
  8
DIBUJOS
 62
     7
100
AcDbVertex
100
AcDb2dVertex
 10
63.54144026380109
 20
46.17366243328267
 30
0.0
  0
VERTEX
  5
193
330
190
100
AcDbEntity
  8
DIBUJOS
 62
     7
100
AcDbVertex
100
AcDb2dVertex
 10
63.54144026380109
 20
47.325541989748
 30
0.0
  0
VERTEX
  5
194
330
190
100
AcDbEntity
  8
DIBUJOS
 62
     7
100
AcDbVertex
100
AcDb2dVertex
 10
63.53584775339202
 20
47.33672400060365
 30
0.0
  0
SEQEND
  5
195
330
190
100
AcDbEntity
  8
DIBUJOS
 62
     7
  0
POLYLINE
  5
196
330
12B
100
AcDbEntity
  8
DIBUJOS
 62
     7
100
AcDb2dPolyline
 66
     1
 10
0.0
 20
0.0
 30
0.0
  0
VERTEX
  5
197
330
196
100
AcDbEntity
  8
DIBUJOS
 62
     7
100
AcDbVertex
100
AcDb2dVertex
 10
64.65417826732853
 20
46.15688791201858
 30
0.0
  0
VERTEX
  5
198
330
196
100
AcDbEntity
  8
DIBUJOS
 62
     7
100
AcDbVertex
100
AcDb2dVertex
 10
64.64858575691945
 20
46.16247741246484
 30
0.0
  0
SEQEND
  5
199
330
196
100
AcDbEntity
  8
DIBUJOS
 62
     7
  0
POLYLINE
  5
19A
330
12B
100
AcDbEntity
  8
DIBUJOS
 62
     7
100
AcDb2dPolyline
 66
     1
 10
0.0
 20
0.0
 30
0.0
  0
VERTEX
  5
19B
330
19A
100
AcDbEntity
  8
DIBUJOS
 62
     7
100
AcDbVertex
100
AcDb2dVertex
 10
64.65976927275604
 20
46.15688791201858
 30
0.0
  0
VERTEX
  5
19C
330
19A
100
AcDbEntity
  8
DIBUJOS
 62
     7
100
AcDbVertex
100
AcDb2dVertex
 10
64.65417826732853
 20
46.15688791201858
 30
0.0
  0
SEQEND
  5
19D
330
19A
100
AcDbEntity
  8
DIBUJOS
 62
     7
  0
POLYLINE
  5
19E
330
12B
100
AcDbEntity
  8
DIBUJOS
 62
     7
100
AcDb2dPolyline
 66
     1
 10
0.0
 20
0.0
 30
0.0
  0
VERTEX
  5
19F
330
19E
100
AcDbEntity
  8
DIBUJOS
 62
     7
100
AcDbVertex
100
AcDb2dVertex
 10
63.52466423755543
 20
46.1512954016095
 30
0.0
  0
VERTEX
  5
1A0
330
19E
100
AcDbEntity
  8
DIBUJOS
 62
     7
100
AcDbVertex
100
AcDb2dVertex
 10
63.52466423755543
 20
46.15688791201858
 30
0.0
  0
SEQEND
  5
1A1
330
19E
100
AcDbEntity
  8
DIBUJOS
 62
     7
  0
POLYLINE
  5
1A2
330
12B
100
AcDbEntity
  8
DIBUJOS
 62
     7
100
AcDb2dPolyline
 66
     1
 10
0.0
 20
0.0
 30
0.0
  0
VERTEX
  5
1A3
330
1A2
100
AcDbEntity
  8
DIBUJOS
 62
     7
100
AcDbVertex
100
AcDb2dVertex
 10
64.65417826732853
 20
46.1512954016095
 30
0.0
  0
VERTEX
  5
1A4
330
1A2
100
AcDbEntity
  8
DIBUJOS
 62
     7
100
AcDbVertex
100
AcDb2dVertex
 10
64.65417826732853
 20
46.15688791201858
 30
0.0
  0
SEQEND
  5
1A5
330
1A2
100
AcDbEntity
  8
DIBUJOS
 62
     7
  0
POLYLINE
  5
1A6
330
12B
100
AcDbEntity
  8
DIBUJOS
 62
     7
100
AcDb2dPolyline
 66
     1
 10
0.0
 20
0.0
 30
0.0
  0
VERTEX
  5
1A7
330
1A6
100
AcDbEntity
  8
DIBUJOS
 62
     7
100
AcDbVertex
100
AcDb2dVertex
 10
63.97758835154674
 20
46.14570289120075
 30
0.0
  0
VERTEX
  5
1A8
330
1A6
100
AcDbEntity
  8
DIBUJOS
 62
     7
100
AcDbVertex
100
AcDb2dVertex
 10
63.97758835154674
 20
47.325541989748
 30
0.0
  0
VERTEX
  5
1A9
330
1A6
100
AcDbEntity
  8
DIBUJOS
 62
     7
100
AcDbVertex
100
AcDb2dVertex
 10
63.98317935697425
 20
47.33113149019458
 30
0.0
  0
SEQEND
  5
1AA
330
1A6
100
AcDbEntity
  8
DIBUJOS
 62
     7
  0
POLYLINE
  5
1AB
330
12B
100
AcDbEntity
  8
DIBUJOS
 62
     7
100
AcDb2dPolyline
 66
     1
 10
0.0
 20
0.0
 30
0.0
  0
VERTEX
  5
1AC
330
1AB
100
AcDbEntity
  8
DIBUJOS
 62
     7
100
AcDbVertex
100
AcDb2dVertex
 10
64.20125415333754
 20
46.14570289120075
 30
0.0
  0
VERTEX
  5
1AD
330
1AB
100
AcDbEntity
  8
DIBUJOS
 62
     7
100
AcDbVertex
100
AcDb2dVertex
 10
64.20125415333754
 20
47.33113149019458
 30
0.0
  0
SEQEND
  5
1AE
330
1AB
100
AcDbEntity
  8
DIBUJOS
 62
     7
  0
POLYLINE
  5
1AF
330
12B
100
AcDbEntity
  8
DIBUJOS
 62
     7
100
AcDb2dPolyline
 66
     1
 10
0.0
 20
0.0
 30
0.0
  0
VERTEX
  5
1B0
330
1AF
100
AcDbEntity
  8
DIBUJOS
 62
     7
100
AcDbVertex
100
AcDb2dVertex
 10
63.9719973461186
 20
46.14011038079135
 30
0.0
  0
VERTEX
  5
1B1
330
1AF
100
AcDbEntity
  8
DIBUJOS
 62
     7
100
AcDbVertex
100
AcDb2dVertex
 10
63.53584775339202
 20
46.14011038079135
 30
0.0
  0
VERTEX
  5
1B2
330
1AF
100
AcDbEntity
  8
DIBUJOS
 62
     7
100
AcDbVertex
100
AcDb2dVertex
 10
63.52466423755543
 20
46.1512954016095
 30
0.0
  0
SEQEND
  5
1B3
330
1AF
100
AcDbEntity
  8
DIBUJOS
 62
     7
  0
POLYLINE
  5
1B4
330
12B
100
AcDbEntity
  8
DIBUJOS
 62
     7
100
AcDb2dPolyline
 66
     1
 10
0.0
 20
0.0
 30
0.0
  0
VERTEX
  5
1B5
330
1B4
100
AcDbEntity
  8
DIBUJOS
 62
     7
100
AcDbVertex
100
AcDb2dVertex
 10
63.97758835154674
 20
46.14011038079135
 30
0.0
  0
VERTEX
  5
1B6
330
1B4
100
AcDbEntity
  8
DIBUJOS
 62
     7
100
AcDbVertex
100
AcDb2dVertex
 10
63.9719973461186
 20
46.14011038079135
 30
0.0
  0
SEQEND
  5
1B7
330
1B4
100
AcDbEntity
  8
DIBUJOS
 62
     7
  0
POLYLINE
  5
1B8
330
12B
100
AcDbEntity
  8
DIBUJOS
 62
     7
100
AcDb2dPolyline
 66
     1
 10
0.0
 20
0.0
 30
0.0
  0
VERTEX
  5
1B9
330
1B8
100
AcDbEntity
  8
DIBUJOS
 62
     7
100
AcDbVertex
100
AcDb2dVertex
 10
63.97758835154674
 20
46.14011038079135
 30
0.0
  0
VERTEX
  5
1BA
330
1B8
100
AcDbEntity
  8
DIBUJOS
 62
     7
100
AcDbVertex
100
AcDb2dVertex
 10
63.97758835154674
 20
46.14570289120075
 30
0.0
  0
SEQEND
  5
1BB
330
1B8
100
AcDbEntity
  8
DIBUJOS
 62
     7
  0
POLYLINE
  5
1BC
330
12B
100
AcDbEntity
  8
DIBUJOS
 62
     7
100
AcDb2dPolyline
 66
     1
 10
0.0
 20
0.0
 30
0.0
  0
VERTEX
  5
1BD
330
1BC
100
AcDbEntity
  8
DIBUJOS
 62
     7
100
AcDbVertex
100
AcDb2dVertex
 10
64.20125415333754
 20
46.14011038079135
 30
0.0
  0
VERTEX
  5
1BE
330
1BC
100
AcDbEntity
  8
DIBUJOS
 62
     7
100
AcDbVertex
100
AcDb2dVertex
 10
64.20125415333754
 20
46.14570289120075
 30
0.0
  0
SEQEND
  5
1BF
330
1BC
100
AcDbEntity
  8
DIBUJOS
 62
     7
  0
POLYLINE
  5
1C0
330
12B
100
AcDbEntity
  8
DIBUJOS
 62
     7
100
AcDb2dPolyline
 66
     1
 10
0.0
 20
0.0
 30
0.0
  0
VERTEX
  5
1C1
330
1C0
100
AcDbEntity
  8
DIBUJOS
 62
     7
100
AcDbVertex
100
AcDb2dVertex
 10
64.20684666374662
 20
46.14011038079135
 30
0.0
  0
VERTEX
  5
1C2
330
1C0
100
AcDbEntity
  8
DIBUJOS
 62
     7
100
AcDbVertex
100
AcDb2dVertex
 10
64.20125415333754
 20
46.14011038079135
 30
0.0
  0
SEQEND
  5
1C3
330
1C0
100
AcDbEntity
  8
DIBUJOS
 62
     7
  0
POLYLINE
  5
1C4
330
12B
100
AcDbEntity
  8
DIBUJOS
 62
     7
100
AcDb2dPolyline
 66
     1
 10
0.0
 20
0.0
 30
0.0
  0
VERTEX
  5
1C5
330
1C4
100
AcDbEntity
  8
DIBUJOS
 62
     7
100
AcDbVertex
100
AcDb2dVertex
 10
64.20684666374662
 20
46.14011038079135
 30
0.0
  0
VERTEX
  5
1C6
330
1C4
100
AcDbEntity
  8
DIBUJOS
 62
     7
100
AcDbVertex
100
AcDb2dVertex
 10
64.6429947514913
 20
46.14011038079135
 30
0.0
  0
VERTEX
  5
1C7
330
1C4
100
AcDbEntity
  8
DIBUJOS
 62
     7
100
AcDbVertex
100
AcDb2dVertex
 10
64.65417826732853
 20
46.1512954016095
 30
0.0
  0
SEQEND
  5
1C8
330
1C4
100
AcDbEntity
  8
DIBUJOS
 62
     7
  0
POLYLINE
  5
1C9
330
12B
100
AcDbEntity
  8
DIBUJOS
 62
     7
100
AcDb2dPolyline
 66
     1
 10
0.0
 20
0.0
 30
0.0
  0
VERTEX
  5
1CA
330
1C9
100
AcDbEntity
  8
DIBUJOS
 62
     7
100
AcDbVertex
100
AcDb2dVertex
 10
63.97758835154674
 20
46.13452088034477
 30
0.0
  0
VERTEX
  5
1CB
330
1C9
100
AcDbEntity
  8
DIBUJOS
 62
     7
100
AcDbVertex
100
AcDb2dVertex
 10
63.97758835154674
 20
46.14011038079135
 30
0.0
  0
SEQEND
  5
1CC
330
1C9
100
AcDbEntity
  8
DIBUJOS
 62
     7
  0
POLYLINE
  5
1CD
330
12B
100
AcDbEntity
  8
DIBUJOS
 62
     7
100
AcDb2dPolyline
 66
     1
 10
0.0
 20
0.0
 30
0.0
  0
VERTEX
  5
1CE
330
1CD
100
AcDbEntity
  8
DIBUJOS
 62
     7
100
AcDbVertex
100
AcDb2dVertex
 10
64.20125415333754
 20
46.13452088034477
 30
0.0
  0
VERTEX
  5
1CF
330
1CD
100
AcDbEntity
  8
DIBUJOS
 62
     7
100
AcDbVertex
100
AcDb2dVertex
 10
64.20125415333754
 20
46.14011038079135
 30
0.0
  0
SEQEND
  5
1D0
330
1CD
100
AcDbEntity
  8
DIBUJOS
 62
     7
  0
POLYLINE
  5
1D1
330
12B
100
AcDbEntity
  8
DIBUJOS
 62
     7
100
AcDb2dPolyline
 66
     1
 10
0.0
 20
0.0
 30
0.0
  0
VERTEX
  5
1D2
330
1D1
100
AcDbEntity
  8
DIBUJOS
 62
     7
100
AcDbVertex
100
AcDb2dVertex
 10
61.19853959793318
 20
42.96964760277942
 30
0.0
  0
VERTEX
  5
1D3
330
1D1
100
AcDbEntity
  8
DIBUJOS
 62
     7
100
AcDbVertex
100
AcDb2dVertex
 10
63.08421491333357
 20
47.32468114046038
 30
0.0
  0
VERTEX
  5
1D4
330
1D1
100
AcDbEntity
  8
DIBUJOS
 62
     7
100
AcDbVertex
100
AcDb2dVertex
 10
63.09410866021918
 20
47.33672400060365
 30
0.0
  0
SEQEND
  5
1D5
330
1D1
100
AcDbEntity
  8
DIBUJOS
 62
     7
  0
POLYLINE
  5
1D6
330
12B
100
AcDbEntity
  8
DIBUJOS
 62
     7
100
AcDb2dPolyline
 66
     1
 10
0.0
 20
0.0
 30
0.0
  0
VERTEX
  5
1D7
330
1D6
100
AcDbEntity
  8
DIBUJOS
 62
     7
100
AcDbVertex
100
AcDb2dVertex
 10
66.98030290695111
 20
42.96964760277942
 30
0.0
  0
VERTEX
  5
1D8
330
1D6
100
AcDbEntity
  8
DIBUJOS
 62
     7
100
AcDbVertex
100
AcDb2dVertex
 10
66.97862635781303
 20
42.98027277056426
 30
0.0
  0
VERTEX
  5
1D9
330
1D6
100
AcDbEntity
  8
DIBUJOS
 62
     7
100
AcDbVertex
100
AcDb2dVertex
 10
65.09032635507354
 20
47.33672400060365
 30
0.0
  0
SEQEND
  5
1DA
330
1D6
100
AcDbEntity
  8
DIBUJOS
 62
     7
  0
POLYLINE
  5
1DB
330
12B
100
AcDbEntity
  8
DIBUJOS
 62
     7
100
AcDb2dPolyline
 66
     1
 10
0.0
 20
0.0
 30
0.0
  0
VERTEX
  5
1DC
330
1DB
100
AcDbEntity
  8
DIBUJOS
 62
     7
100
AcDbVertex
100
AcDb2dVertex
 10
61.20413135585131
 20
42.96405509237067
 30
0.0
  0
VERTEX
  5
1DD
330
1DB
100
AcDbEntity
  8
DIBUJOS
 62
     7
100
AcDbVertex
100
AcDb2dVertex
 10
61.19853959793318
 20
42.96964760277942
 30
0.0
  0
SEQEND
  5
1DE
330
1DB
100
AcDbEntity
  8
DIBUJOS
 62
     7
  0
POLYLINE
  5
1DF
330
12B
100
AcDbEntity
  8
DIBUJOS
 62
     7
100
AcDb2dPolyline
 66
     1
 10
0.0
 20
0.0
 30
0.0
  0
VERTEX
  5
1E0
330
1DF
100
AcDbEntity
  8
DIBUJOS
 62
     7
100
AcDbVertex
100
AcDb2dVertex
 10
61.20413135585131
 20
42.96405509237067
 30
0.0
  0
VERTEX
  5
1E1
330
1DF
100
AcDbEntity
  8
DIBUJOS
 62
     7
100
AcDbVertex
100
AcDb2dVertex
 10
61.49489674768131
 20
42.96964760277942
 30
0.0
  0
VERTEX
  5
1E2
330
1DF
100
AcDbEntity
  8
DIBUJOS
 62
     7
100
AcDbVertex
100
AcDb2dVertex
 10
61.54634001754181
 20
43.05855587644038
 30
0.0
  0
VERTEX
  5
1E3
330
1DF
100
AcDbEntity
  8
DIBUJOS
 62
     7
100
AcDbVertex
100
AcDb2dVertex
 10
61.56870629672435
 20
43.09769742937795
 30
0.0
  0
VERTEX
  5
1E4
330
1DF
100
AcDbEntity
  8
DIBUJOS
 62
     7
100
AcDbVertex
100
AcDb2dVertex
 10
63.18787651840905
 20
45.96763049706329
 30
0.0
  0
VERTEX
  5
1E5
330
1DF
100
AcDbEntity
  8
DIBUJOS
 62
     7
100
AcDbVertex
100
AcDb2dVertex
 10
63.29540743033649
 20
46.08419430658904
 30
0.0
  0
VERTEX
  5
1E6
330
1DF
100
AcDbEntity
  8
DIBUJOS
 62
     7
100
AcDbVertex
100
AcDb2dVertex
 10
63.31304280088916
 20
46.0940880534753
 30
0.0
  0
VERTEX
  5
1E7
330
1DF
100
AcDbEntity
  8
DIBUJOS
 62
     7
100
AcDbVertex
100
AcDb2dVertex
 10
63.3336881339871
 20
46.10785261219443
 30
0.0
  0
VERTEX
  5
1E8
330
1DF
100
AcDbEntity
  8
DIBUJOS
 62
     7
100
AcDbVertex
100
AcDb2dVertex
 10
63.40668123068937
 20
46.1417899398916
 30
0.0
  0
VERTEX
  5
1E9
330
1DF
100
AcDbEntity
  8
DIBUJOS
 62
     7
100
AcDbVertex
100
AcDb2dVertex
 10
63.41786474652626
 20
46.14682259726737
 30
0.0
  0
VERTEX
  5
1EA
330
1DF
100
AcDbEntity
  8
DIBUJOS
 62
     7
100
AcDbVertex
100
AcDb2dVertex
 10
63.5134822267001
 20
46.16247741246484
 30
0.0
  0
VERTEX
  5
1EB
330
1DF
100
AcDbEntity
  8
DIBUJOS
 62
     7
100
AcDbVertex
100
AcDb2dVertex
 10
63.51907323212793
 20
46.15688791201858
 30
0.0
  0
SEQEND
  5
1EC
330
1DF
100
AcDbEntity
  8
DIBUJOS
 62
     7
  0
POLYLINE
  5
1ED
330
12B
100
AcDbEntity
  8
DIBUJOS
 62
     7
100
AcDb2dPolyline
 66
     1
 10
0.0
 20
0.0
 30
0.0
  0
VERTEX
  5
1EE
330
1ED
100
AcDbEntity
  8
DIBUJOS
 62
     7
100
AcDbVertex
100
AcDb2dVertex
 10
63.97758835154674
 20
46.13452088034477
 30
0.0
  0
VERTEX
  5
1EF
330
1ED
100
AcDbEntity
  8
DIBUJOS
 62
     7
100
AcDbVertex
100
AcDb2dVertex
 10
63.97758835154674
 20
42.9752401131885
 30
0.0
  0
VERTEX
  5
1F0
330
1ED
100
AcDbEntity
  8
DIBUJOS
 62
     7
100
AcDbVertex
100
AcDb2dVertex
 10
63.98877186738333
 20
42.96405509237067
 30
0.0
  0
VERTEX
  5
1F1
330
1ED
100
AcDbEntity
  8
DIBUJOS
 62
     7
100
AcDbVertex
100
AcDb2dVertex
 10
64.19566314790971
 20
42.96405509237067
 30
0.0
  0
VERTEX
  5
1F2
330
1ED
100
AcDbEntity
  8
DIBUJOS
 62
     7
100
AcDbVertex
100
AcDb2dVertex
 10
64.20125415333754
 20
42.96964760277942
 30
0.0
  0
VERTEX
  5
1F3
330
1ED
100
AcDbEntity
  8
DIBUJOS
 62
     7
100
AcDbVertex
100
AcDb2dVertex
 10
64.20125415333754
 20
46.13452088034477
 30
0.0
  0
SEQEND
  5
1F4
330
1ED
100
AcDbEntity
  8
DIBUJOS
 62
     7
  0
POLYLINE
  5
1F5
330
12B
100
AcDbEntity
  8
DIBUJOS
 62
     7
100
AcDb2dPolyline
 66
     1
 10
0.0
 20
0.0
 30
0.0
  0
VERTEX
  5
1F6
330
1F5
100
AcDbEntity
  8
DIBUJOS
 62
     7
100
AcDbVertex
100
AcDb2dVertex
 10
66.97471190152328
 20
42.96405509237067
 30
0.0
  0
VERTEX
  5
1F7
330
1F5
100
AcDbEntity
  8
DIBUJOS
 62
     7
100
AcDbVertex
100
AcDb2dVertex
 10
66.69512852054828
 20
42.96405509237067
 30
0.0
  0
VERTEX
  5
1F8
330
1F5
100
AcDbEntity
  8
DIBUJOS
 62
     7
100
AcDbVertex
100
AcDb2dVertex
 10
66.67276299385637
 20
42.98642212404415
 30
0.0
  0
VERTEX
  5
1F9
330
1F5
100
AcDbEntity
  8
DIBUJOS
 62
     7
100
AcDbVertex
100
AcDb2dVertex
 10
66.57340262525807
 20
43.16621621675748
 30
0.0
  0
VERTEX
  5
1FA
330
1F5
100
AcDbEntity
  8
DIBUJOS
 62
     7
100
AcDbVertex
100
AcDb2dVertex
 10
66.5709946552214
 20
43.17038802484499
 30
0.0
  0
VERTEX
  5
1FB
330
1F5
100
AcDbEntity
  8
DIBUJOS
 62
     7
100
AcDbVertex
100
AcDb2dVertex
 10
64.99655849688399
 20
45.96203798665389
 30
0.0
  0
VERTEX
  5
1FC
330
1F5
100
AcDbEntity
  8
DIBUJOS
 62
     7
100
AcDbVertex
100
AcDb2dVertex
 10
64.95189968260075
 20
46.0181858279724
 30
0.0
  0
VERTEX
  5
1FD
330
1F5
100
AcDbEntity
  8
DIBUJOS
 62
     7
100
AcDbVertex
100
AcDb2dVertex
 10
64.88220098990368
 20
46.08280671385592
 30
0.0
  0
VERTEX
  5
1FE
330
1F5
100
AcDbEntity
  8
DIBUJOS
 62
     7
100
AcDbVertex
100
AcDb2dVertex
 10
64.8619288921616
 20
46.09666759137627
 30
0.0
  0
VERTEX
  5
1FF
330
1F5
100
AcDbEntity
  8
DIBUJOS
 62
     7
100
AcDbVertex
100
AcDb2dVertex
 10
64.7990011102099
 20
46.13284132124484
 30
0.0
  0
VERTEX
  5
200
330
1F5
100
AcDbEntity
  8
DIBUJOS
 62
     7
100
AcDbVertex
100
AcDb2dVertex
 10
64.78893579545901
 20
46.13619742948253
 30
0.0
  0
VERTEX
  5
201
330
1F5
100
AcDbEntity
  8
DIBUJOS
 62
     7
100
AcDbVertex
100
AcDb2dVertex
 10
64.68772730985735
 20
46.16247741246484
 30
0.0
  0
VERTEX
  5
202
330
1F5
100
AcDbEntity
  8
DIBUJOS
 62
     7
100
AcDbVertex
100
AcDb2dVertex
 10
64.66536178316511
 20
46.16247741246484
 30
0.0
  0
VERTEX
  5
203
330
1F5
100
AcDbEntity
  8
DIBUJOS
 62
     7
100
AcDbVertex
100
AcDb2dVertex
 10
64.65976927275604
 20
46.15688791201858
 30
0.0
  0
SEQEND
  5
204
330
1F5
100
AcDbEntity
  8
DIBUJOS
 62
     7
  0
POLYLINE
  5
205
330
12B
100
AcDbEntity
  8
DIBUJOS
 62
     7
100
AcDb2dPolyline
 66
     1
 10
0.0
 20
0.0
 30
0.0
  0
VERTEX
  5
206
330
205
100
AcDbEntity
  8
DIBUJOS
 62
     7
100
AcDbVertex
100
AcDb2dVertex
 10
66.97471190152328
 20
42.96405509237067
 30
0.0
  0
VERTEX
  5
207
330
205
100
AcDbEntity
  8
DIBUJOS
 62
     7
100
AcDbVertex
100
AcDb2dVertex
 10
66.98030290695111
 20
42.96964760277942
 30
0.0
  0
SEQEND
  5
208
330
205
100
AcDbEntity
  8
DIBUJOS
 62
     7
  0
ENDBLK
  5
12E
330
12B
100
AcDbEntity
  8
0
100
AcDbBlockEnd
  0
ENDSEC
  0
SECTION
  2
ENTITIES
  0
MTEXT
  5
41
330
1F
100
AcDbEntity
  8
REFERENCIAS
 62
   255
100
AcDbMText
 10
58.56633795227737
 20
54.85563098807646
 30
0.0
 40
1.49859999962535
 41
0.0
 71
     7
 72
     1
  1
\fMyriad Pro|b0|i0|c0|p34;\W1;OUD_1029-05A_1029-05B__AUXILIA-
  0
MTEXT
  5
42
330
1F
100
AcDbEntity
  8
REFERENCIAS
 62
   255
100
AcDbMText
 10
58.56633795227737
 20
52.31556208680176
 30
0.0
 40
1.49859999962535
 41
0.0
 71
     7
 72
     1
  1
\fMyriad Pro|b0|i0|c0|p34;\W1;RY_TABLE
  0
MTEXT
  5
44
330
1F
100
AcDbEntity
  8
M_U_00C1RGENES
 62
   255
100
AcDbMText
 10
90.14127864703391
 20
23.7555119243149
 30
0.0
 40
1.748366666229575
 41
0.0
 71
     7
 72
     1
  1
\fMyriad Pro|b0|i0|c0|p34;\W1;400
  0
MTEXT
  5
45
330
1F
100
AcDbEntity
  8
M_U_00C1RGENES
 62
   255
100
AcDbMText
 10
84.21176331851954
 20
20.50332059082737
 30
0.0
 40
1.748366666229575
 41
0.0
 71
     7
 72
     1
  1
\fMyriad Pro|b0|i0|c0|p34;\W1;400
  0
POLYLINE
  5
46
330
1F
100
AcDbEntity
  8
M_U_00C1RGENES
 62
   255
100
AcDb2dPolyline
 66
     1
 10
0.0
 20
0.0
 30
0.0
  0
VERTEX
  5
47
330
46
100
AcDbEntity
  8
M_U_00C1RGENES
 62
   255
100
AcDbVertex
100
AcDb2dVertex
 10
84.41666477502157
 20
24.76314475783758
 30
0.0
  0
VERTEX
  5
48
330
46
100
AcDbEntity
  8
M_U_00C1RGENES
 62
   255
100
AcDbVertex
100
AcDb2dVertex
 10
94.99999810570907
 20
19.74726776251925
 30
0.0
  0
SEQEND
  5
49
330
46
100
AcDbEntity
  8
M_U_00C1RGENES
 62
   255
  0
POLYLINE
  5
4A
330
1F
100
AcDbEntity
  8
M_U_00C1RGENES
 62
   254
100
AcDb2dPolyline
 66
     1
 10
0.0
 20
0.0
 30
0.0
  0
VERTEX
  5
4B
330
4A
100
AcDbEntity
  8
M_U_00C1RGENES
 62
   254
100
AcDbVertex
100
AcDb2dVertex
 10
54.99999767595828
 20
20.88258920325216
 30
0.0
  0
VERTEX
  5
4C
330
4A
100
AcDbEntity
  8
M_U_00C1RGENES
 62
   254
100
AcDbVertex
100
AcDb2dVertex
 10
54.99999767595828
 20
19.74726776251925
 30
0.0
  0
SEQEND
  5
4D
330
4A
100
AcDbEntity
  8
M_U_00C1RGENES
 62
   254
  0
POLYLINE
  5
4E
330
1F
100
AcDbEntity
  8
M_U_00C1RGENES
 62
   255
100
AcDb2dPolyline
 66
     1
 10
0.0
 20
0.0
 30
0.0
  0
VERTEX
  5
4F
330
4E
100
AcDbEntity
  8
M_U_00C1RGENES
 62
   255
100
AcDbVertex
100
AcDb2dVertex
 10
94.99999797321169
 20
59.74726768656564
 30
0.0
  0
VERTEX
  5
50
330
4E
100
AcDbEntity
  8
M_U_00C1RGENES
 62
   255
100
AcDbVertex
100
AcDb2dVertex
 10
93.86467653247878
 20
59.74726768651462
 30
0.0
  0
SEQEND
  5
51
330
4E
100
AcDbEntity
  8
M_U_00C1RGENES
 62
   255
  0
INSERT
  5
54
330
1F
100
AcDbEntity
  8
DIBUJOS
100
AcDbBlockReference
  2
BLOCK_2
 10
0.0
 20
0.0
 30
0.0
  0
INSERT
  5
12C
330
1F
100
AcDbEntity
  8
DIBUJOS
100
AcDbBlockReference
  2
BLOCK_3
 10
0.0
 20
0.0
 30
0.0
  0
POLYLINE
  5
209
330
1F
100
AcDbEntity
  8
DIBUJOS
 62
     7
100
AcDb2dPolyline
 66
     1
 10
0.0
 20
0.0
 30
0.0
  0
VERTEX
  5
20A
330
209
100
AcDbEntity
  8
DIBUJOS
 62
     7
100
AcDbVertex
100
AcDb2dVertex
 10
64.15092908456273
 20
27.37454178462508
 30
0.0
  0
VERTEX
  5
20B
330
209
100
AcDbEntity
  8
DIBUJOS
 62
     7
100
AcDbVertex
100
AcDb2dVertex
 10
64.4862313871932
 20
27.39947405687736
 30
0.0
  0
VERTEX
  5
20C
330
209
100
AcDbEntity
  8
DIBUJOS
 62
     7
100
AcDbVertex
100
AcDb2dVertex
 10
64.68734955955775
 20
27.43831687103348
 30
0.0
  0
VERTEX
  5
20D
330
209
100
AcDbEntity
  8
DIBUJOS
 62
     7
100
AcDbVertex
100
AcDb2dVertex
 10
64.79918321294424
 20
27.460683902706
 30
0.0
  0
VERTEX
  5
20E
330
209
100
AcDbEntity
  8
DIBUJOS
 62
     7
100
AcDbVertex
100
AcDb2dVertex
 10
64.96227803345626
 20
27.5070644155651
 30
0.0
  0
VERTEX
  5
20F
330
209
100
AcDbEntity
  8
DIBUJOS
 62
     7
100
AcDbVertex
100
AcDb2dVertex
 10
65.20831086692085
 20
27.59093927935935
 30
0.0
  0
VERTEX
  5
210
330
209
100
AcDbEntity
  8
DIBUJOS
 62
     7
100
AcDbVertex
100
AcDb2dVertex
 10
65.39842612120191
 20
27.68096424912443
 30
0.0
  0
VERTEX
  5
211
330
209
100
AcDbEntity
  8
DIBUJOS
 62
     7
100
AcDbVertex
100
AcDb2dVertex
 10
65.55499233295349
 20
27.75868825445753
 30
0.0
  0
VERTEX
  5
212
330
209
100
AcDbEntity
  8
DIBUJOS
 62
     7
100
AcDbVertex
100
AcDb2dVertex
 10
65.72304305679629
 20
27.86531693011301
 30
0.0
  0
VERTEX
  5
213
330
209
100
AcDbEntity
  8
DIBUJOS
 62
     7
100
AcDbVertex
100
AcDb2dVertex
 10
65.75659209932574
 20
27.88768320929587
 30
0.0
  0
VERTEX
  5
214
330
209
100
AcDbEntity
  8
DIBUJOS
 62
     7
100
AcDbVertex
100
AcDb2dVertex
 10
65.916655887555
 20
27.99660321893736
 30
0.0
  0
VERTEX
  5
215
330
209
100
AcDbEntity
  8
DIBUJOS
 62
     7
100
AcDbVertex
100
AcDb2dVertex
 10
66.05332323692005
 20
28.11684294522233
 30
0.0
  0
VERTEX
  5
216
330
209
100
AcDbEntity
  8
DIBUJOS
 62
     7
100
AcDbVertex
100
AcDb2dVertex
 10
66.21004446174317
 20
28.25678814379883
 30
0.0
  0
VERTEX
  5
217
330
209
100
AcDbEntity
  8
DIBUJOS
 62
     7
100
AcDbVertex
100
AcDb2dVertex
 10
66.29114489256148
 20
28.34870186506099
 30
0.0
  0
VERTEX
  5
218
330
209
100
AcDbEntity
  8
DIBUJOS
 62
     7
100
AcDbVertex
100
AcDb2dVertex
 10
66.46716148228063
 20
28.55351928139441
 30
0.0
  0
VERTEX
  5
219
330
209
100
AcDbEntity
  8
DIBUJOS
 62
     7
100
AcDbVertex
100
AcDb2dVertex
 10
66.49248730713596
 20
28.58893600568283
 30
0.0
  0
VERTEX
  5
21A
330
209
100
AcDbEntity
  8
DIBUJOS
 62
     7
100
AcDbVertex
100
AcDb2dVertex
 10
66.68841931403541
 20
28.89043793391107
 30
0.0
  0
VERTEX
  5
21B
330
209
100
AcDbEntity
  8
DIBUJOS
 62
     7
100
AcDbVertex
100
AcDb2dVertex
 10
66.73538977955344
 20
28.98437735996654
 30
0.0
  0
VERTEX
  5
21C
330
209
100
AcDbEntity
  8
DIBUJOS
 62
     7
100
AcDbVertex
100
AcDb2dVertex
 10
66.85560918859026
 20
29.2371193999437
 30
0.0
  0
VERTEX
  5
21D
330
209
100
AcDbEntity
  8
DIBUJOS
 62
     7
100
AcDbVertex
100
AcDb2dVertex
 10
66.92606488686748
 20
29.44289247938439
 30
0.0
  0
VERTEX
  5
21E
330
209
100
AcDbEntity
  8
DIBUJOS
 62
     7
100
AcDbVertex
100
AcDb2dVertex
 10
66.98374479912127
 20
29.63399801134272
 30
0.0
  0
VERTEX
  5
21F
330
209
100
AcDbEntity
  8
DIBUJOS
 62
     7
100
AcDbVertex
100
AcDb2dVertex
 10
66.98804603559844
 20
29.65550419372795
 30
0.0
  0
VERTEX
  5
220
330
209
100
AcDbEntity
  8
DIBUJOS
 62
     7
100
AcDbVertex
100
AcDb2dVertex
 10
67.05042901432965
 20
29.99163122609605
 30
0.0
  0
VERTEX
  5
221
330
209
100
AcDbEntity
  8
DIBUJOS
 62
     7
100
AcDbVertex
100
AcDb2dVertex
 10
67.05598841514997
 20
30.06429774186246
 30
0.0
  0
VERTEX
  5
222
330
209
100
AcDbEntity
  8
DIBUJOS
 62
     7
100
AcDbVertex
100
AcDb2dVertex
 10
67.07536053409132
 20
30.38284809794822
 30
0.0
  0
VERTEX
  5
223
330
209
100
AcDbEntity
  8
DIBUJOS
 62
     7
100
AcDbVertex
100
AcDb2dVertex
 10
67.05041245953527
 20
30.71816244042835
 30
0.0
  0
VERTEX
  5
224
330
209
100
AcDbEntity
  8
DIBUJOS
 62
     7
100
AcDbVertex
100
AcDb2dVertex
 10
67.00611032581384
 20
30.95835745153643
 30
0.0
  0
VERTEX
  5
225
330
209
100
AcDbEntity
  8
DIBUJOS
 62
     7
100
AcDbVertex
100
AcDb2dVertex
 10
66.98374479912127
 20
31.07019110492294
 30
0.0
  0
VERTEX
  5
226
330
209
100
AcDbEntity
  8
DIBUJOS
 62
     7
100
AcDbVertex
100
AcDb2dVertex
 10
66.94227955509858
 20
31.21656257353365
 30
0.0
  0
VERTEX
  5
227
330
209
100
AcDbEntity
  8
DIBUJOS
 62
     7
100
AcDbVertex
100
AcDb2dVertex
 10
66.8533727864192
 20
31.47377892283484
 30
0.0
  0
VERTEX
  5
228
330
209
100
AcDbEntity
  8
DIBUJOS
 62
     7
100
AcDbVertex
100
AcDb2dVertex
 10
66.78012233791885
 20
31.63034513458642
 30
0.0
  0
VERTEX
  5
229
330
209
100
AcDbEntity
  8
DIBUJOS
 62
     7
100
AcDbVertex
100
AcDb2dVertex
 10
66.69401031946323
 20
31.80256766651769
 30
0.0
  0
VERTEX
  5
22A
330
209
100
AcDbEntity
  8
DIBUJOS
 62
     7
100
AcDbVertex
100
AcDb2dVertex
 10
66.61555564572151
 20
31.93087484491365
 30
0.0
  0
VERTEX
  5
22B
330
209
100
AcDbEntity
  8
DIBUJOS
 62
     7
100
AcDbVertex
100
AcDb2dVertex
 10
66.60695317276749
 20
31.94377855434454
 30
0.0
  0
VERTEX
  5
22C
330
209
100
AcDbEntity
  8
DIBUJOS
 62
     7
100
AcDbVertex
100
AcDb2dVertex
 10
66.45889462015028
 20
32.16537199692362
 30
0.0
  0
VERTEX
  5
22D
330
209
100
AcDbEntity
  8
DIBUJOS
 62
     7
100
AcDbVertex
100
AcDb2dVertex
 10
66.41975306721174
 20
32.2101045552887
 30
0.0
  0
VERTEX
  5
22E
330
209
100
AcDbEntity
  8
DIBUJOS
 62
     7
100
AcDbVertex
100
AcDb2dVertex
 10
66.18069732692749
 20
32.47971593035153
 30
0.0
  0
VERTEX
  5
22F
330
209
100
AcDbEntity
  8
DIBUJOS
 62
     7
100
AcDbVertex
100
AcDb2dVertex
 10
66.0900191952907
 20
32.55661445345702
 30
0.0
  0
VERTEX
  5
230
330
209
100
AcDbEntity
  8
DIBUJOS
 62
     7
100
AcDbVertex
100
AcDb2dVertex
 10
65.89079278438541
 20
32.72704003774803
 30
0.0
  0
VERTEX
  5
231
330
209
100
AcDbEntity
  8
DIBUJOS
 62
     7
100
AcDbVertex
100
AcDb2dVertex
 10
65.85724223687502
 20
32.74940556444059
 30
0.0
  0
VERTEX
  5
232
330
209
100
AcDbEntity
  8
DIBUJOS
 62
     7
100
AcDbVertex
100
AcDb2dVertex
 10
65.55387413186811
 20
32.94773801646917
 30
0.0
  0
VERTEX
  5
233
330
209
100
AcDbEntity
  8
DIBUJOS
 62
     7
100
AcDbVertex
100
AcDb2dVertex
 10
65.40289892554404
 20
33.02098846496984
 30
0.0
  0
VERTEX
  5
234
330
209
100
AcDbEntity
  8
DIBUJOS
 62
     7
100
AcDbVertex
100
AcDb2dVertex
 10
65.20831086692085
 20
33.11324983690503
 30
0.0
  0
VERTEX
  5
235
330
209
100
AcDbEntity
  8
DIBUJOS
 62
     7
100
AcDbVertex
100
AcDb2dVertex
 10
64.95556732196212
 20
33.1993618553616
 30
0.0
  0
VERTEX
  5
236
330
209
100
AcDbEntity
  8
DIBUJOS
 62
     7
100
AcDbVertex
100
AcDb2dVertex
 10
64.82789675064413
 20
33.23685545380644
 30
0.0
  0
VERTEX
  5
237
330
209
100
AcDbEntity
  8
DIBUJOS
 62
     7
100
AcDbVertex
100
AcDb2dVertex
 10
64.74407380870394
 20
33.25351409151275
 30
0.0
  0
VERTEX
  5
238
330
209
100
AcDbEntity
  8
DIBUJOS
 62
     7
100
AcDbVertex
100
AcDb2dVertex
 10
64.48624342704319
 20
33.30469699961266
 30
0.0
  0
VERTEX
  5
239
330
209
100
AcDbEntity
  8
DIBUJOS
 62
     7
100
AcDbVertex
100
AcDb2dVertex
 10
64.16228567324585
 20
33.32665317139906
 30
0.0
  0
VERTEX
  5
23A
330
209
100
AcDbEntity
  8
DIBUJOS
 62
     7
100
AcDbVertex
100
AcDb2dVertex
 10
64.03350442574873
 20
33.32964657915027
 30
0.0
  0
VERTEX
  5
23B
330
209
100
AcDbEntity
  8
DIBUJOS
 62
     7
100
AcDbVertex
100
AcDb2dVertex
 10
63.70379463352766
 20
33.30471505938829
 30
0.0
  0
VERTEX
  5
23C
330
209
100
AcDbEntity
  8
DIBUJOS
 62
     7
100
AcDbVertex
100
AcDb2dVertex
 10
63.48036210383368
 20
33.26039637087183
 30
0.0
  0
VERTEX
  5
23D
330
209
100
AcDbEntity
  8
DIBUJOS
 62
     7
100
AcDbVertex
100
AcDb2dVertex
 10
63.36852845044782
 20
33.23802933919867
 30
0.0
  0
VERTEX
  5
23E
330
209
100
AcDbEntity
  8
DIBUJOS
 62
     7
100
AcDbVertex
100
AcDb2dVertex
 10
63.24452401350995
 20
33.20271645861836
 30
0.0
  0
VERTEX
  5
23F
330
209
100
AcDbEntity
  8
DIBUJOS
 62
     7
100
AcDbVertex
100
AcDb2dVertex
 10
62.98171515379968
 20
33.11324983690503
 30
0.0
  0
VERTEX
  5
240
330
209
100
AcDbEntity
  8
DIBUJOS
 62
     7
100
AcDbVertex
100
AcDb2dVertex
 10
62.79159989951896
 20
33.02322486714123
 30
0.0
  0
VERTEX
  5
241
330
209
100
AcDbEntity
  8
DIBUJOS
 62
     7
100
AcDbVertex
100
AcDb2dVertex
 10
62.64062619817645
 20
32.95053276669231
 30
0.0
  0
VERTEX
  5
242
330
209
100
AcDbEntity
  8
DIBUJOS
 62
     7
100
AcDbVertex
100
AcDb2dVertex
 10
62.43530009817314
 20
32.81946545264258
 30
0.0
  0
VERTEX
  5
243
330
209
100
AcDbEntity
  8
DIBUJOS
 62
     7
100
AcDbVertex
100
AcDb2dVertex
 10
62.36618759568188
 20
32.77182376547687
 30
0.0
  0
VERTEX
  5
244
330
209
100
AcDbEntity
  8
DIBUJOS
 62
     7
100
AcDbVertex
100
AcDb2dVertex
 10
62.27894006885557
 20
32.7131806652086
 30
0.0
  0
VERTEX
  5
245
330
209
100
AcDbEntity
  8
DIBUJOS
 62
     7
100
AcDbVertex
100
AcDb2dVertex
 10
62.10879365859074
 20
32.56497311944453
 30
0.0
  0
VERTEX
  5
246
330
209
100
AcDbEntity
  8
DIBUJOS
 62
     7
100
AcDbVertex
100
AcDb2dVertex
 10
61.96879879563141
 20
32.43621745662993
 30
0.0
  0
VERTEX
  5
247
330
209
100
AcDbEntity
  8
DIBUJOS
 62
     7
100
AcDbVertex
100
AcDb2dVertex
 10
61.71727202803179
 20
32.14507732446248
 30
0.0
  0
VERTEX
  5
248
330
209
100
AcDbEntity
  8
DIBUJOS
 62
     7
100
AcDbVertex
100
AcDb2dVertex
 10
61.50160670668546
 20
31.81375118235395
 30
0.0
  0
VERTEX
  5
249
330
209
100
AcDbEntity
  8
DIBUJOS
 62
     7
100
AcDbVertex
100
AcDb2dVertex
 10
61.46246515374756
 20
31.73546807647815
 30
0.0
  0
VERTEX
  5
24A
330
209
100
AcDbEntity
  8
DIBUJOS
 62
     7
100
AcDbVertex
100
AcDb2dVertex
 10
61.33106147638289
 20
31.45700440157042
 30
0.0
  0
VERTEX
  5
24B
330
209
100
AcDbEntity
  8
DIBUJOS
 62
     7
100
AcDbVertex
100
AcDb2dVertex
 10
61.25557387322085
 20
31.23222039869393
 30
0.0
  0
VERTEX
  5
24C
330
209
100
AcDbEntity
  8
DIBUJOS
 62
     7
100
AcDbVertex
100
AcDb2dVertex
 10
61.21316350095868
 20
31.09900999131154
 30
0.0
  0
VERTEX
  5
24D
330
209
100
AcDbEntity
  8
DIBUJOS
 62
     7
100
AcDbVertex
100
AcDb2dVertex
 10
61.20757249553149
 20
31.07105195421087
 30
0.0
  0
VERTEX
  5
24E
330
209
100
AcDbEntity
  8
DIBUJOS
 62
     7
100
AcDbVertex
100
AcDb2dVertex
 10
61.14507814818594
 20
30.7516241940428
 30
0.0
  0
VERTEX
  5
24F
330
209
100
AcDbEntity
  8
DIBUJOS
 62
     7
100
AcDbVertex
100
AcDb2dVertex
 10
61.13443341564518
 20
30.62346299883056
 30
0.0
  0
VERTEX
  5
250
330
209
100
AcDbEntity
  8
DIBUJOS
 62
     7
100
AcDbVertex
100
AcDb2dVertex
 10
61.11765814188982
 20
30.33794246673564
 30
0.0
  0
VERTEX
  5
251
330
209
100
AcDbEntity
  8
DIBUJOS
 62
     7
100
AcDbVertex
100
AcDb2dVertex
 10
61.14514361487156
 20
29.95252127776471
 30
0.0
  0
VERTEX
  5
252
330
209
100
AcDbEntity
  8
DIBUJOS
 62
     7
100
AcDbVertex
100
AcDb2dVertex
 10
61.18391494241609
 20
29.75701367558424
 30
0.0
  0
VERTEX
  5
253
330
209
100
AcDbEntity
  8
DIBUJOS
 62
     7
100
AcDbVertex
100
AcDb2dVertex
 10
61.2062819740899
 20
29.64518152717962
 30
0.0
  0
VERTEX
  5
254
330
209
100
AcDbEntity
  8
DIBUJOS
 62
     7
100
AcDbVertex
100
AcDb2dVertex
 10
61.2415948546702
 20
29.50999206942328
 30
0.0
  0
VERTEX
  5
255
330
209
100
AcDbEntity
  8
DIBUJOS
 62
     7
100
AcDbVertex
100
AcDb2dVertex
 10
61.32882507421215
 20
29.25389542619
 30
0.0
  0
VERTEX
  5
256
330
209
100
AcDbEntity
  8
DIBUJOS
 62
     7
100
AcDbVertex
100
AcDb2dVertex
 10
61.4289153587278
 20
29.04141314023515
 30
0.0
  0
VERTEX
  5
257
330
209
100
AcDbEntity
  8
DIBUJOS
 62
     7
100
AcDbVertex
100
AcDb2dVertex
 10
61.49601494876701
 20
28.90162144974797
 30
0.0
  0
VERTEX
  5
258
330
209
100
AcDbEntity
  8
DIBUJOS
 62
     7
100
AcDbVertex
100
AcDb2dVertex
 10
61.70307779715867
 20
28.58319751209035
 30
0.0
  0
VERTEX
  5
259
330
209
100
AcDbEntity
  8
DIBUJOS
 62
     7
100
AcDbVertex
100
AcDb2dVertex
 10
61.72286378594961
 20
28.55351928139441
 30
0.0
  0
VERTEX
  5
25A
330
209
100
AcDbEntity
  8
DIBUJOS
 62
     7
100
AcDbVertex
100
AcDb2dVertex
 10
61.94084000603947
 20
28.30152220714644
 30
0.0
  0
VERTEX
  5
25B
330
209
100
AcDbEntity
  8
DIBUJOS
 62
     7
100
AcDbVertex
100
AcDb2dVertex
 10
61.97439732596548
 20
28.26243031859009
 30
0.0
  0
VERTEX
  5
25C
330
209
100
AcDbEntity
  8
DIBUJOS
 62
     7
100
AcDbVertex
100
AcDb2dVertex
 10
62.13914837836807
 20
28.11402562027918
 30
0.0
  0
VERTEX
  5
25D
330
209
100
AcDbEntity
  8
DIBUJOS
 62
     7
100
AcDbVertex
100
AcDb2dVertex
 10
62.27334831093712
 20
27.99660020897486
 30
0.0
  0
VERTEX
  5
25E
330
209
100
AcDbEntity
  8
DIBUJOS
 62
     7
100
AcDbVertex
100
AcDb2dVertex
 10
62.41278708331625
 20
27.90144701552374
 30
0.0
  0
VERTEX
  5
25F
330
209
100
AcDbEntity
  8
DIBUJOS
 62
     7
100
AcDbVertex
100
AcDb2dVertex
 10
62.45020844265953
 20
27.87649969345832
 30
0.0
  0
VERTEX
  5
260
330
209
100
AcDbEntity
  8
DIBUJOS
 62
     7
100
AcDbVertex
100
AcDb2dVertex
 10
62.63615188885274
 20
27.75645185228679
 30
0.0
  0
VERTEX
  5
261
330
209
100
AcDbEntity
  8
DIBUJOS
 62
     7
100
AcDbVertex
100
AcDb2dVertex
 10
62.80949262186874
 20
27.67201788794986
 30
0.0
  0
VERTEX
  5
262
330
209
100
AcDbEntity
  8
DIBUJOS
 62
     7
100
AcDbVertex
100
AcDb2dVertex
 10
62.98171515379968
 20
27.59093927935935
 30
0.0
  0
VERTEX
  5
263
330
209
100
AcDbEntity
  8
DIBUJOS
 62
     7
100
AcDbVertex
100
AcDb2dVertex
 10
63.24452401350995
 20
27.50147265764729
 30
0.0
  0
VERTEX
  5
264
330
209
100
AcDbEntity
  8
DIBUJOS
 62
     7
100
AcDbVertex
100
AcDb2dVertex
 10
63.36852845044782
 20
27.46615902457669
 30
0.0
  0
VERTEX
  5
265
330
209
100
AcDbEntity
  8
DIBUJOS
 62
     7
100
AcDbVertex
100
AcDb2dVertex
 10
63.50186828621923
 20
27.43949150891601
 30
0.0
  0
VERTEX
  5
266
330
209
100
AcDbEntity
  8
DIBUJOS
 62
     7
100
AcDbVertex
100
AcDb2dVertex
 10
63.70379463352766
 20
27.39947405687736
 30
0.0
  0
VERTEX
  5
267
330
209
100
AcDbEntity
  8
DIBUJOS
 62
     7
100
AcDbVertex
100
AcDb2dVertex
 10
63.77049991847321
 20
27.39434357571913
 30
0.0
  0
VERTEX
  5
268
330
209
100
AcDbEntity
  8
DIBUJOS
 62
     7
100
AcDbVertex
100
AcDb2dVertex
 10
64.15092908456273
 20
27.37454178462508
 30
0.0
  0
SEQEND
  5
269
330
209
100
AcDbEntity
  8
DIBUJOS
 62
     7
  0
POLYLINE
  5
26A
330
1F
100
AcDbEntity
  8
DIBUJOS
 62
     7
100
AcDb2dPolyline
 66
     1
 10
0.0
 20
0.0
 30
0.0
  0
VERTEX
  5
26B
330
26A
100
AcDbEntity
  8
DIBUJOS
 62
     7
100
AcDbVertex
100
AcDb2dVertex
 10
79.86245271152629
 20
27.37454178462508
 30
0.0
  0
VERTEX
  5
26C
330
26A
100
AcDbEntity
  8
DIBUJOS
 62
     7
100
AcDbVertex
100
AcDb2dVertex
 10
80.18656848835704
 20
27.39947405687736
 30
0.0
  0
VERTEX
  5
26D
330
26A
100
AcDbEntity
  8
DIBUJOS
 62
     7
100
AcDbVertex
100
AcDb2dVertex
 10
80.38763699634004
 20
27.43820098747473
 30
0.0
  0
VERTEX
  5
26E
330
26A
100
AcDbEntity
  8
DIBUJOS
 62
     7
100
AcDbVertex
100
AcDb2dVertex
 10
80.49946914474528
 20
27.46056726665759
 30
0.0
  0
VERTEX
  5
26F
330
26A
100
AcDbEntity
  8
DIBUJOS
 62
     7
100
AcDbVertex
100
AcDb2dVertex
 10
80.64479013642811
 20
27.49953198429616
 30
0.0
  0
VERTEX
  5
270
330
26A
100
AcDbEntity
  8
DIBUJOS
 62
     7
100
AcDbVertex
100
AcDb2dVertex
 10
80.88068993098402
 20
27.58031486406577
 30
0.0
  0
VERTEX
  5
271
330
26A
100
AcDbEntity
  8
DIBUJOS
 62
     7
100
AcDbVertex
100
AcDb2dVertex
 10
81.12672426942954
 20
27.69214776496133
 30
0.0
  0
VERTEX
  5
272
330
26A
100
AcDbEntity
  8
DIBUJOS
 62
     7
100
AcDbVertex
100
AcDb2dVertex
 10
81.24973842868981
 20
27.75365559708241
 30
0.0
  0
VERTEX
  5
273
330
26A
100
AcDbEntity
  8
DIBUJOS
 62
     7
100
AcDbVertex
100
AcDb2dVertex
 10
81.45521051187556
 20
27.88467249425933
 30
0.0
  0
VERTEX
  5
274
330
26A
100
AcDbEntity
  8
DIBUJOS
 62
     7
100
AcDbVertex
100
AcDb2dVertex
 10
81.4848887425715
 20
27.90445848305059
 30
0.0
  0
VERTEX
  5
275
330
26A
100
AcDbEntity
  8
DIBUJOS
 62
     7
100
AcDbVertex
100
AcDb2dVertex
 10
81.6393841000923
 20
28.01337548273022
 30
0.0
  0
VERTEX
  5
276
330
26A
100
AcDbEntity
  8
DIBUJOS
 62
     7
100
AcDbVertex
100
AcDb2dVertex
 10
81.72568273622697
 20
28.08888791808287
 30
0.0
  0
VERTEX
  5
277
330
26A
100
AcDbEntity
  8
DIBUJOS
 62
     7
100
AcDbVertex
100
AcDb2dVertex
 10
81.94254451768394
 20
28.28598026554362
 30
0.0
  0
VERTEX
  5
278
330
26A
100
AcDbEntity
  8
DIBUJOS
 62
     7
100
AcDbVertex
100
AcDb2dVertex
 10
82.17610256137975
 20
28.56083198539715
 30
0.0
  0
VERTEX
  5
279
330
26A
100
AcDbEntity
  8
DIBUJOS
 62
     7
100
AcDbVertex
100
AcDb2dVertex
 10
82.3909958273328
 20
28.8893197328257
 30
0.0
  0
VERTEX
  5
27A
330
26A
100
AcDbEntity
  8
DIBUJOS
 62
     7
100
AcDbVertex
100
AcDb2dVertex
 10
82.43349047854589
 20
28.97431204521437
 30
0.0
  0
VERTEX
  5
27B
330
26A
100
AcDbEntity
  8
DIBUJOS
 62
     7
100
AcDbVertex
100
AcDb2dVertex
 10
82.55930390297367
 20
29.23600119885769
 30
0.0
  0
VERTEX
  5
27C
330
26A
100
AcDbEntity
  8
DIBUJOS
 62
     7
100
AcDbVertex
100
AcDb2dVertex
 10
82.62640198803132
 20
29.43170896354749
 30
0.0
  0
VERTEX
  5
27D
330
26A
100
AcDbEntity
  8
DIBUJOS
 62
     7
100
AcDbVertex
100
AcDb2dVertex
 10
82.68396752170857
 20
29.61717081573395
 30
0.0
  0
VERTEX
  5
27E
330
26A
100
AcDbEntity
  8
DIBUJOS
 62
     7
100
AcDbVertex
100
AcDb2dVertex
 10
82.68850052530131
 20
29.64437335223669
 30
0.0
  0
VERTEX
  5
27F
330
26A
100
AcDbEntity
  8
DIBUJOS
 62
     7
100
AcDbVertex
100
AcDb2dVertex
 10
82.75081276991251
 20
29.95811228319285
 30
0.0
  0
VERTEX
  5
280
330
26A
100
AcDbEntity
  8
DIBUJOS
 62
     7
100
AcDbVertex
100
AcDb2dVertex
 10
82.75585445717579
 20
30.01357084308871
 30
0.0
  0
VERTEX
  5
281
330
26A
100
AcDbEntity
  8
DIBUJOS
 62
     7
100
AcDbVertex
100
AcDb2dVertex
 10
82.77569914023702
 20
30.26542343913356
 30
0.0
  0
VERTEX
  5
282
330
26A
100
AcDbEntity
  8
DIBUJOS
 62
     7
100
AcDbVertex
100
AcDb2dVertex
 10
82.77569914023702
 20
30.43317316672205
 30
0.0
  0
VERTEX
  5
283
330
26A
100
AcDbEntity
  8
DIBUJOS
 62
     7
100
AcDbVertex
100
AcDb2dVertex
 10
82.75078869021253
 20
30.74609338786718
 30
0.0
  0
VERTEX
  5
284
330
26A
100
AcDbEntity
  8
DIBUJOS
 62
     7
100
AcDbVertex
100
AcDb2dVertex
 10
82.70644893195859
 20
30.97513347778273
 30
0.0
  0
VERTEX
  5
285
330
26A
100
AcDbEntity
  8
DIBUJOS
 62
     7
100
AcDbVertex
100
AcDb2dVertex
 10
82.68408190028542
 20
31.08696562618735
 30
0.0
  0
VERTEX
  5
286
330
26A
100
AcDbEntity
  8
DIBUJOS
 62
     7
100
AcDbVertex
100
AcDb2dVertex
 10
82.65100542187587
 20
31.19866985118387
 30
0.0
  0
VERTEX
  5
287
330
26A
100
AcDbEntity
  8
DIBUJOS
 62
     7
100
AcDbVertex
100
AcDb2dVertex
 10
82.55930390297367
 20
31.46818791740733
 30
0.0
  0
VERTEX
  5
288
330
26A
100
AcDbEntity
  8
DIBUJOS
 62
     7
100
AcDbVertex
100
AcDb2dVertex
 10
82.47486843365549
 20
31.64711965585083
 30
0.0
  0
VERTEX
  5
289
330
26A
100
AcDbEntity
  8
DIBUJOS
 62
     7
100
AcDbVertex
100
AcDb2dVertex
 10
82.3965853277797
 20
31.80927837801181
 30
0.0
  0
VERTEX
  5
28A
330
26A
100
AcDbEntity
  8
DIBUJOS
 62
     7
100
AcDbVertex
100
AcDb2dVertex
 10
82.26255771556625
 20
32.01647065479282
 30
0.0
  0
VERTEX
  5
28B
330
26A
100
AcDbEntity
  8
DIBUJOS
 62
     7
100
AcDbVertex
100
AcDb2dVertex
 10
82.22900867303677
 20
32.06679421858605
 30
0.0
  0
VERTEX
  5
28C
330
26A
100
AcDbEntity
  8
DIBUJOS
 62
     7
100
AcDbVertex
100
AcDb2dVertex
 10
82.14804971045845
 20
32.18214651818803
 30
0.0
  0
VERTEX
  5
28D
330
26A
100
AcDbEntity
  8
DIBUJOS
 62
     7
100
AcDbVertex
100
AcDb2dVertex
 10
81.99425567421126
 20
32.35791328101536
 30
0.0
  0
VERTEX
  5
28E
330
26A
100
AcDbEntity
  8
DIBUJOS
 62
     7
100
AcDbVertex
100
AcDb2dVertex
 10
81.89902346924296
 20
32.46432749683932
 30
0.0
  0
VERTEX
  5
28F
330
26A
100
AcDbEntity
  8
DIBUJOS
 62
     7
100
AcDbVertex
100
AcDb2dVertex
 10
81.58940969195463
 20
32.73005000029299
 30
0.0
  0
VERTEX
  5
290
330
26A
100
AcDbEntity
  8
DIBUJOS
 62
     7
100
AcDbVertex
100
AcDb2dVertex
 10
81.58553888012173
 20
32.73263104317554
 30
0.0
  0
VERTEX
  5
291
330
26A
100
AcDbEntity
  8
DIBUJOS
 62
     7
100
AcDbVertex
100
AcDb2dVertex
 10
81.2653962538501
 20
32.94270535909341
 30
0.0
  0
VERTEX
  5
292
330
26A
100
AcDbEntity
  8
DIBUJOS
 62
     7
100
AcDbVertex
100
AcDb2dVertex
 10
81.17145532281403
 20
32.98967431963052
 30
0.0
  0
VERTEX
  5
293
330
26A
100
AcDbEntity
  8
DIBUJOS
 62
     7
100
AcDbVertex
100
AcDb2dVertex
 10
80.90752976699932
 20
33.11548623907641
 30
0.0
  0
VERTEX
  5
294
330
26A
100
AcDbEntity
  8
DIBUJOS
 62
     7
100
AcDbVertex
100
AcDb2dVertex
 10
80.66149843851628
 20
33.1993618553616
 30
0.0
  0
VERTEX
  5
295
330
26A
100
AcDbEntity
  8
DIBUJOS
 62
     7
100
AcDbVertex
100
AcDb2dVertex
 10
80.52742868682721
 20
33.23802933919867
 30
0.0
  0
VERTEX
  5
296
330
26A
100
AcDbEntity
  8
DIBUJOS
 62
     7
100
AcDbVertex
100
AcDb2dVertex
 10
80.45000342027684
 20
33.25351409151275
 30
0.0
  0
VERTEX
  5
297
330
26A
100
AcDbEntity
  8
DIBUJOS
 62
     7
100
AcDbVertex
100
AcDb2dVertex
 10
80.18656848835704
 20
33.30471505938829
 30
0.0
  0
VERTEX
  5
298
330
26A
100
AcDbEntity
  8
DIBUJOS
 62
     7
100
AcDbVertex
100
AcDb2dVertex
 10
79.94649989567644
 20
33.32106216597091
 30
0.0
  0
VERTEX
  5
299
330
26A
100
AcDbEntity
  8
DIBUJOS
 62
     7
100
AcDbVertex
100
AcDb2dVertex
 10
79.73384303189412
 20
33.32964657915027
 30
0.0
  0
VERTEX
  5
29A
330
26A
100
AcDbEntity
  8
DIBUJOS
 62
     7
100
AcDbVertex
100
AcDb2dVertex
 10
79.4041196948415
 20
33.30469699961266
 30
0.0
  0
VERTEX
  5
29B
330
26A
100
AcDbEntity
  8
DIBUJOS
 62
     7
100
AcDbVertex
100
AcDb2dVertex
 10
79.18064803563408
 20
33.26028048731438
 30
0.0
  0
VERTEX
  5
29C
330
26A
100
AcDbEntity
  8
DIBUJOS
 62
     7
100
AcDbVertex
100
AcDb2dVertex
 10
79.06886705659257
 20
33.23802933919867
 30
0.0
  0
VERTEX
  5
29D
330
26A
100
AcDbEntity
  8
DIBUJOS
 62
     7
100
AcDbVertex
100
AcDb2dVertex
 10
78.94486261965503
 20
33.20215811056598
 30
0.0
  0
VERTEX
  5
29E
330
26A
100
AcDbEntity
  8
DIBUJOS
 62
     7
100
AcDbVertex
100
AcDb2dVertex
 10
78.68771248953009
 20
33.11354631821686
 30
0.0
  0
VERTEX
  5
29F
330
26A
100
AcDbEntity
  8
DIBUJOS
 62
     7
100
AcDbVertex
100
AcDb2dVertex
 10
78.46957147399087
 20
33.01204135130369
 30
0.0
  0
VERTEX
  5
2A0
330
26A
100
AcDbEntity
  8
DIBUJOS
 62
     7
100
AcDbVertex
100
AcDb2dVertex
 10
78.34208150042598
 20
32.94829636452155
 30
0.0
  0
VERTEX
  5
2A1
330
26A
100
AcDbEntity
  8
DIBUJOS
 62
     7
100
AcDbVertex
100
AcDb2dVertex
 10
78.10753317905225
 20
32.79714959033188
 30
0.0
  0
VERTEX
  5
2A2
330
26A
100
AcDbEntity
  8
DIBUJOS
 62
     7
100
AcDbVertex
100
AcDb2dVertex
 10
78.0443059058275
 20
32.75499807484871
 30
0.0
  0
VERTEX
  5
2A3
330
26A
100
AcDbEntity
  8
DIBUJOS
 62
     7
100
AcDbVertex
100
AcDb2dVertex
 10
77.96252522347436
 20
32.6964031339817
 30
0.0
  0
VERTEX
  5
2A4
330
26A
100
AcDbEntity
  8
DIBUJOS
 62
     7
100
AcDbVertex
100
AcDb2dVertex
 10
77.78114789046201
 20
32.53701809230635
 30
0.0
  0
VERTEX
  5
2A5
330
26A
100
AcDbEntity
  8
DIBUJOS
 62
     7
100
AcDbVertex
100
AcDb2dVertex
 10
77.65795313344928
 20
32.41944293536487
 30
0.0
  0
VERTEX
  5
2A6
330
26A
100
AcDbEntity
  8
DIBUJOS
 62
     7
100
AcDbVertex
100
AcDb2dVertex
 10
77.53771114969277
 20
32.28279665573763
 30
0.0
  0
VERTEX
  5
2A7
330
26A
100
AcDbEntity
  8
DIBUJOS
 62
     7
100
AcDbVertex
100
AcDb2dVertex
 10
77.41761063417687
 20
32.13948631903498
 30
0.0
  0
VERTEX
  5
2A8
330
26A
100
AcDbEntity
  8
DIBUJOS
 62
     7
100
AcDbVertex
100
AcDb2dVertex
 10
77.38406159164741
 20
32.08916125025986
 30
0.0
  0
VERTEX
  5
2A9
330
26A
100
AcDbEntity
  8
DIBUJOS
 62
     7
100
AcDbVertex
100
AcDb2dVertex
 10
77.2019468178121
 20
31.80816017692708
 30
0.0
  0
VERTEX
  5
2AA
330
26A
100
AcDbEntity
  8
DIBUJOS
 62
     7
100
AcDbVertex
100
AcDb2dVertex
 10
77.13708212496272
 20
31.67563754598578
 30
0.0
  0
VERTEX
  5
2AB
330
26A
100
AcDbEntity
  8
DIBUJOS
 62
     7
100
AcDbVertex
100
AcDb2dVertex
 10
77.03475543827535
 20
31.45588620048505
 30
0.0
  0
VERTEX
  5
2AC
330
26A
100
AcDbEntity
  8
DIBUJOS
 62
     7
100
AcDbVertex
100
AcDb2dVertex
 10
76.9475267237153
 20
31.19978805226924
 30
0.0
  0
VERTEX
  5
2AD
330
26A
100
AcDbEntity
  8
DIBUJOS
 62
     7
100
AcDbVertex
100
AcDb2dVertex
 10
76.91221083317186
 20
31.0757821103498
 30
0.0
  0
VERTEX
  5
2AE
330
26A
100
AcDbEntity
  8
DIBUJOS
 62
     7
100
AcDbVertex
100
AcDb2dVertex
 10
76.89102069685342
 20
30.96475813688876
 30
0.0
  0
VERTEX
  5
2AF
330
26A
100
AcDbEntity
  8
DIBUJOS
 62
     7
100
AcDbVertex
100
AcDb2dVertex
 10
76.84557327238349
 20
30.74055054183965
 30
0.0
  0
VERTEX
  5
2B0
330
26A
100
AcDbEntity
  8
DIBUJOS
 62
     7
100
AcDbVertex
100
AcDb2dVertex
 10
76.82059660318339
 20
30.39403161378448
 30
0.0
  0
VERTEX
  5
2B1
330
26A
100
AcDbEntity
  8
DIBUJOS
 62
     7
100
AcDbVertex
100
AcDb2dVertex
 10
76.8347735267715
 20
30.13105118620894
 30
0.0
  0
VERTEX
  5
2B2
330
26A
100
AcDbEntity
  8
DIBUJOS
 62
     7
100
AcDbVertex
100
AcDb2dVertex
 10
76.84556123253348
 20
29.96924011472226
 30
0.0
  0
VERTEX
  5
2B3
330
26A
100
AcDbEntity
  8
DIBUJOS
 62
     7
100
AcDbVertex
100
AcDb2dVertex
 10
76.9123282217112
 20
29.62835433157085
 30
0.0
  0
VERTEX
  5
2B4
330
26A
100
AcDbEntity
  8
DIBUJOS
 62
     7
100
AcDbVertex
100
AcDb2dVertex
 10
76.91780334358126
 20
29.60044746383265
 30
0.0
  0
VERTEX
  5
2B5
330
26A
100
AcDbEntity
  8
DIBUJOS
 62
     7
100
AcDbVertex
100
AcDb2dVertex
 10
76.95591247936594
 20
29.48315223340863
 30
0.0
  0
VERTEX
  5
2B6
330
26A
100
AcDbEntity
  8
DIBUJOS
 62
     7
100
AcDbVertex
100
AcDb2dVertex
 10
77.0369918404461
 20
29.24159370926709
 30
0.0
  0
VERTEX
  5
2B7
330
26A
100
AcDbEntity
  8
DIBUJOS
 62
     7
100
AcDbVertex
100
AcDb2dVertex
 10
77.16056886270314
 20
28.98437735996654
 30
0.0
  0
VERTEX
  5
2B8
330
26A
100
AcDbEntity
  8
DIBUJOS
 62
     7
100
AcDbVertex
100
AcDb2dVertex
 10
77.19971041564072
 20
28.9005032486626
 30
0.0
  0
VERTEX
  5
2B9
330
26A
100
AcDbEntity
  8
DIBUJOS
 62
     7
100
AcDbVertex
100
AcDb2dVertex
 10
77.43438515544128
 20
28.54233576555751
 30
0.0
  0
VERTEX
  5
2BA
330
26A
100
AcDbEntity
  8
DIBUJOS
 62
     7
100
AcDbVertex
100
AcDb2dVertex
 10
77.66493323659148
 20
28.27479674970736
 30
0.0
  0
VERTEX
  5
2BB
330
26A
100
AcDbEntity
  8
DIBUJOS
 62
     7
100
AcDbVertex
100
AcDb2dVertex
 10
77.82028643343773
 20
28.13362047644923
 30
0.0
  0
VERTEX
  5
2BC
330
26A
100
AcDbEntity
  8
DIBUJOS
 62
     7
100
AcDbVertex
100
AcDb2dVertex
 10
77.95131913291809
 20
28.01896724064867
 30
0.0
  0
VERTEX
  5
2BD
330
26A
100
AcDbEntity
  8
DIBUJOS
 62
     7
100
AcDbVertex
100
AcDb2dVertex
 10
78.05720961525967
 20
27.94058856846196
 30
0.0
  0
VERTEX
  5
2BE
330
26A
100
AcDbEntity
  8
DIBUJOS
 62
     7
100
AcDbVertex
100
AcDb2dVertex
 10
78.09462946962138
 20
27.91564199888749
 30
0.0
  0
VERTEX
  5
2BF
330
26A
100
AcDbEntity
  8
DIBUJOS
 62
     7
100
AcDbVertex
100
AcDb2dVertex
 10
78.34208150042598
 20
27.7558927517441
 30
0.0
  0
VERTEX
  5
2C0
330
26A
100
AcDbEntity
  8
DIBUJOS
 62
     7
100
AcDbVertex
100
AcDb2dVertex
 10
78.45838946313586
 20
27.69773952287978
 30
0.0
  0
VERTEX
  5
2C1
330
26A
100
AcDbEntity
  8
DIBUJOS
 62
     7
100
AcDbVertex
100
AcDb2dVertex
 10
78.72231501894993
 20
27.57751860886139
 30
0.0
  0
VERTEX
  5
2C2
330
26A
100
AcDbEntity
  8
DIBUJOS
 62
     7
100
AcDbVertex
100
AcDb2dVertex
 10
78.9840041725926
 20
27.49028914181039
 30
0.0
  0
VERTEX
  5
2C3
330
26A
100
AcDbEntity
  8
DIBUJOS
 62
     7
100
AcDbVertex
100
AcDb2dVertex
 10
79.11833278106101
 20
27.45626603018106
 30
0.0
  0
VERTEX
  5
2C4
330
26A
100
AcDbEntity
  8
DIBUJOS
 62
     7
100
AcDbVertex
100
AcDb2dVertex
 10
79.23575743987502
 20
27.43389975099755
 30
0.0
  0
VERTEX
  5
2C5
330
26A
100
AcDbEntity
  8
DIBUJOS
 62
     7
100
AcDbVertex
100
AcDb2dVertex
 10
79.4041196948415
 20
27.39949136416205
 30
0.0
  0
VERTEX
  5
2C6
330
26A
100
AcDbEntity
  8
DIBUJOS
 62
     7
100
AcDbVertex
100
AcDb2dVertex
 10
79.47644307487799
 20
27.39432551594414
 30
0.0
  0
VERTEX
  5
2C7
330
26A
100
AcDbEntity
  8
DIBUJOS
 62
     7
100
AcDbVertex
100
AcDb2dVertex
 10
79.86245271152629
 20
27.37454178462508
 30
0.0
  0
SEQEND
  5
2C8
330
26A
100
AcDbEntity
  8
DIBUJOS
 62
     7
  0
POLYLINE
  5
2C9
330
1F
100
AcDbEntity
  8
DIBUJOS
100
AcDb2dPolyline
 66
     1
 10
0.0
 20
0.0
 30
0.0
  0
VERTEX
  5
2CA
330
2C9
100
AcDbEntity
  8
DIBUJOS
100
AcDbVertex
100
AcDb2dVertex
 10
56.03080101401238
 20
19.82324976627631
 30
0.0
  0
VERTEX
  5
2CB
330
2C9
100
AcDbEntity
  8
DIBUJOS
100
AcDbVertex
100
AcDb2dVertex
 10
56.03080101401238
 20
19.8288415241954
 30
0.0
  0
VERTEX
  5
2CC
330
2C9
100
AcDbEntity
  8
DIBUJOS
100
AcDbVertex
100
AcDb2dVertex
 10
56.02520963233908
 20
19.83443309399079
 30
0.0
  0
VERTEX
  5
2CD
330
2C9
100
AcDbEntity
  8
DIBUJOS
100
AcDbVertex
100
AcDb2dVertex
 10
56.01961787442095
 20
19.82324976627631
 30
0.0
  0
SEQEND
  5
2CE
330
2C9
100
AcDbEntity
  8
DIBUJOS
  0
POLYLINE
  5
2CF
330
1F
100
AcDbEntity
  8
DIBUJOS
100
AcDb2dPolyline
 66
     1
 10
0.0
 20
0.0
 30
0.0
  0
VERTEX
  5
2D0
330
2CF
100
AcDbEntity
  8
DIBUJOS
100
AcDbVertex
100
AcDb2dVertex
 10
56.33275010980203
 20
19.82324976627631
 30
0.0
  0
VERTEX
  5
2D1
330
2CF
100
AcDbEntity
  8
DIBUJOS
100
AcDbVertex
100
AcDb2dVertex
 10
56.33275010980203
 20
19.8288415241954
 30
0.0
  0
VERTEX
  5
2D2
330
2CF
100
AcDbEntity
  8
DIBUJOS
100
AcDbVertex
100
AcDb2dVertex
 10
56.32715835188326
 20
19.83443309399079
 30
0.0
  0
VERTEX
  5
2D3
330
2CF
100
AcDbEntity
  8
DIBUJOS
100
AcDbVertex
100
AcDb2dVertex
 10
56.32156697021028
 20
19.82324976627631
 30
0.0
  0
SEQEND
  5
2D4
330
2CF
100
AcDbEntity
  8
DIBUJOS
  0
POLYLINE
  5
2D5
330
1F
100
AcDbEntity
  8
DIBUJOS
100
AcDb2dPolyline
 66
     1
 10
0.0
 20
0.0
 30
0.0
  0
VERTEX
  5
2D6
330
2D5
100
AcDbEntity
  8
DIBUJOS
100
AcDbVertex
100
AcDb2dVertex
 10
56.46135790820683
 20
19.82324976627631
 30
0.0
  0
VERTEX
  5
2D7
330
2D5
100
AcDbEntity
  8
DIBUJOS
100
AcDbVertex
100
AcDb2dVertex
 10
56.46135790820683
 20
19.83443309399079
 30
0.0
  0
SEQEND
  5
2D8
330
2D5
100
AcDbEntity
  8
DIBUJOS
  0
POLYLINE
  5
2D9
330
1F
100
AcDbEntity
  8
DIBUJOS
100
AcDb2dPolyline
 66
     1
 10
0.0
 20
0.0
 30
0.0
  0
VERTEX
  5
2DA
330
2D9
100
AcDbEntity
  8
DIBUJOS
100
AcDbVertex
100
AcDb2dVertex
 10
55.96929299376889
 20
19.81765838460333
 30
0.0
  0
VERTEX
  5
2DB
330
2D9
100
AcDbEntity
  8
DIBUJOS
100
AcDbVertex
100
AcDb2dVertex
 10
55.96370142397317
 20
19.81765838460333
 30
0.0
  0
SEQEND
  5
2DC
330
2D9
100
AcDbEntity
  8
DIBUJOS
  0
POLYLINE
  5
2DD
330
1F
100
AcDbEntity
  8
DIBUJOS
100
AcDb2dPolyline
 66
     1
 10
0.0
 20
0.0
 30
0.0
  0
VERTEX
  5
2DE
330
2DD
100
AcDbEntity
  8
DIBUJOS
100
AcDbVertex
100
AcDb2dVertex
 10
55.97488456356428
 20
19.81765838460333
 30
0.0
  0
VERTEX
  5
2DF
330
2DD
100
AcDbEntity
  8
DIBUJOS
100
AcDbVertex
100
AcDb2dVertex
 10
55.96929299376889
 20
19.81765838460333
 30
0.0
  0
SEQEND
  5
2E0
330
2DD
100
AcDbEntity
  8
DIBUJOS
  0
POLYLINE
  5
2E1
330
1F
100
AcDbEntity
  8
DIBUJOS
100
AcDb2dPolyline
 66
     1
 10
0.0
 20
0.0
 30
0.0
  0
VERTEX
  5
2E2
330
2E1
100
AcDbEntity
  8
DIBUJOS
100
AcDbVertex
100
AcDb2dVertex
 10
55.97488456356428
 20
19.81765838460333
 30
0.0
  0
VERTEX
  5
2E3
330
2E1
100
AcDbEntity
  8
DIBUJOS
100
AcDbVertex
100
AcDb2dVertex
 10
56.01402630462524
 20
19.81765838460333
 30
0.0
  0
VERTEX
  5
2E4
330
2E1
100
AcDbEntity
  8
DIBUJOS
100
AcDbVertex
100
AcDb2dVertex
 10
56.01961787442095
 20
19.82324976627631
 30
0.0
  0
SEQEND
  5
2E5
330
2E1
100
AcDbEntity
  8
DIBUJOS
  0
POLYLINE
  5
2E6
330
1F
100
AcDbEntity
  8
DIBUJOS
100
AcDb2dPolyline
 66
     1
 10
0.0
 20
0.0
 30
0.0
  0
VERTEX
  5
2E7
330
2E6
100
AcDbEntity
  8
DIBUJOS
100
AcDbVertex
100
AcDb2dVertex
 10
56.02520963233908
 20
19.81765838460333
 30
0.0
  0
VERTEX
  5
2E8
330
2E6
100
AcDbEntity
  8
DIBUJOS
100
AcDbVertex
100
AcDb2dVertex
 10
56.01961787442095
 20
19.82324976627631
 30
0.0
  0
SEQEND
  5
2E9
330
2E6
100
AcDbEntity
  8
DIBUJOS
  0
POLYLINE
  5
2EA
330
1F
100
AcDbEntity
  8
DIBUJOS
100
AcDb2dPolyline
 66
     1
 10
0.0
 20
0.0
 30
0.0
  0
VERTEX
  5
2EB
330
2EA
100
AcDbEntity
  8
DIBUJOS
100
AcDbVertex
100
AcDb2dVertex
 10
56.03080101401238
 20
19.81765838460333
 30
0.0
  0
VERTEX
  5
2EC
330
2EA
100
AcDbEntity
  8
DIBUJOS
100
AcDbVertex
100
AcDb2dVertex
 10
56.02520963233908
 20
19.81765838460333
 30
0.0
  0
SEQEND
  5
2ED
330
2EA
100
AcDbEntity
  8
DIBUJOS
  0
POLYLINE
  5
2EE
330
1F
100
AcDbEntity
  8
DIBUJOS
100
AcDb2dPolyline
 66
     1
 10
0.0
 20
0.0
 30
0.0
  0
VERTEX
  5
2EF
330
2EE
100
AcDbEntity
  8
DIBUJOS
100
AcDbVertex
100
AcDb2dVertex
 10
56.03080101401238
 20
19.81765838460333
 30
0.0
  0
VERTEX
  5
2F0
330
2EE
100
AcDbEntity
  8
DIBUJOS
100
AcDbVertex
100
AcDb2dVertex
 10
56.03080101401238
 20
19.82324976627631
 30
0.0
  0
SEQEND
  5
2F1
330
2EE
100
AcDbEntity
  8
DIBUJOS
  0
POLYLINE
  5
2F2
330
1F
100
AcDbEntity
  8
DIBUJOS
100
AcDb2dPolyline
 66
     1
 10
0.0
 20
0.0
 30
0.0
  0
VERTEX
  5
2F3
330
2F2
100
AcDbEntity
  8
DIBUJOS
100
AcDbVertex
100
AcDb2dVertex
 10
56.03639277193084
 20
19.81765838460333
 30
0.0
  0
VERTEX
  5
2F4
330
2F2
100
AcDbEntity
  8
DIBUJOS
100
AcDbVertex
100
AcDb2dVertex
 10
56.03080101401238
 20
19.81765838460333
 30
0.0
  0
SEQEND
  5
2F5
330
2F2
100
AcDbEntity
  8
DIBUJOS
  0
POLYLINE
  5
2F6
330
1F
100
AcDbEntity
  8
DIBUJOS
100
AcDb2dPolyline
 66
     1
 10
0.0
 20
0.0
 30
0.0
  0
VERTEX
  5
2F7
330
2F6
100
AcDbEntity
  8
DIBUJOS
100
AcDbVertex
100
AcDb2dVertex
 10
56.31597521229214
 20
19.81765838460333
 30
0.0
  0
VERTEX
  5
2F8
330
2F6
100
AcDbEntity
  8
DIBUJOS
100
AcDbVertex
100
AcDb2dVertex
 10
56.04198434172655
 20
19.82324976627631
 30
0.0
  0
VERTEX
  5
2F9
330
2F6
100
AcDbEntity
  8
DIBUJOS
100
AcDbVertex
100
AcDb2dVertex
 10
56.03639277193084
 20
19.81765838460333
 30
0.0
  0
SEQEND
  5
2FA
330
2F6
100
AcDbEntity
  8
DIBUJOS
  0
POLYLINE
  5
2FB
330
1F
100
AcDbEntity
  8
DIBUJOS
100
AcDb2dPolyline
 66
     1
 10
0.0
 20
0.0
 30
0.0
  0
VERTEX
  5
2FC
330
2FB
100
AcDbEntity
  8
DIBUJOS
100
AcDbVertex
100
AcDb2dVertex
 10
56.32156697021028
 20
19.81765838460333
 30
0.0
  0
VERTEX
  5
2FD
330
2FB
100
AcDbEntity
  8
DIBUJOS
100
AcDbVertex
100
AcDb2dVertex
 10
56.31597521229214
 20
19.81765838460333
 30
0.0
  0
SEQEND
  5
2FE
330
2FB
100
AcDbEntity
  8
DIBUJOS
  0
POLYLINE
  5
2FF
330
1F
100
AcDbEntity
  8
DIBUJOS
100
AcDb2dPolyline
 66
     1
 10
0.0
 20
0.0
 30
0.0
  0
VERTEX
  5
300
330
2FF
100
AcDbEntity
  8
DIBUJOS
100
AcDbVertex
100
AcDb2dVertex
 10
56.32156697021028
 20
19.81765838460333
 30
0.0
  0
VERTEX
  5
301
330
2FF
100
AcDbEntity
  8
DIBUJOS
100
AcDbVertex
100
AcDb2dVertex
 10
56.32156697021028
 20
19.82324976627631
 30
0.0
  0
SEQEND
  5
302
330
2FF
100
AcDbEntity
  8
DIBUJOS
  0
POLYLINE
  5
303
330
1F
100
AcDbEntity
  8
DIBUJOS
100
AcDb2dPolyline
 66
     1
 10
0.0
 20
0.0
 30
0.0
  0
VERTEX
  5
304
330
303
100
AcDbEntity
  8
DIBUJOS
100
AcDbVertex
100
AcDb2dVertex
 10
56.32715835188326
 20
19.81765838460333
 30
0.0
  0
VERTEX
  5
305
330
303
100
AcDbEntity
  8
DIBUJOS
100
AcDbVertex
100
AcDb2dVertex
 10
56.32156697021028
 20
19.81765838460333
 30
0.0
  0
SEQEND
  5
306
330
303
100
AcDbEntity
  8
DIBUJOS
  0
POLYLINE
  5
307
330
1F
100
AcDbEntity
  8
DIBUJOS
100
AcDb2dPolyline
 66
     1
 10
0.0
 20
0.0
 30
0.0
  0
VERTEX
  5
308
330
307
100
AcDbEntity
  8
DIBUJOS
100
AcDbVertex
100
AcDb2dVertex
 10
56.33275010980203
 20
19.81765838460333
 30
0.0
  0
VERTEX
  5
309
330
307
100
AcDbEntity
  8
DIBUJOS
100
AcDbVertex
100
AcDb2dVertex
 10
56.32715835188326
 20
19.81765838460333
 30
0.0
  0
SEQEND
  5
30A
330
307
100
AcDbEntity
  8
DIBUJOS
  0
POLYLINE
  5
30B
330
1F
100
AcDbEntity
  8
DIBUJOS
100
AcDb2dPolyline
 66
     1
 10
0.0
 20
0.0
 30
0.0
  0
VERTEX
  5
30C
330
30B
100
AcDbEntity
  8
DIBUJOS
100
AcDbVertex
100
AcDb2dVertex
 10
56.33275010980203
 20
19.81765838460333
 30
0.0
  0
VERTEX
  5
30D
330
30B
100
AcDbEntity
  8
DIBUJOS
100
AcDbVertex
100
AcDb2dVertex
 10
56.33275010980203
 20
19.82324976627631
 30
0.0
  0
SEQEND
  5
30E
330
30B
100
AcDbEntity
  8
DIBUJOS
  0
POLYLINE
  5
30F
330
1F
100
AcDbEntity
  8
DIBUJOS
100
AcDb2dPolyline
 66
     1
 10
0.0
 20
0.0
 30
0.0
  0
VERTEX
  5
310
330
30F
100
AcDbEntity
  8
DIBUJOS
100
AcDbVertex
100
AcDb2dVertex
 10
56.33834186772016
 20
19.81765838460333
 30
0.0
  0
VERTEX
  5
311
330
30F
100
AcDbEntity
  8
DIBUJOS
100
AcDbVertex
100
AcDb2dVertex
 10
56.33275010980203
 20
19.81765838460333
 30
0.0
  0
SEQEND
  5
312
330
30F
100
AcDbEntity
  8
DIBUJOS
  0
POLYLINE
  5
313
330
1F
100
AcDbEntity
  8
DIBUJOS
100
AcDb2dPolyline
 66
     1
 10
0.0
 20
0.0
 30
0.0
  0
VERTEX
  5
314
330
313
100
AcDbEntity
  8
DIBUJOS
100
AcDbVertex
100
AcDb2dVertex
 10
56.38866656024981
 20
19.81765838460333
 30
0.0
  0
VERTEX
  5
315
330
313
100
AcDbEntity
  8
DIBUJOS
100
AcDbVertex
100
AcDb2dVertex
 10
56.38307480233136
 20
19.82045407544046
 30
0.0
  0
VERTEX
  5
316
330
313
100
AcDbEntity
  8
DIBUJOS
100
AcDbVertex
100
AcDb2dVertex
 10
56.33834186772016
 20
19.81765838460333
 30
0.0
  0
SEQEND
  5
317
330
313
100
AcDbEntity
  8
DIBUJOS
  0
POLYLINE
  5
318
330
1F
100
AcDbEntity
  8
DIBUJOS
100
AcDb2dPolyline
 66
     1
 10
0.0
 20
0.0
 30
0.0
  0
VERTEX
  5
319
330
318
100
AcDbEntity
  8
DIBUJOS
100
AcDbVertex
100
AcDb2dVertex
 10
56.39425831816794
 20
19.81765838460333
 30
0.0
  0
VERTEX
  5
31A
330
318
100
AcDbEntity
  8
DIBUJOS
100
AcDbVertex
100
AcDb2dVertex
 10
56.38866656024981
 20
19.81765838460333
 30
0.0
  0
SEQEND
  5
31B
330
318
100
AcDbEntity
  8
DIBUJOS
  0
POLYLINE
  5
31C
330
1F
100
AcDbEntity
  8
DIBUJOS
100
AcDb2dPolyline
 66
     1
 10
0.0
 20
0.0
 30
0.0
  0
VERTEX
  5
31D
330
31C
100
AcDbEntity
  8
DIBUJOS
100
AcDbVertex
100
AcDb2dVertex
 10
56.45576652653417
 20
19.81765838460333
 30
0.0
  0
VERTEX
  5
31E
330
31C
100
AcDbEntity
  8
DIBUJOS
100
AcDbVertex
100
AcDb2dVertex
 10
56.39425831816794
 20
19.81765838460333
 30
0.0
  0
SEQEND
  5
31F
330
31C
100
AcDbEntity
  8
DIBUJOS
  0
POLYLINE
  5
320
330
1F
100
AcDbEntity
  8
DIBUJOS
100
AcDb2dPolyline
 66
     1
 10
0.0
 20
0.0
 30
0.0
  0
VERTEX
  5
321
330
320
100
AcDbEntity
  8
DIBUJOS
100
AcDbVertex
100
AcDb2dVertex
 10
56.46135790820683
 20
19.81765838460333
 30
0.0
  0
VERTEX
  5
322
330
320
100
AcDbEntity
  8
DIBUJOS
100
AcDbVertex
100
AcDb2dVertex
 10
56.45576652653417
 20
19.81765838460333
 30
0.0
  0
SEQEND
  5
323
330
320
100
AcDbEntity
  8
DIBUJOS
  0
POLYLINE
  5
324
330
1F
100
AcDbEntity
  8
DIBUJOS
100
AcDb2dPolyline
 66
     1
 10
0.0
 20
0.0
 30
0.0
  0
VERTEX
  5
325
330
324
100
AcDbEntity
  8
DIBUJOS
100
AcDbVertex
100
AcDb2dVertex
 10
56.46135790820683
 20
19.81765838460333
 30
0.0
  0
VERTEX
  5
326
330
324
100
AcDbEntity
  8
DIBUJOS
100
AcDbVertex
100
AcDb2dVertex
 10
56.46135790820683
 20
19.82324976627631
 30
0.0
  0
SEQEND
  5
327
330
324
100
AcDbEntity
  8
DIBUJOS
  0
POLYLINE
  5
328
330
1F
100
AcDbEntity
  8
DIBUJOS
100
AcDb2dPolyline
 66
     1
 10
0.0
 20
0.0
 30
0.0
  0
VERTEX
  5
329
330
328
100
AcDbEntity
  8
DIBUJOS
100
AcDbVertex
100
AcDb2dVertex
 10
56.4669496661256
 20
19.81765838460333
 30
0.0
  0
VERTEX
  5
32A
330
328
100
AcDbEntity
  8
DIBUJOS
100
AcDbVertex
100
AcDb2dVertex
 10
56.46135790820683
 20
19.81765838460333
 30
0.0
  0
SEQEND
  5
32B
330
328
100
AcDbEntity
  8
DIBUJOS
  0
POLYLINE
  5
32C
330
1F
100
AcDbEntity
  8
DIBUJOS
100
AcDb2dPolyline
 66
     1
 10
0.0
 20
0.0
 30
0.0
  0
VERTEX
  5
32D
330
32C
100
AcDbEntity
  8
DIBUJOS
100
AcDbVertex
100
AcDb2dVertex
 10
56.61233273828608
 20
19.81765838460333
 30
0.0
  0
VERTEX
  5
32E
330
32C
100
AcDbEntity
  8
DIBUJOS
100
AcDbVertex
100
AcDb2dVertex
 10
56.4669496661256
 20
19.81765838460333
 30
0.0
  0
SEQEND
  5
32F
330
32C
100
AcDbEntity
  8
DIBUJOS
  0
POLYLINE
  5
330
330
1F
100
AcDbEntity
  8
DIBUJOS
100
AcDb2dPolyline
 66
     1
 10
0.0
 20
0.0
 30
0.0
  0
VERTEX
  5
331
330
330
100
AcDbEntity
  8
DIBUJOS
100
AcDbVertex
100
AcDb2dVertex
 10
55.96929299376889
 20
19.81206662668487
 30
0.0
  0
VERTEX
  5
332
330
330
100
AcDbEntity
  8
DIBUJOS
100
AcDbVertex
100
AcDb2dVertex
 10
55.96929299376889
 20
19.81765838460333
 30
0.0
  0
SEQEND
  5
333
330
330
100
AcDbEntity
  8
DIBUJOS
  0
POLYLINE
  5
334
330
1F
100
AcDbEntity
  8
DIBUJOS
100
AcDb2dPolyline
 66
     1
 10
0.0
 20
0.0
 30
0.0
  0
VERTEX
  5
335
330
334
100
AcDbEntity
  8
DIBUJOS
100
AcDbVertex
100
AcDb2dVertex
 10
56.39425831816794
 20
19.81206662668487
 30
0.0
  0
VERTEX
  5
336
330
334
100
AcDbEntity
  8
DIBUJOS
100
AcDbVertex
100
AcDb2dVertex
 10
56.39425831816794
 20
19.81765838460333
 30
0.0
  0
SEQEND
  5
337
330
334
100
AcDbEntity
  8
DIBUJOS
  0
POLYLINE
  5
338
330
1F
100
AcDbEntity
  8
DIBUJOS
100
AcDb2dPolyline
 66
     1
 10
0.0
 20
0.0
 30
0.0
  0
VERTEX
  5
339
330
338
100
AcDbEntity
  8
DIBUJOS
100
AcDbVertex
100
AcDb2dVertex
 10
55.96370142397317
 20
19.80647505688948
 30
0.0
  0
VERTEX
  5
33A
330
338
100
AcDbEntity
  8
DIBUJOS
100
AcDbVertex
100
AcDb2dVertex
 10
55.96929299376889
 20
19.81206662668487
 30
0.0
  0
SEQEND
  5
33B
330
338
100
AcDbEntity
  8
DIBUJOS
  0
POLYLINE
  5
33C
330
1F
100
AcDbEntity
  8
DIBUJOS
100
AcDb2dPolyline
 66
     1
 10
0.0
 20
0.0
 30
0.0
  0
VERTEX
  5
33D
330
33C
100
AcDbEntity
  8
DIBUJOS
100
AcDbVertex
100
AcDb2dVertex
 10
56.38866656024981
 20
19.80647505688948
 30
0.0
  0
VERTEX
  5
33E
330
33C
100
AcDbEntity
  8
DIBUJOS
100
AcDbVertex
100
AcDb2dVertex
 10
56.39425831816794
 20
19.81206662668487
 30
0.0
  0
SEQEND
  5
33F
330
33C
100
AcDbEntity
  8
DIBUJOS
  0
POLYLINE
  5
341
330
1F
100
AcDbEntity
  8
COTAS_LINEA
 62
     7
100
AcDb2dPolyline
 66
     1
 10
0.0
 20
0.0
 30
0.0
  0
VERTEX
  5
342
330
341
100
AcDbEntity
  8
COTAS_LINEA
 62
     7
100
AcDbVertex
100
AcDb2dVertex
 10
84.9159532285494
 20
47.24123226298041
 30
0.0
  0
VERTEX
  5
343
330
341
100
AcDbEntity
  8
COTAS_LINEA
 62
     7
100
AcDbVertex
100
AcDb2dVertex
 10
84.91595322941248
 20
42.68420625991158
 30
0.0
  0
SEQEND
  5
344
330
341
100
AcDbEntity
  8
COTAS_LINEA
 62
     7
  0
POLYLINE
  5
345
330
1F
100
AcDbEntity
  8
COTAS_LINEA
 62
     7
100
AcDb2dPolyline
 66
     1
 10
0.0
 20
0.0
 30
0.0
  0
VERTEX
  5
346
330
345
100
AcDbEntity
  8
COTAS_LINEA
 62
     7
100
AcDbVertex
100
AcDb2dVertex
 10
77.47242232595953
 20
38.66119575631178
 30
0.0
  0
VERTEX
  5
347
330
345
100
AcDbEntity
  8
COTAS_LINEA
 62
     7
100
AcDbVertex
100
AcDb2dVertex
 10
82.27455272283794
 20
38.66119575631178
 30
0.0
  0
SEQEND
  5
348
330
345
100
AcDbEntity
  8
COTAS_LINEA
 62
     7
  0
POLYLINE
  5
349
330
1F
100
AcDbEntity
  8
COTAS_LINEA
 62
     7
100
AcDb2dPolyline
 66
     1
 10
0.0
 20
0.0
 30
0.0
  0
VERTEX
  5
34A
330
349
100
AcDbEntity
  8
COTAS_LINEA
 62
     7
100
AcDbVertex
100
AcDb2dVertex
 10
69.04095323251815
 20
47.24123226298041
 30
0.0
  0
VERTEX
  5
34B
330
349
100
AcDbEntity
  8
COTAS_LINEA
 62
     7
100
AcDbVertex
100
AcDb2dVertex
 10
69.04095323338123
 20
42.68420625991158
 30
0.0
  0
SEQEND
  5
34C
330
349
100
AcDbEntity
  8
COTAS_LINEA
 62
     7
  0
POLYLINE
  5
34D
330
1F
100
AcDbEntity
  8
COTAS_LINEA
 62
     7
100
AcDb2dPolyline
 66
     1
 10
0.0
 20
0.0
 30
0.0
  0
VERTEX
  5
34E
330
34D
100
AcDbEntity
  8
COTAS_LINEA
 62
     7
100
AcDbVertex
100
AcDb2dVertex
 10
61.59742232992795
 20
38.66119575631178
 30
0.0
  0
VERTEX
  5
34F
330
34D
100
AcDbEntity
  8
COTAS_LINEA
 62
     7
100
AcDbVertex
100
AcDb2dVertex
 10
66.39955272680669
 20
38.66119575631178
 30
0.0
  0
SEQEND
  5
350
330
34D
100
AcDbEntity
  8
COTAS_LINEA
 62
     7
  0
MTEXT
  5
352
330
1F
100
AcDbEntity
  8
COTAS_N_U_00DAMERO
 62
     7
100
AcDbMText
 10
85.69126495762178
 20
44.07784893205508
 30
0.0
 40
1.998533025814148
 41
0.0
 71
     7
 72
     1
  1
\fMyriad Pro|b0|i0|c0|p34;\W1;42
  0
MTEXT
  5
353
330
1F
100
AcDbEntity
  8
COTAS_N_U_00DAMERO
 62
     7
100
AcDbMText
 10
78.36785861281363
 20
39.21616786400239
 30
0.0
 40
1.998533025814148
 41
0.0
 71
     7
 72
     1
  1
\fMyriad Pro|b0|i0|c0|p34;\W1;60
  0
MTEXT
  5
354
330
1F
100
AcDbEntity
  8
COTAS_N_U_00DAMERO
 62
     7
100
AcDbMText
 10
69.81626496159053
 20
44.07784893205508
 30
0.0
 40
1.998533025814148
 41
0.0
 71
     7
 72
     1
  1
\fMyriad Pro|b0|i0|c0|p34;\W1;47
  0
MTEXT
  5
355
330
1F
100
AcDbEntity
  8
COTAS_N_U_00DAMERO
 62
     7
100
AcDbMText
 10
62.49285861678239
 20
39.21616786400239
 30
0.0
 40
1.998533025814148
 41
0.0
 71
     7
 72
     1
  1
\fMyriad Pro|b0|i0|c0|p34;\W1;60
  0
ENDSEC
  0
SECTION
  2
OBJECTS
  0
DICTIONARY
  5
C
330
0
100
AcDbDictionary
  3
ACAD_GROUP
350
D
  3
ACAD_LAYOUT
350
1A
  3
ACAD_MATERIAL
350
3B
  3
ACAD_MLEADERSTYLE
350
378
  3
ACAD_MLINESTYLE
350
17
  3
ACAD_PLOTSETTINGS
350
19
  3
ACAD_VISUALSTYLE
350
2A
  3
ACDBHEADERROUNDTRIPXREC
350
356
  3
ACDBVARIABLEDICTIONARY
350
376
  0
DICTIONARY
  5
D
102
{ACAD_REACTORS
330
C
102
}
330
C
100
AcDbDictionary
  0
DICTIONARY
  5
1A
102
{ACAD_REACTORS
330
C
102
}
330
C
100
AcDbDictionary
  0
DICTIONARY
  5
3B
102
{ACAD_REACTORS
330
C
102
}
330
C
100
AcDbDictionary
  3
BYBLOCK
350
3D
  3
BYLAYER
350
3C
  3
GLOBAL
350
3E
  0
DICTIONARY
  5
378
102
{ACAD_REACTORS
330
C
102
}
330
C
100
AcDbDictionary
  0
DICTIONARY
  5
17
102
{ACAD_REACTORS
330
C
102
}
330
C
100
AcDbDictionary
  3
STANDARD
350
18
  0
DICTIONARY
  5
19
102
{ACAD_REACTORS
330
C
102
}
330
C
100
AcDbDictionary
  0
DICTIONARY
  5
2A
102
{ACAD_REACTORS
330
C
102
}
330
C
100
AcDbDictionary
  3
2DWIREFRAME
350
2F
  3
3D_HIDDEN
350
31
  3
3DWIREFRAME
350
30
  3
BASIC
350
32
  3
BRIGHTEN
350
36
  3
COLORCHANGE
350
3A
  3
CONCEPTUAL
350
34
  3
DIM
350
35
  3
FACEPATTERN
350
39
  3
FLAT
350
2B
  3
FLATWITHEDGES
350
2C
  3
GOURAUD
350
2D
  3
GOURAUDWITHEDGES
350
2E
  3
LINEPATTERN
350
38
  3
REALISTIC
350
33
  3
THICKEN
350
37
  0
DICTIONARY
  5
356
102
{ACAD_REACTORS
330
C
102
}
330
C
100
AcDbDictionary
  3
CEPSNTYPE
350
35F
  3
DIMSTYLEDATA
350
375
  3
FINGERPRINTGUID
350
360
  3
HYPERLINKBASE
350
359
  3
INSUNITS
350
35E
  3
LAYOUTDICT
350
35B
  3
LWETCUNION
350
35D
  3
PLOTSETDICT
350
35C
  3
PSVPSCALE
350
362
  3
PUCSBASE
350
365
  3
PUCSORGBACK
350
36B
  3
PUCSORGBOTTOM
350
367
  3
PUCSORGFRONT
350
36A
  3
PUCSORGLEFT
350
368
  3
PUCSORGRIGHT
350
369
  3
PUCSORGTOP
350
366
  3
PUCSORTHOREF
350
363
  3
PUCSORTHOVIEW
350
364
  3
STYLESHEET
350
35A
  3
TSTACKALIGN
350
357
  3
TSTACKSIZE
350
358
  3
UCSBASE
350
36E
  3
UCSORGBACK
350
374
  3
UCSORGBOTTOM
350
370
  3
UCSORGFRONT
350
373
  3
UCSORGLEFT
350
371
  3
UCSORGRIGHT
350
372
  3
UCSORGTOP
350
36F
  3
UCSORTHOREF
350
36C
  3
UCSORTHOVIEW
350
36D
  3
VERSIONGUID
350
361
  0
DICTIONARY
  5
376
102
{ACAD_REACTORS
330
C
102
}
330
C
100
AcDbDictionary
  3
DIMASSOC
350
379
  3
HIDETEXT
350
37A
  0
MATERIAL
  5
3D
102
{ACAD_REACTORS
330
3B
102
}
102
{ACAD_XDICTIONARY
360
37D
102
}
330
3B
100
AcDbMaterial
  1
ByBlock
  0
MATERIAL
  5
3C
102
{ACAD_REACTORS
330
3B
102
}
102
{ACAD_XDICTIONARY
360
37B
102
}
330
3B
100
AcDbMaterial
  1
ByLayer
  0
MATERIAL
  5
3E
102
{ACAD_REACTORS
330
3B
102
}
102
{ACAD_XDICTIONARY
360
37F
102
}
330
3B
100
AcDbMaterial
  1
Global
  0
MLINESTYLE
  5
18
102
{ACAD_REACTORS
330
17
102
}
330
17
100
AcDbMlineStyle
  2
Standard
 70
     0
  3

 62
   256
 51
90.0
 52
90.0
 71
     2
 49
0.5
 62
   256
  6
BYLAYER
 49
-0.5
 62
   256
  6
BYLAYER
  0
ACAD_PROXY_OBJECT
  5
2F
102
{ACAD_REACTORS
330
2A
102
}
330
2A
100
AcDbProxyObject
 90
      499
 91
      501
 93
      436
310
42CC9915DA5C99599C985B595049028333333333333E3BF0000000000000FB0107901411070040501600405405064090741402480A0340
1001
ACAD
1000
AcDbSavedByObjectVersion
1070
     0
  0
ACAD_PROXY_OBJECT
  5
31
102
{ACAD_REACTORS
330
2A
102
}
330
2A
100
AcDbProxyObject
 90
      499
 91
      501
 93
      500
310
424CD108121A5919195B90640502408333333333333E3BF0000000000000FB01079024090700405020000000000001110200405405064090740C02480A0340
1001
ACAD
1000
AcDbSavedByObjectVersion
1070
     0
  0
ACAD_PROXY_OBJECT
  5
30
102
{ACAD_REACTORS
330
2A
102
}
330
2A
100
AcDbProxyObject
 90
      499
 91
      501
 93
      436
310
42CCD915DA5C99599C985B595059028333333333333E3BF0000000000000FB0107901411070040501600405405064090741402480A0340
1001
ACAD
1000
AcDbSavedByObjectVersion
1070
     0
  0
ACAD_PROXY_OBJECT
  5
32
102
{ACAD_REACTORS
330
2A
102
}
330
2A
100
AcDbProxyObject
 90
      499
 91
      501
 93
      388
310
4150985CDA58D07406404333333333333E3BF0000000000000FB0107A41107004050150841D405064090741402480A0350
1001
ACAD
1000
AcDbSavedByObjectVersion
1070
     0
  0
ACAD_PROXY_OBJECT
  5
36
102
{ACAD_REACTORS
330
2A
102
}
330
2A
100
AcDbProxyObject
 90
      499
 91
      501
 93
      428
310
42109C9A59DA1D195B90C409028333333333333E3BF0000000000000FB010790141107004050150841D405064090741402480A029950
1001
ACAD
1000
AcDbSavedByObjectVersion
1070
     0
  0
ACAD_PROXY_OBJECT
  5
3A
102
{ACAD_REACTORS
330
2A
102
}
330
2A
100
AcDbProxyObject
 90
      499
 91
      501
 93
      452
310
42D0DBDB1BDC90DA185B99D95104090240C333333333333E3BF0000000000000FB0108901411070040501508421405064090741402480A0350
1001
ACAD
1000
AcDbSavedByObjectVersion
1070
     0
  0
ACAD_PROXY_OBJECT
  5
34
102
{ACAD_REACTORS
330
2A
102
}
330
2A
100
AcDbProxyObject
 90
      499
 91
      501
 93
      500
310
4290DBDB98D95C1D1D585B10940D028333333333333E3BF0000000000000FB0107902409070040501000000000000111010841D405064090740C02480A0340
1001
ACAD
1000
AcDbSavedByObjectVersion
1070
     0
  0
ACAD_PROXY_OBJECT
  5
35
102
{ACAD_REACTORS
330
2A
102
}
330
2A
100
AcDbProxyObject
 90
      499
 91
      501
 93
      412
310
40D11A5B50B409028333333333333E3BF0000000000000FB010790141107004050150841D405064090741402480A02677FFFFFD0
1001
ACAD
1000
AcDbSavedByObjectVersion
1070
     0
  0
ACAD_PROXY_OBJECT
  5
39
102
{ACAD_REACTORS
330
2A
102
}
330
2A
100
AcDbProxyObject
 90
      499
 91
      501
 93
      444
310
42D19858D95C185D1D195C9B90F409028333333333333E3BF0000000000000FB010790141107004050150841D405064090741402480A0350
1001
ACAD
1000
AcDbSavedByObjectVersion
1070
     0
  0
ACAD_PROXY_OBJECT
  5
2B
102
{ACAD_REACTORS
330
2A
102
}
330
2A
100
AcDbProxyObject
 90
      499
 91
      501
 93
      388
310
41119B185D240901404333333333333E3BF0000000000000F9010740A41107004050150841D405064090741402480A1B50
1001
ACAD
1000
AcDbSavedByObjectVersion
1070
     0
  0
ACAD_PROXY_OBJECT
  5
2C
102
{ACAD_REACTORS
330
2A
102
}
330
2A
100
AcDbProxyObject
 90
      499
 91
      501
 93
      476
310
43519B185D15DA5D1A115919D95CD0140901404333333333333E3BF0000000000000F9010740901411070040501600405405064090741402480A1B50
1001
ACAD
1000
AcDbSavedByObjectVersion
1070
     0
  0
ACAD_PROXY_OBJECT
  5
2D
102
{ACAD_REACTORS
330
2A
102
}
330
2A
100
AcDbProxyObject
 90
      499
 91
      501
 93
      412
310
41D1DBDD5C985D5910240902404333333333333E3BF0000000000000F9010740A411070040501641D405064090741402480A1B50
1001
ACAD
1000
AcDbSavedByObjectVersion
1070
     0
  0
ACAD_PROXY_OBJECT
  5
2E
102
{ACAD_REACTORS
330
2A
102
}
330
2A
100
AcDbProxyObject
 90
      499
 91
      501
 93
      500
310
4411DBDD5C985D5915DA5D1A115919D95CD0340902404333333333333E3BF0000000000000F9010740901411070040501600405405064090741402480A1B50
1001
ACAD
1000
AcDbSavedByObjectVersion
1070
     0
  0
ACAD_PROXY_OBJECT
  5
38
102
{ACAD_REACTORS
330
2A
102
}
330
2A
100
AcDbProxyObject
 90
      499
 91
      501
 93
      444
310
42D31A5B995C185D1D195C9B90E409028333333333333E3BF0000000000000FB010790141107004050750841D405064090741402483A0350
1001
ACAD
1000
AcDbSavedByObjectVersion
1070
     0
  0
ACAD_PROXY_OBJECT
  5
33
102
{ACAD_REACTORS
330
2A
102
}
330
2A
100
AcDbProxyObject
 90
      499
 91
      501
 93
      420
310
425499585B1A5CDD1A58D08409028333333333333E3BF0000000000000FB01079019070040501508421405064090741402480A1B40
1001
ACAD
1000
AcDbSavedByObjectVersion
1070
     0
  0
ACAD_PROXY_OBJECT
  5
37
102
{ACAD_REACTORS
330
2A
102
}
330
2A
100
AcDbProxyObject
 90
      499
 91
      501
 93
      412
310
41D51A1A58DAD95B90D409028333333333333E3BF0000000000000FB010790141107004050150C41D405064090741402480A0350
1001
ACAD
1000
AcDbSavedByObjectVersion
1070
     0
  0
XRECORD
  5
35F
102
{ACAD_REACTORS
330
356
102
}
330
356
100
AcDbXrecord
 90
        0
  0
XRECORD
  5
375
102
{ACAD_REACTORS
330
356
102
}
330
356
100
AcDbXrecord
1000
DSTYLE
1002
{
1070
   340
340
11
1002
}
  0
XRECORD
  5
360
102
{ACAD_REACTORS
330
356
102
}
330
356
100
AcDbXrecord
  1
{4B69AD5B-72DC-40CD-848C-26CF4374E05D}
  0
XRECORD
  5
359
102
{ACAD_REACTORS
330
356
102
}
330
356
100
AcDbXrecord
  1

  0
XRECORD
  5
35E
102
{ACAD_REACTORS
330
356
102
}
330
356
100
AcDbXrecord
 90
        1
  0
XRECORD
  5
35B
102
{ACAD_REACTORS
330
356
102
}
330
356
100
AcDbXrecord
340
1A
  0
XRECORD
  5
35D
102
{ACAD_REACTORS
330
356
102
}
330
356
100
AcDbXrecord
 90
    10269
  0
XRECORD
  5
35C
102
{ACAD_REACTORS
330
356
102
}
330
356
100
AcDbXrecord
340
19
  0
XRECORD
  5
362
102
{ACAD_REACTORS
330
356
102
}
330
356
100
AcDbXrecord
 40
0.0
  0
XRECORD
  5
365
102
{ACAD_REACTORS
330
356
102
}
330
356
100
AcDbXrecord
340
0
  0
XRECORD
  5
36B
102
{ACAD_REACTORS
330
356
102
}
330
356
100
AcDbXrecord
 10
0.0
 20
0.0
 30
0.0
  0
XRECORD
  5
367
102
{ACAD_REACTORS
330
356
102
}
330
356
100
AcDbXrecord
 10
0.0
 20
0.0
 30
0.0
  0
XRECORD
  5
36A
102
{ACAD_REACTORS
330
356
102
}
330
356
100
AcDbXrecord
 10
0.0
 20
0.0
 30
0.0
  0
XRECORD
  5
368
102
{ACAD_REACTORS
330
356
102
}
330
356
100
AcDbXrecord
 10
0.0
 20
0.0
 30
0.0
  0
XRECORD
  5
369
102
{ACAD_REACTORS
330
356
102
}
330
356
100
AcDbXrecord
 10
0.0
 20
0.0
 30
0.0
  0
XRECORD
  5
366
102
{ACAD_REACTORS
330
356
102
}
330
356
100
AcDbXrecord
 10
0.0
 20
0.0
 30
0.0
  0
XRECORD
  5
363
102
{ACAD_REACTORS
330
356
102
}
330
356
100
AcDbXrecord
340
0
  0
XRECORD
  5
364
102
{ACAD_REACTORS
330
356
102
}
330
356
100
AcDbXrecord
 70
     0
  0
XRECORD
  5
35A
102
{ACAD_REACTORS
330
356
102
}
330
356
100
AcDbXrecord
  1

  0
XRECORD
  5
357
102
{ACAD_REACTORS
330
356
102
}
330
356
100
AcDbXrecord
 90
        1
  0
XRECORD
  5
358
102
{ACAD_REACTORS
330
356
102
}
330
356
100
AcDbXrecord
 90
       70
  0
XRECORD
  5
36E
102
{ACAD_REACTORS
330
356
102
}
330
356
100
AcDbXrecord
340
0
  0
XRECORD
  5
374
102
{ACAD_REACTORS
330
356
102
}
330
356
100
AcDbXrecord
 10
0.0
 20
0.0
 30
0.0
  0
XRECORD
  5
370
102
{ACAD_REACTORS
330
356
102
}
330
356
100
AcDbXrecord
 10
0.0
 20
0.0
 30
0.0
  0
XRECORD
  5
373
102
{ACAD_REACTORS
330
356
102
}
330
356
100
AcDbXrecord
 10
0.0
 20
0.0
 30
0.0
  0
XRECORD
  5
371
102
{ACAD_REACTORS
330
356
102
}
330
356
100
AcDbXrecord
 10
0.0
 20
0.0
 30
0.0
  0
XRECORD
  5
372
102
{ACAD_REACTORS
330
356
102
}
330
356
100
AcDbXrecord
 10
0.0
 20
0.0
 30
0.0
  0
XRECORD
  5
36F
102
{ACAD_REACTORS
330
356
102
}
330
356
100
AcDbXrecord
 10
0.0
 20
0.0
 30
0.0
  0
XRECORD
  5
36C
102
{ACAD_REACTORS
330
356
102
}
330
356
100
AcDbXrecord
340
0
  0
XRECORD
  5
36D
102
{ACAD_REACTORS
330
356
102
}
330
356
100
AcDbXrecord
 70
     0
  0
XRECORD
  5
361
102
{ACAD_REACTORS
330
356
102
}
330
356
100
AcDbXrecord
  1
{FAEB1C32-E019-11D5-929B-00C0DF256EC4}
  0
DICTIONARYVAR
  5
379
102
{ACAD_REACTORS
330
376
102
}
330
376
100
DictionaryVariables
280
     0
  1
2
  0
DICTIONARYVAR
  5
37A
102
{ACAD_REACTORS
330
376
102
}
330
376
100
DictionaryVariables
280
     0
  1
1
  0
DICTIONARY
  5
37D
330
3D
100
AcDbDictionary
280
     1
  3
ACAD_XREC_ROUNDTRIP
360
37E
  0
DICTIONARY
  5
37B
330
3C
100
AcDbDictionary
280
     1
  3
ACAD_XREC_ROUNDTRIP
360
37C
  0
DICTIONARY
  5
37F
330
3E
100
AcDbDictionary
280
     1
  3
ACAD_XREC_ROUNDTRIP
360
380
  0
XRECORD
  5
37E
102
{ACAD_REACTORS
330
37D
102
}
330
37D
100
AcDbXrecord
102
MATERIAL
148
0.0
149
0.0
149
0.0
 93
        0
 94
      127
282
     0
 72
     1
 77
     1
171
     1
175
     1
179
     1
273
     0
  0
XRECORD
  5
37C
102
{ACAD_REACTORS
330
37B
102
}
330
37B
100
AcDbXrecord
102
MATERIAL
148
0.0
149
0.0
149
0.0
 93
        0
 94
      127
282
     0
 72
     1
 77
     1
171
     1
175
     1
179
     1
273
     0
  0
XRECORD
  5
380
102
{ACAD_REACTORS
330
37F
102
}
330
37F
100
AcDbXrecord
102
MATERIAL
148
0.0
149
0.0
149
0.0
 93
        0
 94
      127
282
     0
 72
     1
 77
     1
171
     1
175
     1
179
     1
273
     0
  0
ENDSEC
  0
EOF
