  0
SECTION
  2
HEADER
  9
$ACADVER
  1
AC1014
  9
$ACADMAINTVER
 70
     9
  9
$DWGCODEPAGE
  3
ANSI_1252
  9
$INSBASE
 10
0.0
 20
0.0
 30
0.0
  9
$EXTMIN
 10
1.000000000000000E+20
 20
1.000000000000000E+20
 30
1.000000000000000E+20
  9
$EXTMAX
 10
-1.000000000000000E+20
 20
-1.000000000000000E+20
 30
-1.000000000000000E+20
  9
$LIMMIN
 10
0.0
 20
0.0
  9
$LIMMAX
 10
12.0
 20
9.0
  9
$ORTHOMODE
 70
     0
  9
$REGENMODE
 70
     1
  9
$FILLMODE
 70
     1
  9
$QTEXTMODE
 70
     0
  9
$MIRRTEXT
 70
     1
  9
$DRAGMODE
 70
     2
  9
$LTSCALE
 40
1.0
  9
$OSMODE
 70
    37
  9
$ATTMODE
 70
     1
  9
$TEXTSIZE
 40
0.2
  9
$TRACEWID
 40
0.05
  9
$TEXTSTYLE
  7
STANDARD
  9
$CLAYER
  8
0
  9
$CELTYPE
  6
BYLAYER
  9
$CECOLOR
 62
   256
  9
$CELTSCALE
 40
1.0
  9
$DELOBJ
 70
     1
  9
$DISPSILH
 70
     0
  9
$DIMSCALE
 40
1.0
  9
$DIMASZ
 40
0.18
  9
$DIMEXO
 40
0.0625
  9
$DIMDLI
 40
0.38
  9
$DIMRND
 40
0.0
  9
$DIMDLE
 40
0.0
  9
$DIMEXE
 40
0.18
  9
$DIMTP
 40
0.0
  9
$DIMTM
 40
0.0
  9
$DIMTXT
 40
0.18
  9
$DIMCEN
 40
0.09
  9
$DIMTSZ
 40
0.0
  9
$DIMTOL
 70
     0
  9
$DIMLIM
 70
     0
  9
$DIMTIH
 70
     1
  9
$DIMTOH
 70
     1
  9
$DIMSE1
 70
     0
  9
$DIMSE2
 70
     0
  9
$DIMTAD
 70
     0
  9
$DIMZIN
 70
     0
  9
$DIMBLK
  1

  9
$DIMASO
 70
     1
  9
$DIMSHO
 70
     1
  9
$DIMPOST
  1

  9
$DIMAPOST
  1

  9
$DIMALT
 70
     0
  9
$DIMALTD
 70
     2
  9
$DIMALTF
 40
25.4
  9
$DIMLFAC
 40
1.0
  9
$DIMTOFL
 70
     0
  9
$DIMTVP
 40
0.0
  9
$DIMTIX
 70
     0
  9
$DIMSOXD
 70
     0
  9
$DIMSAH
 70
     0
  9
$DIMBLK1
  1

  9
$DIMBLK2
  1

  9
$DIMSTYLE
  2
STANDARD
  9
$DIMCLRD
 70
     0
  9
$DIMCLRE
 70
     0
  9
$DIMCLRT
 70
     0
  9
$DIMTFAC
 40
1.0
  9
$DIMGAP
 40
0.09
  9
$DIMJUST
 70
     0
  9
$DIMSD1
 70
     0
  9
$DIMSD2
 70
     0
  9
$DIMTOLJ
 70
     1
  9
$DIMTZIN
 70
     0
  9
$DIMALTZ
 70
     0
  9
$DIMALTTZ
 70
     0
  9
$DIMFIT
 70
     3
  9
$DIMUPT
 70
     0
  9
$DIMUNIT
 70
     2
  9
$DIMDEC
 70
     4
  9
$DIMTDEC
 70
     4
  9
$DIMALTU
 70
     2
  9
$DIMALTTD
 70
     2
  9
$DIMTXSTY
  7
STANDARD
  9
$DIMAUNIT
 70
     0
  9
$LUNITS
 70
     2
  9
$LUPREC
 70
     4
  9
$SKETCHINC
 40
0.1
  9
$FILLETRAD
 40
0.5
  9
$AUNITS
 70
     0
  9
$AUPREC
 70
     0
  9
$MENU
  1
.
  9
$ELEVATION
 40
0.0
  9
$PELEVATION
 40
0.0
  9
$THICKNESS
 40
0.0
  9
$LIMCHECK
 70
     0
  9
$CHAMFERA
 40
0.5
  9
$CHAMFERB
 40
0.5
  9
$CHAMFERC
 40
1.0
  9
$CHAMFERD
 40
0.0
  9
$SKPOLY
 70
     0
  9
$TDCREATE
 40
2459971.554797199
  9
$TDUPDATE
 40
2459971.554797349
  9
$TDINDWG
 40
0.0000000116
  9
$TDUSRTIMER
 40
0.0000000116
  9
$USRTIMER
 70
     1
  9
$ANGBASE
 50
0.0
  9
$ANGDIR
 70
     0
  9
$PDMODE
 70
     0
  9
$PDSIZE
 40
0.0
  9
$PLINEWID
 40
0.0
  9
$COORDS
 70
     1
  9
$SPLFRAME
 70
     0
  9
$SPLINETYPE
 70
     6
  9
$SPLINESEGS
 70
     8
  9
$ATTDIA
 70
     0
  9
$ATTREQ
 70
     1
  9
$HANDLING
 70
     1
  9
$HANDSEED
  5
2B4
  9
$SURFTAB1
 70
     6
  9
$SURFTAB2
 70
     6
  9
$SURFTYPE
 70
     6
  9
$SURFU
 70
     6
  9
$SURFV
 70
     6
  9
$UCSNAME
  2

  9
$UCSORG
 10
0.0
 20
0.0
 30
0.0
  9
$UCSXDIR
 10
1.0
 20
0.0
 30
0.0
  9
$UCSYDIR
 10
0.0
 20
1.0
 30
0.0
  9
$PUCSNAME
  2

  9
$PUCSORG
 10
0.0
 20
0.0
 30
0.0
  9
$PUCSXDIR
 10
1.0
 20
0.0
 30
0.0
  9
$PUCSYDIR
 10
0.0
 20
1.0
 30
0.0
  9
$USERI1
 70
     0
  9
$USERI2
 70
     0
  9
$USERI3
 70
     0
  9
$USERI4
 70
     0
  9
$USERI5
 70
     0
  9
$USERR1
 40
0.0
  9
$USERR2
 40
0.0
  9
$USERR3
 40
0.0
  9
$USERR4
 40
0.0
  9
$USERR5
 40
0.0
  9
$WORLDVIEW
 70
     1
  9
$SHADEDGE
 70
     3
  9
$SHADEDIF
 70
    70
  9
$TILEMODE
 70
     1
  9
$MAXACTVP
 70
    64
  9
$PINSBASE
 10
0.0
 20
0.0
 30
0.0
  9
$PLIMCHECK
 70
     0
  9
$PEXTMIN
 10
1.000000000000000E+20
 20
1.000000000000000E+20
 30
1.000000000000000E+20
  9
$PEXTMAX
 10
-1.000000000000000E+20
 20
-1.000000000000000E+20
 30
-1.000000000000000E+20
  9
$PLIMMIN
 10
0.0
 20
0.0
  9
$PLIMMAX
 10
12.0
 20
9.0
  9
$UNITMODE
 70
     0
  9
$VISRETAIN
 70
     1
  9
$PLINEGEN
 70
     0
  9
$PSLTSCALE
 70
     1
  9
$TREEDEPTH
 70
  3020
  9
$PICKSTYLE
 70
     1
  9
$CMLSTYLE
  2
STANDARD
  9
$CMLJUST
 70
     0
  9
$CMLSCALE
 40
1.0
  9
$PROXYGRAPHICS
 70
     1
  9
$MEASUREMENT
 70
     0
  0
ENDSEC
  0
SECTION
  2
CLASSES
  0
CLASS
  1
ACDBDICTIONARYWDFLT
  2
AcDbDictionaryWithDefault
  3
ObjectDBX Classes
 90
        0
280
     0
281
     0
  0
CLASS
  1
VISUALSTYLE
  2
AcDbVisualStyle
  3
ObjectDBX Classes
 90
     4095
280
     0
281
     0
  0
CLASS
  1
MATERIAL
  2
AcDbMaterial
  3
ObjectDBX Classes
 90
     1153
280
     0
281
     0
  0
CLASS
  1
SUN
  2
AcDbSun
  3
SCENEOE
 90
     1024
280
     0
281
     0
  0
CLASS
  1
DICTIONARYVAR
  2
AcDbDictionaryVar
  3
ObjectDBX Classes
 90
        0
280
     0
281
     0
  0
CLASS
  1
XRECORD
  2
AcDbXrecord
  3
AutoCAD 2000
 90
        0
280
     0
281
     0
  0
CLASS
  1
LWPOLYLINE
  2
AcDbPolyline
  3
AutoCAD 2000
 90
        0
280
     0
281
     1
  0
CLASS
  1
HATCH
  2
AcDbHatch
  3
AutoCAD 2000
 90
        0
280
     0
281
     1
  0
CLASS
  1
ACDBPLACEHOLDER
  2
AcDbPlaceHolder
  3
ObjectDBX Classes
 90
        0
280
     0
281
     0
  0
CLASS
  1
LAYOUT
  2
AcDbLayout
  3
ObjectDBX Classes
 90
        0
280
     0
281
     0
  0
ENDSEC
  0
SECTION
  2
TABLES
  0
TABLE
  2
VPORT
  5
8
330
0
100
AcDbSymbolTable
 70
     1
  0
VPORT
  5
29
330
8
100
AcDbSymbolTableRecord
100
AcDbViewportTableRecord
  2
*ACTIVE
 70
     0
 10
0.0
 20
0.0
 11
1.0
 21
1.0
 12
0.0
 22
0.0
 13
0.0
 23
0.0
 14
0.5
 24
0.5
 15
0.5
 25
0.5
 16
0.0
 26
0.0
 36
1.0
 17
74.99999786197358
 27
39.74999886684608
 37
0.0
 40
39.99999998999989
 41
1.000000000000008
 42
50.0
 43
0.0
 44
0.0
 50
0.0
 51
0.0
 71
     0
 72
   100
 73
     1
 74
     3
 75
     0
 76
     0
 77
     0
 78
     0
  0
ENDTAB
  0
TABLE
  2
LTYPE
  5
5
330
0
100
AcDbSymbolTable
 70
     1
  0
LTYPE
  5
14
330
5
100
AcDbSymbolTableRecord
100
AcDbLinetypeTableRecord
  2
BYBLOCK
 70
     0
  3

 72
    65
 73
     0
 40
0.0
  0
LTYPE
  5
15
330
5
100
AcDbSymbolTableRecord
100
AcDbLinetypeTableRecord
  2
BYLAYER
 70
     0
  3

 72
    65
 73
     0
 40
0.0
  0
LTYPE
  5
16
330
5
100
AcDbSymbolTableRecord
100
AcDbLinetypeTableRecord
  2
CONTINUOUS
 70
     0
  3
Solid line
 72
    65
 73
     0
 40
0.0
  0
ENDTAB
  0
TABLE
  2
LAYER
  5
2
330
0
100
AcDbSymbolTable
 70
     6
  0
LAYER
  5
10
330
2
100
AcDbSymbolTableRecord
100
AcDbLayerTableRecord
  2
0
 70
     0
 62
     7
  6
CONTINUOUS
  0
LAYER
  5
40
330
2
100
AcDbSymbolTableRecord
100
AcDbLayerTableRecord
  2
REFERENCIAS
 70
     0
 62
     7
  6
CONTINUOUS
  0
LAYER
  5
42
330
2
100
AcDbSymbolTableRecord
100
AcDbLayerTableRecord
  2
M_U_00C1RGENES
 70
     4
 62
     7
  6
CONTINUOUS
  0
LAYER
  5
51
330
2
100
AcDbSymbolTableRecord
100
AcDbLayerTableRecord
  2
DIBUJOS
 70
     4
 62
     7
  6
CONTINUOUS
  0
LAYER
  5
269
330
2
100
AcDbSymbolTableRecord
100
AcDbLayerTableRecord
  2
COTAS_LINEA
 70
     4
 62
     7
  6
CONTINUOUS
  0
LAYER
  5
282
330
2
100
AcDbSymbolTableRecord
100
AcDbLayerTableRecord
  2
COTAS_N_U_00DAMERO
 70
     4
 62
     7
  6
CONTINUOUS
  0
ENDTAB
  0
TABLE
  2
STYLE
  5
3
330
0
100
AcDbSymbolTable
 70
     1
  0
STYLE
  5
11
330
3
100
AcDbSymbolTableRecord
100
AcDbTextStyleTableRecord
  2
STANDARD
 70
     0
 40
0.0
 41
1.0
 50
0.0
 71
     0
 42
0.2
  3
txt
  4

  0
ENDTAB
  0
TABLE
  2
VIEW
  5
6
330
0
100
AcDbSymbolTable
 70
     0
  0
ENDTAB
  0
TABLE
  2
UCS
  5
7
330
0
100
AcDbSymbolTable
 70
     0
  0
ENDTAB
  0
TABLE
  2
APPID
  5
9
330
0
100
AcDbSymbolTable
 70
     1
  0
APPID
  5
12
330
9
100
AcDbSymbolTableRecord
100
AcDbRegAppTableRecord
  2
ACAD
 70
     0
  0
ENDTAB
  0
TABLE
  2
DIMSTYLE
  5
A
330
0
100
AcDbSymbolTable
 70
     1
  0
DIMSTYLE
105
27
330
A
100
AcDbSymbolTableRecord
100
AcDbDimStyleTableRecord
  2
STANDARD
 70
     0
  3

  4

  5

  6

  7

 40
1.0
 41
0.18
 42
0.0625
 43
0.38
 44
0.18
 45
0.0
 46
0.0
 47
0.0
 48
0.0
140
0.18
141
0.09
142
0.0
143
25.4
144
1.0
145
0.0
146
1.0
147
0.09
 71
     0
 72
     0
 73
     1
 74
     1
 75
     0
 76
     0
 77
     0
 78
     0
170
     0
171
     2
172
     0
173
     0
174
     0
175
     0
176
     0
177
     0
178
     0
270
     2
271
     4
272
     4
273
     2
274
     2
340
11
275
     0
280
     0
281
     0
282
     0
283
     1
284
     0
285
     0
286
     0
287
     3
288
     0
  0
ENDTAB
  0
TABLE
  2
BLOCK_RECORD
  5
1
330
0
100
AcDbSymbolTable
 70
     5
  0
BLOCK_RECORD
  5
1F
330
1
100
AcDbSymbolTableRecord
100
AcDbBlockTableRecord
  2
*MODEL_SPACE
  0
BLOCK_RECORD
  5
1B
330
1
100
AcDbSymbolTableRecord
100
AcDbBlockTableRecord
  2
*PAPER_SPACE
  0
BLOCK_RECORD
  5
52
330
1
100
AcDbSymbolTableRecord
100
AcDbBlockTableRecord
  2
BLOCK_2
  0
BLOCK_RECORD
  5
F2
330
1
100
AcDbSymbolTableRecord
100
AcDbBlockTableRecord
  2
BLOCK_3
  0
BLOCK_RECORD
  5
1BE
330
1
100
AcDbSymbolTableRecord
100
AcDbBlockTableRecord
  2
BLOCK_4
  0
BLOCK_RECORD
  5
210
330
1
100
AcDbSymbolTableRecord
100
AcDbBlockTableRecord
  2
BLOCK_5
  0
ENDTAB
  0
ENDSEC
  0
SECTION
  2
BLOCKS
  0
BLOCK
  5
20
330
1F
100
AcDbEntity
  8
0
100
AcDbBlockBegin
  2
*MODEL_SPACE
 70
     0
 10
0.0
 20
0.0
 30
0.0
  3
*MODEL_SPACE
  1

  0
ENDBLK
  5
21
330
1F
100
AcDbEntity
  8
0
100
AcDbBlockEnd
  0
BLOCK
  5
1C
330
1B
100
AcDbEntity
 67
     1
  8
0
100
AcDbBlockBegin
  2
*PAPER_SPACE
 70
     0
 10
0.0
 20
0.0
 30
0.0
  3
*PAPER_SPACE
  1

  0
ENDBLK
  5
1D
330
1B
100
AcDbEntity
 67
     1
  8
0
100
AcDbBlockEnd
  0
BLOCK
  5
54
330
52
100
AcDbEntity
  8
0
100
AcDbBlockBegin
  2
BLOCK_2
 70
     0
 10
0.0
 20
0.0
 30
0.0
  3
BLOCK_2
  1

  0
POLYLINE
  5
56
330
52
100
AcDbEntity
  8
DIBUJOS
 62
     7
100
AcDb2dPolyline
 66
     1
 10
0.0
 20
0.0
 30
0.0
  0
VERTEX
  5
57
330
56
100
AcDbEntity
  8
DIBUJOS
 62
     7
100
AcDbVertex
100
AcDb2dVertex
 10
83.00555333589108
 20
46.54807935067733
 30
0.0
  0
VERTEX
  5
58
330
56
100
AcDbEntity
  8
DIBUJOS
 62
     7
100
AcDbVertex
100
AcDb2dVertex
 10
83.00555333589108
 20
46.79869303458549
 30
0.0
  0
VERTEX
  5
59
330
56
100
AcDbEntity
  8
DIBUJOS
 62
     7
100
AcDbVertex
100
AcDb2dVertex
 10
82.99441471677132
 20
46.80983315264491
 30
0.0
  0
VERTEX
  5
5A
330
56
100
AcDbEntity
  8
DIBUJOS
 62
     7
100
AcDbVertex
100
AcDb2dVertex
 10
77.0743555718541
 20
46.80983315264491
 30
0.0
  0
VERTEX
  5
5B
330
56
100
AcDbEntity
  8
DIBUJOS
 62
     7
100
AcDbVertex
100
AcDb2dVertex
 10
77.0632169527337
 20
46.79869303458549
 30
0.0
  0
VERTEX
  5
5C
330
56
100
AcDbEntity
  8
DIBUJOS
 62
     7
100
AcDbVertex
100
AcDb2dVertex
 10
77.0632169527337
 20
46.54807935067733
 30
0.0
  0
SEQEND
  5
5D
330
56
100
AcDbEntity
  8
DIBUJOS
 62
     7
  0
POLYLINE
  5
5E
330
52
100
AcDbEntity
  8
DIBUJOS
 62
     7
100
AcDb2dPolyline
 66
     1
 10
0.0
 20
0.0
 30
0.0
  0
VERTEX
  5
5F
330
5E
100
AcDbEntity
  8
DIBUJOS
 62
     7
100
AcDbVertex
100
AcDb2dVertex
 10
77.06878626229421
 20
46.54250929164762
 30
0.0
  0
VERTEX
  5
60
330
5E
100
AcDbEntity
  8
DIBUJOS
 62
     7
100
AcDbVertex
100
AcDb2dVertex
 10
77.0632169527337
 20
46.54807935067733
 30
0.0
  0
SEQEND
  5
61
330
5E
100
AcDbEntity
  8
DIBUJOS
 62
     7
  0
POLYLINE
  5
62
330
52
100
AcDbEntity
  8
DIBUJOS
 62
     7
100
AcDb2dPolyline
 66
     1
 10
0.0
 20
0.0
 30
0.0
  0
VERTEX
  5
63
330
62
100
AcDbEntity
  8
DIBUJOS
 62
     7
100
AcDbVertex
100
AcDb2dVertex
 10
82.99998327686137
 20
46.54250929164762
 30
0.0
  0
VERTEX
  5
64
330
62
100
AcDbEntity
  8
DIBUJOS
 62
     7
100
AcDbVertex
100
AcDb2dVertex
 10
83.00555333589108
 20
46.54807935067733
 30
0.0
  0
SEQEND
  5
65
330
62
100
AcDbEntity
  8
DIBUJOS
 62
     7
  0
POLYLINE
  5
66
330
52
100
AcDbEntity
  8
DIBUJOS
 62
     7
100
AcDb2dPolyline
 66
     1
 10
0.0
 20
0.0
 30
0.0
  0
VERTEX
  5
67
330
66
100
AcDbEntity
  8
DIBUJOS
 62
     7
100
AcDbVertex
100
AcDb2dVertex
 10
77.93758206530738
 20
46.53694223049689
 30
0.0
  0
VERTEX
  5
68
330
66
100
AcDbEntity
  8
DIBUJOS
 62
     7
100
AcDbVertex
100
AcDb2dVertex
 10
77.06878626229421
 20
46.54250929164762
 30
0.0
  0
SEQEND
  5
69
330
66
100
AcDbEntity
  8
DIBUJOS
 62
     7
  0
POLYLINE
  5
6A
330
52
100
AcDbEntity
  8
DIBUJOS
 62
     7
100
AcDb2dPolyline
 66
     1
 10
0.0
 20
0.0
 30
0.0
  0
VERTEX
  5
6B
330
6A
100
AcDbEntity
  8
DIBUJOS
 62
     7
100
AcDbVertex
100
AcDb2dVertex
 10
77.94315062539744
 20
46.53694223049689
 30
0.0
  0
VERTEX
  5
6C
330
6A
100
AcDbEntity
  8
DIBUJOS
 62
     7
100
AcDbVertex
100
AcDb2dVertex
 10
77.93758206530738
 20
46.53694223049689
 30
0.0
  0
SEQEND
  5
6D
330
6A
100
AcDbEntity
  8
DIBUJOS
 62
     7
  0
POLYLINE
  5
6E
330
52
100
AcDbEntity
  8
DIBUJOS
 62
     7
100
AcDb2dPolyline
 66
     1
 10
0.0
 20
0.0
 30
0.0
  0
VERTEX
  5
6F
330
6E
100
AcDbEntity
  8
DIBUJOS
 62
     7
100
AcDbVertex
100
AcDb2dVertex
 10
77.94871918548749
 20
46.53694223049689
 30
0.0
  0
VERTEX
  5
70
330
6E
100
AcDbEntity
  8
DIBUJOS
 62
     7
100
AcDbVertex
100
AcDb2dVertex
 10
77.94315062539744
 20
46.53694223049689
 30
0.0
  0
SEQEND
  5
71
330
6E
100
AcDbEntity
  8
DIBUJOS
 62
     7
  0
POLYLINE
  5
72
330
52
100
AcDbEntity
  8
DIBUJOS
 62
     7
100
AcDb2dPolyline
 66
     1
 10
0.0
 20
0.0
 30
0.0
  0
VERTEX
  5
73
330
72
100
AcDbEntity
  8
DIBUJOS
 62
     7
100
AcDbVertex
100
AcDb2dVertex
 10
78.27173314420527
 20
46.53694223049689
 30
0.0
  0
VERTEX
  5
74
330
72
100
AcDbEntity
  8
DIBUJOS
 62
     7
100
AcDbVertex
100
AcDb2dVertex
 10
77.94871918548749
 20
46.53694223049689
 30
0.0
  0
SEQEND
  5
75
330
72
100
AcDbEntity
  8
DIBUJOS
 62
     7
  0
POLYLINE
  5
76
330
52
100
AcDbEntity
  8
DIBUJOS
 62
     7
100
AcDb2dPolyline
 66
     1
 10
0.0
 20
0.0
 30
0.0
  0
VERTEX
  5
77
330
76
100
AcDbEntity
  8
DIBUJOS
 62
     7
100
AcDbVertex
100
AcDb2dVertex
 10
78.27730170429533
 20
46.53694223049689
 30
0.0
  0
VERTEX
  5
78
330
76
100
AcDbEntity
  8
DIBUJOS
 62
     7
100
AcDbVertex
100
AcDb2dVertex
 10
78.27173314420527
 20
46.53694223049689
 30
0.0
  0
SEQEND
  5
79
330
76
100
AcDbEntity
  8
DIBUJOS
 62
     7
  0
POLYLINE
  5
7A
330
52
100
AcDbEntity
  8
DIBUJOS
 62
     7
100
AcDb2dPolyline
 66
     1
 10
0.0
 20
0.0
 30
0.0
  0
VERTEX
  5
7B
330
7A
100
AcDbEntity
  8
DIBUJOS
 62
     7
100
AcDbVertex
100
AcDb2dVertex
 10
78.28287176332503
 20
46.53694223049689
 30
0.0
  0
VERTEX
  5
7C
330
7A
100
AcDbEntity
  8
DIBUJOS
 62
     7
100
AcDbVertex
100
AcDb2dVertex
 10
78.27730170429533
 20
46.53694223049689
 30
0.0
  0
SEQEND
  5
7D
330
7A
100
AcDbEntity
  8
DIBUJOS
 62
     7
  0
POLYLINE
  5
7E
330
52
100
AcDbEntity
  8
DIBUJOS
 62
     7
100
AcDb2dPolyline
 66
     1
 10
0.0
 20
0.0
 30
0.0
  0
VERTEX
  5
7F
330
7E
100
AcDbEntity
  8
DIBUJOS
 62
     7
100
AcDbVertex
100
AcDb2dVertex
 10
81.69122176172075
 20
46.53694223049689
 30
0.0
  0
VERTEX
  5
80
330
7E
100
AcDbEntity
  8
DIBUJOS
 62
     7
100
AcDbVertex
100
AcDb2dVertex
 10
81.68620930816994
 20
46.5380544435757
 30
0.0
  0
VERTEX
  5
81
330
7E
100
AcDbEntity
  8
DIBUJOS
 62
     7
100
AcDbVertex
100
AcDb2dVertex
 10
81.68008314260034
 20
46.54250929164762
 30
0.0
  0
VERTEX
  5
82
330
7E
100
AcDbEntity
  8
DIBUJOS
 62
     7
100
AcDbVertex
100
AcDb2dVertex
 10
78.28844032341509
 20
46.54250929164762
 30
0.0
  0
VERTEX
  5
83
330
7E
100
AcDbEntity
  8
DIBUJOS
 62
     7
100
AcDbVertex
100
AcDb2dVertex
 10
78.28287176332503
 20
46.53694223049689
 30
0.0
  0
SEQEND
  5
84
330
7E
100
AcDbEntity
  8
DIBUJOS
 62
     7
  0
POLYLINE
  5
85
330
52
100
AcDbEntity
  8
DIBUJOS
 62
     7
100
AcDb2dPolyline
 66
     1
 10
0.0
 20
0.0
 30
0.0
  0
VERTEX
  5
86
330
85
100
AcDbEntity
  8
DIBUJOS
 62
     7
100
AcDbVertex
100
AcDb2dVertex
 10
81.69679182074982
 20
46.53694223049689
 30
0.0
  0
VERTEX
  5
87
330
85
100
AcDbEntity
  8
DIBUJOS
 62
     7
100
AcDbVertex
100
AcDb2dVertex
 10
81.69122176172075
 20
46.53694223049689
 30
0.0
  0
SEQEND
  5
88
330
85
100
AcDbEntity
  8
DIBUJOS
 62
     7
  0
POLYLINE
  5
89
330
52
100
AcDbEntity
  8
DIBUJOS
 62
     7
100
AcDb2dPolyline
 66
     1
 10
0.0
 20
0.0
 30
0.0
  0
VERTEX
  5
8A
330
89
100
AcDbEntity
  8
DIBUJOS
 62
     7
100
AcDbVertex
100
AcDb2dVertex
 10
81.70236038084052
 20
46.53694223049689
 30
0.0
  0
VERTEX
  5
8B
330
89
100
AcDbEntity
  8
DIBUJOS
 62
     7
100
AcDbVertex
100
AcDb2dVertex
 10
81.69679182074982
 20
46.53694223049689
 30
0.0
  0
SEQEND
  5
8C
330
89
100
AcDbEntity
  8
DIBUJOS
 62
     7
  0
POLYLINE
  5
8D
330
52
100
AcDbEntity
  8
DIBUJOS
 62
     7
100
AcDb2dPolyline
 66
     1
 10
0.0
 20
0.0
 30
0.0
  0
VERTEX
  5
8E
330
8D
100
AcDbEntity
  8
DIBUJOS
 62
     7
100
AcDbVertex
100
AcDb2dVertex
 10
82.19801918856679
 20
46.53694223049689
 30
0.0
  0
VERTEX
  5
8F
330
8D
100
AcDbEntity
  8
DIBUJOS
 62
     7
100
AcDbVertex
100
AcDb2dVertex
 10
82.19244912953708
 20
46.53694223049689
 30
0.0
  0
SEQEND
  5
90
330
8D
100
AcDbEntity
  8
DIBUJOS
 62
     7
  0
POLYLINE
  5
91
330
52
100
AcDbEntity
  8
DIBUJOS
 62
     7
100
AcDb2dPolyline
 66
     1
 10
0.0
 20
0.0
 30
0.0
  0
VERTEX
  5
92
330
91
100
AcDbEntity
  8
DIBUJOS
 62
     7
100
AcDbVertex
100
AcDb2dVertex
 10
82.20358774865684
 20
46.53694223049689
 30
0.0
  0
VERTEX
  5
93
330
91
100
AcDbEntity
  8
DIBUJOS
 62
     7
100
AcDbVertex
100
AcDb2dVertex
 10
82.19801918856679
 20
46.53694223049689
 30
0.0
  0
SEQEND
  5
94
330
91
100
AcDbEntity
  8
DIBUJOS
 62
     7
  0
POLYLINE
  5
95
330
52
100
AcDbEntity
  8
DIBUJOS
 62
     7
100
AcDb2dPolyline
 66
     1
 10
0.0
 20
0.0
 30
0.0
  0
VERTEX
  5
96
330
95
100
AcDbEntity
  8
DIBUJOS
 62
     7
100
AcDbVertex
100
AcDb2dVertex
 10
82.20358774865684
 20
46.53694223049689
 30
0.0
  0
VERTEX
  5
97
330
95
100
AcDbEntity
  8
DIBUJOS
 62
     7
100
AcDbVertex
100
AcDb2dVertex
 10
82.20915780768655
 20
46.54250929164762
 30
0.0
  0
VERTEX
  5
98
330
95
100
AcDbEntity
  8
DIBUJOS
 62
     7
100
AcDbVertex
100
AcDb2dVertex
 10
82.99998327686137
 20
46.54250929164762
 30
0.0
  0
SEQEND
  5
99
330
95
100
AcDbEntity
  8
DIBUJOS
 62
     7
  0
POLYLINE
  5
9A
330
52
100
AcDbEntity
  8
DIBUJOS
 62
     7
100
AcDb2dPolyline
 66
     1
 10
0.0
 20
0.0
 30
0.0
  0
VERTEX
  5
9B
330
9A
100
AcDbEntity
  8
DIBUJOS
 62
     7
100
AcDbVertex
100
AcDb2dVertex
 10
77.94315062539744
 20
46.53137217146718
 30
0.0
  0
VERTEX
  5
9C
330
9A
100
AcDbEntity
  8
DIBUJOS
 62
     7
100
AcDbVertex
100
AcDb2dVertex
 10
77.94315062539744
 20
46.53694223049689
 30
0.0
  0
SEQEND
  5
9D
330
9A
100
AcDbEntity
  8
DIBUJOS
 62
     7
  0
POLYLINE
  5
9E
330
52
100
AcDbEntity
  8
DIBUJOS
 62
     7
100
AcDb2dPolyline
 66
     1
 10
0.0
 20
0.0
 30
0.0
  0
VERTEX
  5
9F
330
9E
100
AcDbEntity
  8
DIBUJOS
 62
     7
100
AcDbVertex
100
AcDb2dVertex
 10
78.27730170429533
 20
46.53137217146718
 30
0.0
  0
VERTEX
  5
A0
330
9E
100
AcDbEntity
  8
DIBUJOS
 62
     7
100
AcDbVertex
100
AcDb2dVertex
 10
78.27730170429533
 20
46.53694223049689
 30
0.0
  0
SEQEND
  5
A1
330
9E
100
AcDbEntity
  8
DIBUJOS
 62
     7
  0
POLYLINE
  5
A2
330
52
100
AcDbEntity
  8
DIBUJOS
 62
     7
100
AcDb2dPolyline
 66
     1
 10
0.0
 20
0.0
 30
0.0
  0
VERTEX
  5
A3
330
A2
100
AcDbEntity
  8
DIBUJOS
 62
     7
100
AcDbVertex
100
AcDb2dVertex
 10
81.69679182074982
 20
46.53137217146718
 30
0.0
  0
VERTEX
  5
A4
330
A2
100
AcDbEntity
  8
DIBUJOS
 62
     7
100
AcDbVertex
100
AcDb2dVertex
 10
81.69679182074982
 20
46.53694223049689
 30
0.0
  0
SEQEND
  5
A5
330
A2
100
AcDbEntity
  8
DIBUJOS
 62
     7
  0
POLYLINE
  5
A6
330
52
100
AcDbEntity
  8
DIBUJOS
 62
     7
100
AcDb2dPolyline
 66
     1
 10
0.0
 20
0.0
 30
0.0
  0
VERTEX
  5
A7
330
A6
100
AcDbEntity
  8
DIBUJOS
 62
     7
100
AcDbVertex
100
AcDb2dVertex
 10
81.84715943151943
 20
46.53137217146718
 30
0.0
  0
VERTEX
  5
A8
330
A6
100
AcDbEntity
  8
DIBUJOS
 62
     7
100
AcDbVertex
100
AcDb2dVertex
 10
81.84159087142937
 20
46.53694223049689
 30
0.0
  0
VERTEX
  5
A9
330
A6
100
AcDbEntity
  8
DIBUJOS
 62
     7
100
AcDbVertex
100
AcDb2dVertex
 10
81.70236038084052
 20
46.53694223049689
 30
0.0
  0
SEQEND
  5
AA
330
A6
100
AcDbEntity
  8
DIBUJOS
 62
     7
  0
POLYLINE
  5
AB
330
52
100
AcDbEntity
  8
DIBUJOS
 62
     7
100
AcDb2dPolyline
 66
     1
 10
0.0
 20
0.0
 30
0.0
  0
VERTEX
  5
AC
330
AB
100
AcDbEntity
  8
DIBUJOS
 62
     7
100
AcDbVertex
100
AcDb2dVertex
 10
81.8527294905485
 20
46.53137217146718
 30
0.0
  0
VERTEX
  5
AD
330
AB
100
AcDbEntity
  8
DIBUJOS
 62
     7
100
AcDbVertex
100
AcDb2dVertex
 10
81.84715943151943
 20
46.53137217146718
 30
0.0
  0
SEQEND
  5
AE
330
AB
100
AcDbEntity
  8
DIBUJOS
 62
     7
  0
POLYLINE
  5
AF
330
52
100
AcDbEntity
  8
DIBUJOS
 62
     7
100
AcDb2dPolyline
 66
     1
 10
0.0
 20
0.0
 30
0.0
  0
VERTEX
  5
B0
330
AF
100
AcDbEntity
  8
DIBUJOS
 62
     7
100
AcDbVertex
100
AcDb2dVertex
 10
81.85829805063919
 20
46.53137217146718
 30
0.0
  0
VERTEX
  5
B1
330
AF
100
AcDbEntity
  8
DIBUJOS
 62
     7
100
AcDbVertex
100
AcDb2dVertex
 10
81.8527294905485
 20
46.53137217146718
 30
0.0
  0
SEQEND
  5
B2
330
AF
100
AcDbEntity
  8
DIBUJOS
 62
     7
  0
POLYLINE
  5
B3
330
52
100
AcDbEntity
  8
DIBUJOS
 62
     7
100
AcDb2dPolyline
 66
     1
 10
0.0
 20
0.0
 30
0.0
  0
VERTEX
  5
B4
330
B3
100
AcDbEntity
  8
DIBUJOS
 62
     7
100
AcDbVertex
100
AcDb2dVertex
 10
81.85829805063919
 20
46.53137217146718
 30
0.0
  0
VERTEX
  5
B5
330
B3
100
AcDbEntity
  8
DIBUJOS
 62
     7
100
AcDbVertex
100
AcDb2dVertex
 10
81.86386661072926
 20
46.53694223049689
 30
0.0
  0
VERTEX
  5
B6
330
B3
100
AcDbEntity
  8
DIBUJOS
 62
     7
100
AcDbVertex
100
AcDb2dVertex
 10
82.19244912953708
 20
46.53694223049689
 30
0.0
  0
SEQEND
  5
B7
330
B3
100
AcDbEntity
  8
DIBUJOS
 62
     7
  0
POLYLINE
  5
B8
330
52
100
AcDbEntity
  8
DIBUJOS
 62
     7
100
AcDb2dPolyline
 66
     1
 10
0.0
 20
0.0
 30
0.0
  0
VERTEX
  5
B9
330
B8
100
AcDbEntity
  8
DIBUJOS
 62
     7
100
AcDbVertex
100
AcDb2dVertex
 10
82.19801918856679
 20
46.53137217146718
 30
0.0
  0
VERTEX
  5
BA
330
B8
100
AcDbEntity
  8
DIBUJOS
 62
     7
100
AcDbVertex
100
AcDb2dVertex
 10
82.19801918856679
 20
46.53694223049689
 30
0.0
  0
SEQEND
  5
BB
330
B8
100
AcDbEntity
  8
DIBUJOS
 62
     7
  0
POLYLINE
  5
BC
330
52
100
AcDbEntity
  8
DIBUJOS
 62
     7
100
AcDb2dPolyline
 66
     1
 10
0.0
 20
0.0
 30
0.0
  0
VERTEX
  5
BD
330
BC
100
AcDbEntity
  8
DIBUJOS
 62
     7
100
AcDbVertex
100
AcDb2dVertex
 10
81.8527294905485
 20
46.52580211243747
 30
0.0
  0
VERTEX
  5
BE
330
BC
100
AcDbEntity
  8
DIBUJOS
 62
     7
100
AcDbVertex
100
AcDb2dVertex
 10
81.8527294905485
 20
46.53137217146718
 30
0.0
  0
SEQEND
  5
BF
330
BC
100
AcDbEntity
  8
DIBUJOS
 62
     7
  0
POLYLINE
  5
C0
330
52
100
AcDbEntity
  8
DIBUJOS
 62
     7
100
AcDb2dPolyline
 66
     1
 10
0.0
 20
0.0
 30
0.0
  0
VERTEX
  5
C1
330
C0
100
AcDbEntity
  8
DIBUJOS
 62
     7
100
AcDbVertex
100
AcDb2dVertex
 10
82.33724967915566
 20
42.69611010282798
 30
0.0
  0
VERTEX
  5
C2
330
C0
100
AcDbEntity
  8
DIBUJOS
 62
     7
100
AcDbVertex
100
AcDb2dVertex
 10
81.8527294905485
 20
46.52580211243747
 30
0.0
  0
SEQEND
  5
C3
330
C0
100
AcDbEntity
  8
DIBUJOS
 62
     7
  0
POLYLINE
  5
C4
330
52
100
AcDbEntity
  8
DIBUJOS
 62
     7
100
AcDb2dPolyline
 66
     1
 10
0.0
 20
0.0
 30
0.0
  0
VERTEX
  5
C5
330
C4
100
AcDbEntity
  8
DIBUJOS
 62
     7
100
AcDbVertex
100
AcDb2dVertex
 10
77.58115224923031
 20
42.69054304167726
 30
0.0
  0
VERTEX
  5
C6
330
C4
100
AcDbEntity
  8
DIBUJOS
 62
     7
100
AcDbVertex
100
AcDb2dVertex
 10
77.58003853721218
 20
42.69555549522807
 30
0.0
  0
VERTEX
  5
C7
330
C4
100
AcDbEntity
  8
DIBUJOS
 62
     7
100
AcDbVertex
100
AcDb2dVertex
 10
77.93004689664659
 20
46.50401652634047
 30
0.0
  0
VERTEX
  5
C8
330
C4
100
AcDbEntity
  8
DIBUJOS
 62
     7
100
AcDbVertex
100
AcDb2dVertex
 10
77.94315062539744
 20
46.53137217146718
 30
0.0
  0
SEQEND
  5
C9
330
C4
100
AcDbEntity
  8
DIBUJOS
 62
     7
  0
POLYLINE
  5
CA
330
52
100
AcDbEntity
  8
DIBUJOS
 62
     7
100
AcDb2dPolyline
 66
     1
 10
0.0
 20
0.0
 30
0.0
  0
VERTEX
  5
CB
330
CA
100
AcDbEntity
  8
DIBUJOS
 62
     7
100
AcDbVertex
100
AcDb2dVertex
 10
82.33724967915566
 20
42.69054304167726
 30
0.0
  0
VERTEX
  5
CC
330
CA
100
AcDbEntity
  8
DIBUJOS
 62
     7
100
AcDbVertex
100
AcDb2dVertex
 10
82.33167962012595
 20
42.69054304167726
 30
0.0
  0
SEQEND
  5
CD
330
CA
100
AcDbEntity
  8
DIBUJOS
 62
     7
  0
POLYLINE
  5
CE
330
52
100
AcDbEntity
  8
DIBUJOS
 62
     7
100
AcDb2dPolyline
 66
     1
 10
0.0
 20
0.0
 30
0.0
  0
VERTEX
  5
CF
330
CE
100
AcDbEntity
  8
DIBUJOS
 62
     7
100
AcDbVertex
100
AcDb2dVertex
 10
82.33724967915566
 20
42.69054304167726
 30
0.0
  0
VERTEX
  5
D0
330
CE
100
AcDbEntity
  8
DIBUJOS
 62
     7
100
AcDbVertex
100
AcDb2dVertex
 10
82.33724967915566
 20
42.69611010282798
 30
0.0
  0
SEQEND
  5
D1
330
CE
100
AcDbEntity
  8
DIBUJOS
 62
     7
  0
POLYLINE
  5
D2
330
52
100
AcDbEntity
  8
DIBUJOS
 62
     7
100
AcDb2dPolyline
 66
     1
 10
0.0
 20
0.0
 30
0.0
  0
VERTEX
  5
D3
330
D2
100
AcDbEntity
  8
DIBUJOS
 62
     7
100
AcDbVertex
100
AcDb2dVertex
 10
82.34281823924572
 20
42.69054304167726
 30
0.0
  0
VERTEX
  5
D4
330
D2
100
AcDbEntity
  8
DIBUJOS
 62
     7
100
AcDbVertex
100
AcDb2dVertex
 10
82.33724967915566
 20
42.69054304167726
 30
0.0
  0
SEQEND
  5
D5
330
D2
100
AcDbEntity
  8
DIBUJOS
 62
     7
  0
POLYLINE
  5
D6
330
52
100
AcDbEntity
  8
DIBUJOS
 62
     7
100
AcDb2dPolyline
 66
     1
 10
0.0
 20
0.0
 30
0.0
  0
VERTEX
  5
D7
330
D6
100
AcDbEntity
  8
DIBUJOS
 62
     7
100
AcDbVertex
100
AcDb2dVertex
 10
77.58672230826002
 20
42.68497298264755
 30
0.0
  0
VERTEX
  5
D8
330
D6
100
AcDbEntity
  8
DIBUJOS
 62
     7
100
AcDbVertex
100
AcDb2dVertex
 10
77.58115224923031
 20
42.69054304167726
 30
0.0
  0
SEQEND
  5
D9
330
D6
100
AcDbEntity
  8
DIBUJOS
 62
     7
  0
POLYLINE
  5
DA
330
52
100
AcDbEntity
  8
DIBUJOS
 62
     7
100
AcDb2dPolyline
 66
     1
 10
0.0
 20
0.0
 30
0.0
  0
VERTEX
  5
DB
330
DA
100
AcDbEntity
  8
DIBUJOS
 62
     7
100
AcDbVertex
100
AcDb2dVertex
 10
77.58672230826002
 20
42.68497298264755
 30
0.0
  0
VERTEX
  5
DC
330
DA
100
AcDbEntity
  8
DIBUJOS
 62
     7
100
AcDbVertex
100
AcDb2dVertex
 10
77.7816443955087
 20
42.68497298264755
 30
0.0
  0
VERTEX
  5
DD
330
DA
100
AcDbEntity
  8
DIBUJOS
 62
     7
100
AcDbVertex
100
AcDb2dVertex
 10
77.79835157471852
 20
42.70168016185769
 30
0.0
  0
VERTEX
  5
DE
330
DA
100
AcDbEntity
  8
DIBUJOS
 62
     7
100
AcDbVertex
100
AcDb2dVertex
 10
78.28287176332503
 20
46.52023205340809
 30
0.0
  0
VERTEX
  5
DF
330
DA
100
AcDbEntity
  8
DIBUJOS
 62
     7
100
AcDbVertex
100
AcDb2dVertex
 10
78.27730170429533
 20
46.53137217146718
 30
0.0
  0
SEQEND
  5
E0
330
DA
100
AcDbEntity
  8
DIBUJOS
 62
     7
  0
POLYLINE
  5
E1
330
52
100
AcDbEntity
  8
DIBUJOS
 62
     7
100
AcDb2dPolyline
 66
     1
 10
0.0
 20
0.0
 30
0.0
  0
VERTEX
  5
E2
330
E1
100
AcDbEntity
  8
DIBUJOS
 62
     7
100
AcDbVertex
100
AcDb2dVertex
 10
81.69679182074982
 20
46.53137217146718
 30
0.0
  0
VERTEX
  5
E3
330
E1
100
AcDbEntity
  8
DIBUJOS
 62
     7
100
AcDbVertex
100
AcDb2dVertex
 10
81.6856532016307
 20
46.52023205340809
 30
0.0
  0
VERTEX
  5
E4
330
E1
100
AcDbEntity
  8
DIBUJOS
 62
     7
100
AcDbVertex
100
AcDb2dVertex
 10
81.68877699146307
 20
46.49768500606574
 30
0.0
  0
VERTEX
  5
E5
330
E1
100
AcDbEntity
  8
DIBUJOS
 62
     7
100
AcDbVertex
100
AcDb2dVertex
 10
82.17017339023721
 20
42.70168016185769
 30
0.0
  0
VERTEX
  5
E6
330
E1
100
AcDbEntity
  8
DIBUJOS
 62
     7
100
AcDbVertex
100
AcDb2dVertex
 10
82.18688056944703
 20
42.68497298264755
 30
0.0
  0
VERTEX
  5
E7
330
E1
100
AcDbEntity
  8
DIBUJOS
 62
     7
100
AcDbVertex
100
AcDb2dVertex
 10
82.32611106003588
 20
42.68497298264755
 30
0.0
  0
VERTEX
  5
E8
330
E1
100
AcDbEntity
  8
DIBUJOS
 62
     7
100
AcDbVertex
100
AcDb2dVertex
 10
82.33167962012595
 20
42.69054304167726
 30
0.0
  0
SEQEND
  5
E9
330
E1
100
AcDbEntity
  8
DIBUJOS
 62
     7
  0
POLYLINE
  5
EA
330
52
100
AcDbEntity
  8
DIBUJOS
 62
     7
100
AcDb2dPolyline
 66
     1
 10
0.0
 20
0.0
 30
0.0
  0
VERTEX
  5
EB
330
EA
100
AcDbEntity
  8
DIBUJOS
 62
     7
100
AcDbVertex
100
AcDb2dVertex
 10
82.34281823924572
 20
42.69054304167726
 30
0.0
  0
VERTEX
  5
EC
330
EA
100
AcDbEntity
  8
DIBUJOS
 62
     7
100
AcDbVertex
100
AcDb2dVertex
 10
82.34838679933577
 20
42.68497298264755
 30
0.0
  0
VERTEX
  5
ED
330
EA
100
AcDbEntity
  8
DIBUJOS
 62
     7
100
AcDbVertex
100
AcDb2dVertex
 10
82.54330888658444
 20
42.68497298264755
 30
0.0
  0
VERTEX
  5
EE
330
EA
100
AcDbEntity
  8
DIBUJOS
 62
     7
100
AcDbVertex
100
AcDb2dVertex
 10
82.56001756473391
 20
42.70168016185769
 30
0.0
  0
VERTEX
  5
EF
330
EA
100
AcDbEntity
  8
DIBUJOS
 62
     7
100
AcDbVertex
100
AcDb2dVertex
 10
82.20162263902576
 20
46.51974339914455
 30
0.0
  0
VERTEX
  5
F0
330
EA
100
AcDbEntity
  8
DIBUJOS
 62
     7
100
AcDbVertex
100
AcDb2dVertex
 10
82.19801918856679
 20
46.53137217146718
 30
0.0
  0
SEQEND
  5
F1
330
EA
100
AcDbEntity
  8
DIBUJOS
 62
     7
  0
ENDBLK
  5
55
330
52
100
AcDbEntity
  8
0
100
AcDbBlockEnd
  0
BLOCK
  5
F4
330
F2
100
AcDbEntity
  8
0
100
AcDbBlockBegin
  2
BLOCK_3
 70
     0
 10
0.0
 20
0.0
 30
0.0
  3
BLOCK_3
  1

  0
POLYLINE
  5
F6
330
F2
100
AcDbEntity
  8
DIBUJOS
 62
     7
100
AcDb2dPolyline
 66
     1
 10
0.0
 20
0.0
 30
0.0
  0
VERTEX
  5
F7
330
F6
100
AcDbEntity
  8
DIBUJOS
 62
     7
100
AcDbVertex
100
AcDb2dVertex
 10
62.18772054221299
 20
47.0475756986277
 30
0.0
  0
VERTEX
  5
F8
330
F6
100
AcDbEntity
  8
DIBUJOS
 62
     7
100
AcDbVertex
100
AcDb2dVertex
 10
62.18215048318329
 20
47.0475756986277
 30
0.0
  0
SEQEND
  5
F9
330
F6
100
AcDbEntity
  8
DIBUJOS
 62
     7
  0
POLYLINE
  5
FA
330
F2
100
AcDbEntity
  8
DIBUJOS
 62
     7
100
AcDb2dPolyline
 66
     1
 10
0.0
 20
0.0
 30
0.0
  0
VERTEX
  5
FB
330
FA
100
AcDbEntity
  8
DIBUJOS
 62
     7
100
AcDbVertex
100
AcDb2dVertex
 10
62.5274431790796
 20
47.0475756986277
 30
0.0
  0
VERTEX
  5
FC
330
FA
100
AcDbEntity
  8
DIBUJOS
 62
     7
100
AcDbVertex
100
AcDb2dVertex
 10
62.18772054221299
 20
47.0475756986277
 30
0.0
  0
SEQEND
  5
FD
330
FA
100
AcDbEntity
  8
DIBUJOS
 62
     7
  0
POLYLINE
  5
FE
330
F2
100
AcDbEntity
  8
DIBUJOS
 62
     7
100
AcDb2dPolyline
 66
     1
 10
0.0
 20
0.0
 30
0.0
  0
VERTEX
  5
FF
330
FE
100
AcDbEntity
  8
DIBUJOS
 62
     7
100
AcDbVertex
100
AcDb2dVertex
 10
62.53301024023065
 20
47.0475756986277
 30
0.0
  0
VERTEX
  5
100
330
FE
100
AcDbEntity
  8
DIBUJOS
 62
     7
100
AcDbVertex
100
AcDb2dVertex
 10
62.5274431790796
 20
47.0475756986277
 30
0.0
  0
SEQEND
  5
101
330
FE
100
AcDbEntity
  8
DIBUJOS
 62
     7
  0
POLYLINE
  5
102
330
F2
100
AcDbEntity
  8
DIBUJOS
 62
     7
100
AcDb2dPolyline
 66
     1
 10
0.0
 20
0.0
 30
0.0
  0
VERTEX
  5
103
330
102
100
AcDbEntity
  8
DIBUJOS
 62
     7
100
AcDbVertex
100
AcDb2dVertex
 10
62.53858029926035
 20
47.0475756986277
 30
0.0
  0
VERTEX
  5
104
330
102
100
AcDbEntity
  8
DIBUJOS
 62
     7
100
AcDbVertex
100
AcDb2dVertex
 10
62.53301024023065
 20
47.0475756986277
 30
0.0
  0
SEQEND
  5
105
330
102
100
AcDbEntity
  8
DIBUJOS
 62
     7
  0
POLYLINE
  5
106
330
F2
100
AcDbEntity
  8
DIBUJOS
 62
     7
100
AcDb2dPolyline
 66
     1
 10
0.0
 20
0.0
 30
0.0
  0
VERTEX
  5
107
330
106
100
AcDbEntity
  8
DIBUJOS
 62
     7
100
AcDbVertex
100
AcDb2dVertex
 10
62.80033110334895
 20
47.0475756986277
 30
0.0
  0
VERTEX
  5
108
330
106
100
AcDbEntity
  8
DIBUJOS
 62
     7
100
AcDbVertex
100
AcDb2dVertex
 10
62.53858029926035
 20
47.0475756986277
 30
0.0
  0
SEQEND
  5
109
330
106
100
AcDbEntity
  8
DIBUJOS
 62
     7
  0
POLYLINE
  5
10A
330
F2
100
AcDbEntity
  8
DIBUJOS
 62
     7
100
AcDb2dPolyline
 66
     1
 10
0.0
 20
0.0
 30
0.0
  0
VERTEX
  5
10B
330
10A
100
AcDbEntity
  8
DIBUJOS
 62
     7
100
AcDbVertex
100
AcDb2dVertex
 10
62.80590116237866
 20
47.0475756986277
 30
0.0
  0
VERTEX
  5
10C
330
10A
100
AcDbEntity
  8
DIBUJOS
 62
     7
100
AcDbVertex
100
AcDb2dVertex
 10
62.80033110334895
 20
47.0475756986277
 30
0.0
  0
SEQEND
  5
10D
330
10A
100
AcDbEntity
  8
DIBUJOS
 62
     7
  0
POLYLINE
  5
10E
330
F2
100
AcDbEntity
  8
DIBUJOS
 62
     7
100
AcDb2dPolyline
 66
     1
 10
0.0
 20
0.0
 30
0.0
  0
VERTEX
  5
10F
330
10E
100
AcDbEntity
  8
DIBUJOS
 62
     7
100
AcDbVertex
100
AcDb2dVertex
 10
65.09484167385207
 20
47.0475756986277
 30
0.0
  0
VERTEX
  5
110
330
10E
100
AcDbEntity
  8
DIBUJOS
 62
     7
100
AcDbVertex
100
AcDb2dVertex
 10
65.08927461270167
 20
47.05314275977843
 30
0.0
  0
VERTEX
  5
111
330
10E
100
AcDbEntity
  8
DIBUJOS
 62
     7
100
AcDbVertex
100
AcDb2dVertex
 10
62.81147122140837
 20
47.05314275977843
 30
0.0
  0
VERTEX
  5
112
330
10E
100
AcDbEntity
  8
DIBUJOS
 62
     7
100
AcDbVertex
100
AcDb2dVertex
 10
62.80590116237866
 20
47.0475756986277
 30
0.0
  0
SEQEND
  5
113
330
10E
100
AcDbEntity
  8
DIBUJOS
 62
     7
  0
POLYLINE
  5
114
330
F2
100
AcDbEntity
  8
DIBUJOS
 62
     7
100
AcDb2dPolyline
 66
     1
 10
0.0
 20
0.0
 30
0.0
  0
VERTEX
  5
115
330
114
100
AcDbEntity
  8
DIBUJOS
 62
     7
100
AcDbVertex
100
AcDb2dVertex
 10
65.10041173288178
 20
47.0475756986277
 30
0.0
  0
VERTEX
  5
116
330
114
100
AcDbEntity
  8
DIBUJOS
 62
     7
100
AcDbVertex
100
AcDb2dVertex
 10
65.09484167385207
 20
47.0475756986277
 30
0.0
  0
SEQEND
  5
117
330
114
100
AcDbEntity
  8
DIBUJOS
 62
     7
  0
POLYLINE
  5
118
330
F2
100
AcDbEntity
  8
DIBUJOS
 62
     7
100
AcDb2dPolyline
 66
     1
 10
0.0
 20
0.0
 30
0.0
  0
VERTEX
  5
119
330
118
100
AcDbEntity
  8
DIBUJOS
 62
     7
100
AcDbVertex
100
AcDb2dVertex
 10
65.10598179191149
 20
47.0475756986277
 30
0.0
  0
VERTEX
  5
11A
330
118
100
AcDbEntity
  8
DIBUJOS
 62
     7
100
AcDbVertex
100
AcDb2dVertex
 10
65.10041173288178
 20
47.0475756986277
 30
0.0
  0
SEQEND
  5
11B
330
118
100
AcDbEntity
  8
DIBUJOS
 62
     7
  0
POLYLINE
  5
11C
330
F2
100
AcDbEntity
  8
DIBUJOS
 62
     7
100
AcDb2dPolyline
 66
     1
 10
0.0
 20
0.0
 30
0.0
  0
VERTEX
  5
11D
330
11C
100
AcDbEntity
  8
DIBUJOS
 62
     7
100
AcDbVertex
100
AcDb2dVertex
 10
65.44013436974839
 20
47.0475756986277
 30
0.0
  0
VERTEX
  5
11E
330
11C
100
AcDbEntity
  8
DIBUJOS
 62
     7
100
AcDbVertex
100
AcDb2dVertex
 10
65.10598179191149
 20
47.0475756986277
 30
0.0
  0
SEQEND
  5
11F
330
11C
100
AcDbEntity
  8
DIBUJOS
 62
     7
  0
POLYLINE
  5
120
330
F2
100
AcDbEntity
  8
DIBUJOS
 62
     7
100
AcDb2dPolyline
 66
     1
 10
0.0
 20
0.0
 30
0.0
  0
VERTEX
  5
121
330
120
100
AcDbEntity
  8
DIBUJOS
 62
     7
100
AcDbVertex
100
AcDb2dVertex
 10
65.44570143089943
 20
47.0475756986277
 30
0.0
  0
VERTEX
  5
122
330
120
100
AcDbEntity
  8
DIBUJOS
 62
     7
100
AcDbVertex
100
AcDb2dVertex
 10
65.44013436974839
 20
47.0475756986277
 30
0.0
  0
SEQEND
  5
123
330
120
100
AcDbEntity
  8
DIBUJOS
 62
     7
  0
POLYLINE
  5
124
330
F2
100
AcDbEntity
  8
DIBUJOS
 62
     7
100
AcDb2dPolyline
 66
     1
 10
0.0
 20
0.0
 30
0.0
  0
VERTEX
  5
125
330
124
100
AcDbEntity
  8
DIBUJOS
 62
     7
100
AcDbVertex
100
AcDb2dVertex
 10
65.47354872816868
 20
47.0475756986277
 30
0.0
  0
VERTEX
  5
126
330
124
100
AcDbEntity
  8
DIBUJOS
 62
     7
100
AcDbVertex
100
AcDb2dVertex
 10
65.46797866913897
 20
47.05314275977843
 30
0.0
  0
VERTEX
  5
127
330
124
100
AcDbEntity
  8
DIBUJOS
 62
     7
100
AcDbVertex
100
AcDb2dVertex
 10
65.44570143089943
 20
47.0475756986277
 30
0.0
  0
SEQEND
  5
128
330
124
100
AcDbEntity
  8
DIBUJOS
 62
     7
  0
POLYLINE
  5
129
330
F2
100
AcDbEntity
  8
DIBUJOS
 62
     7
100
AcDb2dPolyline
 66
     1
 10
0.0
 20
0.0
 30
0.0
  0
VERTEX
  5
12A
330
129
100
AcDbEntity
  8
DIBUJOS
 62
     7
100
AcDbVertex
100
AcDb2dVertex
 10
65.47911878719839
 20
47.0475756986277
 30
0.0
  0
VERTEX
  5
12B
330
129
100
AcDbEntity
  8
DIBUJOS
 62
     7
100
AcDbVertex
100
AcDb2dVertex
 10
65.47354872816868
 20
47.0475756986277
 30
0.0
  0
SEQEND
  5
12C
330
129
100
AcDbEntity
  8
DIBUJOS
 62
     7
  0
POLYLINE
  5
12D
330
F2
100
AcDbEntity
  8
DIBUJOS
 62
     7
100
AcDb2dPolyline
 66
     1
 10
0.0
 20
0.0
 30
0.0
  0
VERTEX
  5
12E
330
12D
100
AcDbEntity
  8
DIBUJOS
 62
     7
100
AcDbVertex
100
AcDb2dVertex
 10
65.48468584834879
 20
47.0475756986277
 30
0.0
  0
VERTEX
  5
12F
330
12D
100
AcDbEntity
  8
DIBUJOS
 62
     7
100
AcDbVertex
100
AcDb2dVertex
 10
65.47911878719839
 20
47.0475756986277
 30
0.0
  0
SEQEND
  5
130
330
12D
100
AcDbEntity
  8
DIBUJOS
 62
     7
  0
POLYLINE
  5
131
330
F2
100
AcDbEntity
  8
DIBUJOS
 62
     7
100
AcDb2dPolyline
 66
     1
 10
0.0
 20
0.0
 30
0.0
  0
VERTEX
  5
132
330
131
100
AcDbEntity
  8
DIBUJOS
 62
     7
100
AcDbVertex
100
AcDb2dVertex
 10
65.81883842618633
 20
47.0475756986277
 30
0.0
  0
VERTEX
  5
133
330
131
100
AcDbEntity
  8
DIBUJOS
 62
     7
100
AcDbVertex
100
AcDb2dVertex
 10
65.48468584834879
 20
47.0475756986277
 30
0.0
  0
SEQEND
  5
134
330
131
100
AcDbEntity
  8
DIBUJOS
 62
     7
  0
POLYLINE
  5
135
330
F2
100
AcDbEntity
  8
DIBUJOS
 62
     7
100
AcDb2dPolyline
 66
     1
 10
0.0
 20
0.0
 30
0.0
  0
VERTEX
  5
136
330
135
100
AcDbEntity
  8
DIBUJOS
 62
     7
100
AcDbVertex
100
AcDb2dVertex
 10
65.82440848521604
 20
47.0475756986277
 30
0.0
  0
VERTEX
  5
137
330
135
100
AcDbEntity
  8
DIBUJOS
 62
     7
100
AcDbVertex
100
AcDb2dVertex
 10
65.81883842618633
 20
47.0475756986277
 30
0.0
  0
SEQEND
  5
138
330
135
100
AcDbEntity
  8
DIBUJOS
 62
     7
  0
POLYLINE
  5
139
330
F2
100
AcDbEntity
  8
DIBUJOS
 62
     7
100
AcDb2dPolyline
 66
     1
 10
0.0
 20
0.0
 30
0.0
  0
VERTEX
  5
13A
330
139
100
AcDbEntity
  8
DIBUJOS
 62
     7
100
AcDbVertex
100
AcDb2dVertex
 10
65.82440848521604
 20
47.0475756986277
 30
0.0
  0
VERTEX
  5
13B
330
139
100
AcDbEntity
  8
DIBUJOS
 62
     7
100
AcDbVertex
100
AcDb2dVertex
 10
66.40360468793236
 20
47.05314275977843
 30
0.0
  0
VERTEX
  5
13C
330
139
100
AcDbEntity
  8
DIBUJOS
 62
     7
100
AcDbVertex
100
AcDb2dVertex
 10
66.42031186714217
 20
47.06984993898825
 30
0.0
  0
VERTEX
  5
13D
330
139
100
AcDbEntity
  8
DIBUJOS
 62
     7
100
AcDbVertex
100
AcDb2dVertex
 10
66.42031186714217
 20
47.31489656174601
 30
0.0
  0
VERTEX
  5
13E
330
139
100
AcDbEntity
  8
DIBUJOS
 62
     7
100
AcDbVertex
100
AcDb2dVertex
 10
66.40917474696207
 20
47.32603368192645
 30
0.0
  0
VERTEX
  5
13F
330
139
100
AcDbEntity
  8
DIBUJOS
 62
     7
100
AcDbVertex
100
AcDb2dVertex
 10
61.45258666969799
 20
47.32603368192645
 30
0.0
  0
VERTEX
  5
140
330
139
100
AcDbEntity
  8
DIBUJOS
 62
     7
100
AcDbVertex
100
AcDb2dVertex
 10
61.44144655163857
 20
47.31489656174601
 30
0.0
  0
VERTEX
  5
141
330
139
100
AcDbEntity
  8
DIBUJOS
 62
     7
100
AcDbVertex
100
AcDb2dVertex
 10
61.44144655163857
 20
47.06428287783753
 30
0.0
  0
VERTEX
  5
142
330
139
100
AcDbEntity
  8
DIBUJOS
 62
     7
100
AcDbVertex
100
AcDb2dVertex
 10
61.45258666969799
 20
47.05314275977843
 30
0.0
  0
VERTEX
  5
143
330
139
100
AcDbEntity
  8
DIBUJOS
 62
     7
100
AcDbVertex
100
AcDb2dVertex
 10
62.18215048318329
 20
47.0475756986277
 30
0.0
  0
SEQEND
  5
144
330
139
100
AcDbEntity
  8
DIBUJOS
 62
     7
  0
POLYLINE
  5
145
330
F2
100
AcDbEntity
  8
DIBUJOS
 62
     7
100
AcDb2dPolyline
 66
     1
 10
0.0
 20
0.0
 30
0.0
  0
VERTEX
  5
146
330
145
100
AcDbEntity
  8
DIBUJOS
 62
     7
100
AcDbVertex
100
AcDb2dVertex
 10
62.18215048318329
 20
47.042005639598
 30
0.0
  0
VERTEX
  5
147
330
145
100
AcDbEntity
  8
DIBUJOS
 62
     7
100
AcDbVertex
100
AcDb2dVertex
 10
62.18215048318329
 20
47.0475756986277
 30
0.0
  0
SEQEND
  5
148
330
145
100
AcDbEntity
  8
DIBUJOS
 62
     7
  0
POLYLINE
  5
149
330
F2
100
AcDbEntity
  8
DIBUJOS
 62
     7
100
AcDb2dPolyline
 66
     1
 10
0.0
 20
0.0
 30
0.0
  0
VERTEX
  5
14A
330
149
100
AcDbEntity
  8
DIBUJOS
 62
     7
100
AcDbVertex
100
AcDb2dVertex
 10
62.53301024023065
 20
47.042005639598
 30
0.0
  0
VERTEX
  5
14B
330
149
100
AcDbEntity
  8
DIBUJOS
 62
     7
100
AcDbVertex
100
AcDb2dVertex
 10
62.53301024023065
 20
47.0475756986277
 30
0.0
  0
SEQEND
  5
14C
330
149
100
AcDbEntity
  8
DIBUJOS
 62
     7
  0
POLYLINE
  5
14D
330
F2
100
AcDbEntity
  8
DIBUJOS
 62
     7
100
AcDb2dPolyline
 66
     1
 10
0.0
 20
0.0
 30
0.0
  0
VERTEX
  5
14E
330
14D
100
AcDbEntity
  8
DIBUJOS
 62
     7
100
AcDbVertex
100
AcDb2dVertex
 10
62.80590116237866
 20
47.042005639598
 30
0.0
  0
VERTEX
  5
14F
330
14D
100
AcDbEntity
  8
DIBUJOS
 62
     7
100
AcDbVertex
100
AcDb2dVertex
 10
62.80590116237866
 20
47.0475756986277
 30
0.0
  0
SEQEND
  5
150
330
14D
100
AcDbEntity
  8
DIBUJOS
 62
     7
  0
POLYLINE
  5
151
330
F2
100
AcDbEntity
  8
DIBUJOS
 62
     7
100
AcDb2dPolyline
 66
     1
 10
0.0
 20
0.0
 30
0.0
  0
VERTEX
  5
152
330
151
100
AcDbEntity
  8
DIBUJOS
 62
     7
100
AcDbVertex
100
AcDb2dVertex
 10
65.10041173288178
 20
47.042005639598
 30
0.0
  0
VERTEX
  5
153
330
151
100
AcDbEntity
  8
DIBUJOS
 62
     7
100
AcDbVertex
100
AcDb2dVertex
 10
65.10041173288178
 20
47.0475756986277
 30
0.0
  0
SEQEND
  5
154
330
151
100
AcDbEntity
  8
DIBUJOS
 62
     7
  0
POLYLINE
  5
155
330
F2
100
AcDbEntity
  8
DIBUJOS
 62
     7
100
AcDb2dPolyline
 66
     1
 10
0.0
 20
0.0
 30
0.0
  0
VERTEX
  5
156
330
155
100
AcDbEntity
  8
DIBUJOS
 62
     7
100
AcDbVertex
100
AcDb2dVertex
 10
65.44570143089943
 20
47.042005639598
 30
0.0
  0
VERTEX
  5
157
330
155
100
AcDbEntity
  8
DIBUJOS
 62
     7
100
AcDbVertex
100
AcDb2dVertex
 10
65.44570143089943
 20
47.0475756986277
 30
0.0
  0
SEQEND
  5
158
330
155
100
AcDbEntity
  8
DIBUJOS
 62
     7
  0
POLYLINE
  5
159
330
F2
100
AcDbEntity
  8
DIBUJOS
 62
     7
100
AcDb2dPolyline
 66
     1
 10
0.0
 20
0.0
 30
0.0
  0
VERTEX
  5
15A
330
159
100
AcDbEntity
  8
DIBUJOS
 62
     7
100
AcDbVertex
100
AcDb2dVertex
 10
65.47911878719839
 20
47.042005639598
 30
0.0
  0
VERTEX
  5
15B
330
159
100
AcDbEntity
  8
DIBUJOS
 62
     7
100
AcDbVertex
100
AcDb2dVertex
 10
65.47911878719839
 20
47.0475756986277
 30
0.0
  0
SEQEND
  5
15C
330
159
100
AcDbEntity
  8
DIBUJOS
 62
     7
  0
POLYLINE
  5
15D
330
F2
100
AcDbEntity
  8
DIBUJOS
 62
     7
100
AcDb2dPolyline
 66
     1
 10
0.0
 20
0.0
 30
0.0
  0
VERTEX
  5
15E
330
15D
100
AcDbEntity
  8
DIBUJOS
 62
     7
100
AcDbVertex
100
AcDb2dVertex
 10
65.82440848521604
 20
47.042005639598
 30
0.0
  0
VERTEX
  5
15F
330
15D
100
AcDbEntity
  8
DIBUJOS
 62
     7
100
AcDbVertex
100
AcDb2dVertex
 10
65.82440848521604
 20
47.0475756986277
 30
0.0
  0
SEQEND
  5
160
330
15D
100
AcDbEntity
  8
DIBUJOS
 62
     7
  0
POLYLINE
  5
161
330
F2
100
AcDbEntity
  8
DIBUJOS
 62
     7
100
AcDb2dPolyline
 66
     1
 10
0.0
 20
0.0
 30
0.0
  0
VERTEX
  5
162
330
161
100
AcDbEntity
  8
DIBUJOS
 62
     7
100
AcDbVertex
100
AcDb2dVertex
 10
62.18772054221299
 20
43.77096661220991
 30
0.0
  0
VERTEX
  5
163
330
161
100
AcDbEntity
  8
DIBUJOS
 62
     7
100
AcDbVertex
100
AcDb2dVertex
 10
62.22364712316569
 20
44.12716858948898
 30
0.0
  0
VERTEX
  5
164
330
161
100
AcDbEntity
  8
DIBUJOS
 62
     7
100
AcDbVertex
100
AcDb2dVertex
 10
62.50199418494522
 20
46.79109216779781
 30
0.0
  0
VERTEX
  5
165
330
161
100
AcDbEntity
  8
DIBUJOS
 62
     7
100
AcDbVertex
100
AcDb2dVertex
 10
62.53301024023065
 20
47.042005639598
 30
0.0
  0
SEQEND
  5
166
330
161
100
AcDbEntity
  8
DIBUJOS
 62
     7
  0
POLYLINE
  5
167
330
F2
100
AcDbEntity
  8
DIBUJOS
 62
     7
100
AcDb2dPolyline
 66
     1
 10
0.0
 20
0.0
 30
0.0
  0
VERTEX
  5
168
330
167
100
AcDbEntity
  8
DIBUJOS
 62
     7
100
AcDbVertex
100
AcDb2dVertex
 10
62.18772054221299
 20
43.76539655317988
 30
0.0
  0
VERTEX
  5
169
330
167
100
AcDbEntity
  8
DIBUJOS
 62
     7
100
AcDbVertex
100
AcDb2dVertex
 10
62.18215048318329
 20
43.76539655317988
 30
0.0
  0
SEQEND
  5
16A
330
167
100
AcDbEntity
  8
DIBUJOS
 62
     7
  0
POLYLINE
  5
16B
330
F2
100
AcDbEntity
  8
DIBUJOS
 62
     7
100
AcDb2dPolyline
 66
     1
 10
0.0
 20
0.0
 30
0.0
  0
VERTEX
  5
16C
330
16B
100
AcDbEntity
  8
DIBUJOS
 62
     7
100
AcDbVertex
100
AcDb2dVertex
 10
62.18772054221299
 20
43.76539655317988
 30
0.0
  0
VERTEX
  5
16D
330
16B
100
AcDbEntity
  8
DIBUJOS
 62
     7
100
AcDbVertex
100
AcDb2dVertex
 10
62.18772054221299
 20
43.77096661220991
 30
0.0
  0
SEQEND
  5
16E
330
16B
100
AcDbEntity
  8
DIBUJOS
 62
     7
  0
POLYLINE
  5
16F
330
F2
100
AcDbEntity
  8
DIBUJOS
 62
     7
100
AcDb2dPolyline
 66
     1
 10
0.0
 20
0.0
 30
0.0
  0
VERTEX
  5
170
330
16F
100
AcDbEntity
  8
DIBUJOS
 62
     7
100
AcDbVertex
100
AcDb2dVertex
 10
62.17101336300253
 20
43.72641213573021
 30
0.0
  0
VERTEX
  5
171
330
16F
100
AcDbEntity
  8
DIBUJOS
 62
     7
100
AcDbVertex
100
AcDb2dVertex
 10
62.18215048318329
 20
43.76539655317988
 30
0.0
  0
SEQEND
  5
172
330
16F
100
AcDbEntity
  8
DIBUJOS
 62
     7
  0
POLYLINE
  5
173
330
F2
100
AcDbEntity
  8
DIBUJOS
 62
     7
100
AcDb2dPolyline
 66
     1
 10
0.0
 20
0.0
 30
0.0
  0
VERTEX
  5
174
330
173
100
AcDbEntity
  8
DIBUJOS
 62
     7
100
AcDbVertex
100
AcDb2dVertex
 10
62.17101336300253
 20
43.72084507457949
 30
0.0
  0
VERTEX
  5
175
330
173
100
AcDbEntity
  8
DIBUJOS
 62
     7
100
AcDbVertex
100
AcDb2dVertex
 10
62.17101336300253
 20
43.72641213573021
 30
0.0
  0
SEQEND
  5
176
330
173
100
AcDbEntity
  8
DIBUJOS
 62
     7
  0
POLYLINE
  5
177
330
F2
100
AcDbEntity
  8
DIBUJOS
 62
     7
100
AcDb2dPolyline
 66
     1
 10
0.0
 20
0.0
 30
0.0
  0
VERTEX
  5
178
330
177
100
AcDbEntity
  8
DIBUJOS
 62
     7
100
AcDbVertex
100
AcDb2dVertex
 10
62.17658342203224
 20
43.72084507457949
 30
0.0
  0
VERTEX
  5
179
330
177
100
AcDbEntity
  8
DIBUJOS
 62
     7
100
AcDbVertex
100
AcDb2dVertex
 10
62.17101336300253
 20
43.72084507457949
 30
0.0
  0
SEQEND
  5
17A
330
177
100
AcDbEntity
  8
DIBUJOS
 62
     7
  0
POLYLINE
  5
17B
330
F2
100
AcDbEntity
  8
DIBUJOS
 62
     7
100
AcDb2dPolyline
 66
     1
 10
0.0
 20
0.0
 30
0.0
  0
VERTEX
  5
17C
330
17B
100
AcDbEntity
  8
DIBUJOS
 62
     7
100
AcDbVertex
100
AcDb2dVertex
 10
62.18772054221299
 20
43.72084507457949
 30
0.0
  0
VERTEX
  5
17D
330
17B
100
AcDbEntity
  8
DIBUJOS
 62
     7
100
AcDbVertex
100
AcDb2dVertex
 10
62.1932906012427
 20
43.75982949202947
 30
0.0
  0
VERTEX
  5
17E
330
17B
100
AcDbEntity
  8
DIBUJOS
 62
     7
100
AcDbVertex
100
AcDb2dVertex
 10
62.18772054221299
 20
43.76539655317988
 30
0.0
  0
SEQEND
  5
17F
330
17B
100
AcDbEntity
  8
DIBUJOS
 62
     7
  0
POLYLINE
  5
180
330
F2
100
AcDbEntity
  8
DIBUJOS
 62
     7
100
AcDb2dPolyline
 66
     1
 10
0.0
 20
0.0
 30
0.0
  0
VERTEX
  5
181
330
180
100
AcDbEntity
  8
DIBUJOS
 62
     7
100
AcDbVertex
100
AcDb2dVertex
 10
62.17101336300253
 20
43.7152750155501
 30
0.0
  0
VERTEX
  5
182
330
180
100
AcDbEntity
  8
DIBUJOS
 62
     7
100
AcDbVertex
100
AcDb2dVertex
 10
62.17101336300253
 20
43.72084507457949
 30
0.0
  0
SEQEND
  5
183
330
180
100
AcDbEntity
  8
DIBUJOS
 62
     7
  0
POLYLINE
  5
184
330
F2
100
AcDbEntity
  8
DIBUJOS
 62
     7
100
AcDb2dPolyline
 66
     1
 10
0.0
 20
0.0
 30
0.0
  0
VERTEX
  5
185
330
184
100
AcDbEntity
  8
DIBUJOS
 62
     7
100
AcDbVertex
100
AcDb2dVertex
 10
62.18215048318329
 20
43.7152750155501
 30
0.0
  0
VERTEX
  5
186
330
184
100
AcDbEntity
  8
DIBUJOS
 62
     7
100
AcDbVertex
100
AcDb2dVertex
 10
62.17658342203224
 20
43.72084507457949
 30
0.0
  0
SEQEND
  5
187
330
184
100
AcDbEntity
  8
DIBUJOS
 62
     7
  0
POLYLINE
  5
188
330
F2
100
AcDbEntity
  8
DIBUJOS
 62
     7
100
AcDb2dPolyline
 66
     1
 10
0.0
 20
0.0
 30
0.0
  0
VERTEX
  5
189
330
188
100
AcDbEntity
  8
DIBUJOS
 62
     7
100
AcDbVertex
100
AcDb2dVertex
 10
62.18772054221299
 20
43.7152750155501
 30
0.0
  0
VERTEX
  5
18A
330
188
100
AcDbEntity
  8
DIBUJOS
 62
     7
100
AcDbVertex
100
AcDb2dVertex
 10
62.18215048318329
 20
43.7152750155501
 30
0.0
  0
SEQEND
  5
18B
330
188
100
AcDbEntity
  8
DIBUJOS
 62
     7
  0
POLYLINE
  5
18C
330
F2
100
AcDbEntity
  8
DIBUJOS
 62
     7
100
AcDb2dPolyline
 66
     1
 10
0.0
 20
0.0
 30
0.0
  0
VERTEX
  5
18D
330
18C
100
AcDbEntity
  8
DIBUJOS
 62
     7
100
AcDbVertex
100
AcDb2dVertex
 10
62.18772054221299
 20
43.7152750155501
 30
0.0
  0
VERTEX
  5
18E
330
18C
100
AcDbEntity
  8
DIBUJOS
 62
     7
100
AcDbVertex
100
AcDb2dVertex
 10
62.18772054221299
 20
43.72084507457949
 30
0.0
  0
SEQEND
  5
18F
330
18C
100
AcDbEntity
  8
DIBUJOS
 62
     7
  0
POLYLINE
  5
190
330
F2
100
AcDbEntity
  8
DIBUJOS
 62
     7
100
AcDb2dPolyline
 66
     1
 10
0.0
 20
0.0
 30
0.0
  0
VERTEX
  5
191
330
190
100
AcDbEntity
  8
DIBUJOS
 62
     7
100
AcDbVertex
100
AcDb2dVertex
 10
62.18772054221299
 20
43.70970495652039
 30
0.0
  0
VERTEX
  5
192
330
190
100
AcDbEntity
  8
DIBUJOS
 62
     7
100
AcDbVertex
100
AcDb2dVertex
 10
62.18772054221299
 20
43.7152750155501
 30
0.0
  0
SEQEND
  5
193
330
190
100
AcDbEntity
  8
DIBUJOS
 62
     7
  0
POLYLINE
  5
194
330
F2
100
AcDbEntity
  8
DIBUJOS
 62
     7
100
AcDb2dPolyline
 66
     1
 10
0.0
 20
0.0
 30
0.0
  0
VERTEX
  5
195
330
194
100
AcDbEntity
  8
DIBUJOS
 62
     7
100
AcDbVertex
100
AcDb2dVertex
 10
62.18215048318329
 20
47.042005639598
 30
0.0
  0
VERTEX
  5
196
330
194
100
AcDbEntity
  8
DIBUJOS
 62
     7
100
AcDbVertex
100
AcDb2dVertex
 10
62.05100227415718
 20
45.24657657747098
 30
0.0
  0
VERTEX
  5
197
330
194
100
AcDbEntity
  8
DIBUJOS
 62
     7
100
AcDbVertex
100
AcDb2dVertex
 10
61.82572366498488
 20
42.69611010282798
 30
0.0
  0
VERTEX
  5
198
330
194
100
AcDbEntity
  8
DIBUJOS
 62
     7
100
AcDbVertex
100
AcDb2dVertex
 10
61.83686078516563
 20
42.68497298264755
 30
0.0
  0
VERTEX
  5
199
330
194
100
AcDbEntity
  8
DIBUJOS
 62
     7
100
AcDbVertex
100
AcDb2dVertex
 10
62.03178287241366
 20
42.68497298264755
 30
0.0
  0
VERTEX
  5
19A
330
194
100
AcDbEntity
  8
DIBUJOS
 62
     7
100
AcDbVertex
100
AcDb2dVertex
 10
62.04849005162413
 20
42.70168016185769
 30
0.0
  0
VERTEX
  5
19B
330
194
100
AcDbEntity
  8
DIBUJOS
 62
     7
100
AcDbVertex
100
AcDb2dVertex
 10
62.16304500083861
 20
43.65988320678198
 30
0.0
  0
VERTEX
  5
19C
330
194
100
AcDbEntity
  8
DIBUJOS
 62
     7
100
AcDbVertex
100
AcDb2dVertex
 10
62.17101336300253
 20
43.7152750155501
 30
0.0
  0
SEQEND
  5
19D
330
194
100
AcDbEntity
  8
DIBUJOS
 62
     7
  0
POLYLINE
  5
19E
330
F2
100
AcDbEntity
  8
DIBUJOS
 62
     7
100
AcDb2dPolyline
 66
     1
 10
0.0
 20
0.0
 30
0.0
  0
VERTEX
  5
19F
330
19E
100
AcDbEntity
  8
DIBUJOS
 62
     7
100
AcDbVertex
100
AcDb2dVertex
 10
62.18772054221299
 20
43.70970495652039
 30
0.0
  0
VERTEX
  5
1A0
330
19E
100
AcDbEntity
  8
DIBUJOS
 62
     7
100
AcDbVertex
100
AcDb2dVertex
 10
62.18463272692713
 20
43.65933459494036
 30
0.0
  0
VERTEX
  5
1A1
330
19E
100
AcDbEntity
  8
DIBUJOS
 62
     7
100
AcDbVertex
100
AcDb2dVertex
 10
62.0986145871329
 20
42.69611010282798
 30
0.0
  0
VERTEX
  5
1A2
330
19E
100
AcDbEntity
  8
DIBUJOS
 62
     7
100
AcDbVertex
100
AcDb2dVertex
 10
62.10975170731365
 20
42.68497298264755
 30
0.0
  0
VERTEX
  5
1A3
330
19E
100
AcDbEntity
  8
DIBUJOS
 62
     7
100
AcDbVertex
100
AcDb2dVertex
 10
62.30467379456169
 20
42.68497298264755
 30
0.0
  0
VERTEX
  5
1A4
330
19E
100
AcDbEntity
  8
DIBUJOS
 62
     7
100
AcDbVertex
100
AcDb2dVertex
 10
62.32138097377214
 20
42.70168016185769
 30
0.0
  0
VERTEX
  5
1A5
330
19E
100
AcDbEntity
  8
DIBUJOS
 62
     7
100
AcDbVertex
100
AcDb2dVertex
 10
62.70882684513464
 20
45.8931321215959
 30
0.0
  0
VERTEX
  5
1A6
330
19E
100
AcDbEntity
  8
DIBUJOS
 62
     7
100
AcDbVertex
100
AcDb2dVertex
 10
62.80590116237866
 20
47.042005639598
 30
0.0
  0
SEQEND
  5
1A7
330
19E
100
AcDbEntity
  8
DIBUJOS
 62
     7
  0
POLYLINE
  5
1A8
330
F2
100
AcDbEntity
  8
DIBUJOS
 62
     7
100
AcDb2dPolyline
 66
     1
 10
0.0
 20
0.0
 30
0.0
  0
VERTEX
  5
1A9
330
1A8
100
AcDbEntity
  8
DIBUJOS
 62
     7
100
AcDbVertex
100
AcDb2dVertex
 10
65.10041173288178
 20
47.042005639598
 30
0.0
  0
VERTEX
  5
1AA
330
1A8
100
AcDbEntity
  8
DIBUJOS
 62
     7
100
AcDbVertex
100
AcDb2dVertex
 10
65.09484167385207
 20
47.03643558056829
 30
0.0
  0
VERTEX
  5
1AB
330
1A8
100
AcDbEntity
  8
DIBUJOS
 62
     7
100
AcDbVertex
100
AcDb2dVertex
 10
65.45444324582463
 20
43.72611234783884
 30
0.0
  0
VERTEX
  5
1AC
330
1A8
100
AcDbEntity
  8
DIBUJOS
 62
     7
100
AcDbVertex
100
AcDb2dVertex
 10
65.5793618624586
 20
42.69611010282798
 30
0.0
  0
VERTEX
  5
1AD
330
1A8
100
AcDbEntity
  8
DIBUJOS
 62
     7
100
AcDbVertex
100
AcDb2dVertex
 10
65.59050198051801
 20
42.68497298264755
 30
0.0
  0
VERTEX
  5
1AE
330
1A8
100
AcDbEntity
  8
DIBUJOS
 62
     7
100
AcDbVertex
100
AcDb2dVertex
 10
65.78542406776668
 20
42.68497298264755
 30
0.0
  0
VERTEX
  5
1AF
330
1A8
100
AcDbEntity
  8
DIBUJOS
 62
     7
100
AcDbVertex
100
AcDb2dVertex
 10
65.8021312469765
 20
42.70168016185769
 30
0.0
  0
VERTEX
  5
1B0
330
1A8
100
AcDbEntity
  8
DIBUJOS
 62
     7
100
AcDbVertex
100
AcDb2dVertex
 10
65.44876226527475
 20
47.01393050353108
 30
0.0
  0
VERTEX
  5
1B1
330
1A8
100
AcDbEntity
  8
DIBUJOS
 62
     7
100
AcDbVertex
100
AcDb2dVertex
 10
65.44570143089943
 20
47.042005639598
 30
0.0
  0
SEQEND
  5
1B2
330
1A8
100
AcDbEntity
  8
DIBUJOS
 62
     7
  0
POLYLINE
  5
1B3
330
F2
100
AcDbEntity
  8
DIBUJOS
 62
     7
100
AcDb2dPolyline
 66
     1
 10
0.0
 20
0.0
 30
0.0
  0
VERTEX
  5
1B4
330
1B3
100
AcDbEntity
  8
DIBUJOS
 62
     7
100
AcDbVertex
100
AcDb2dVertex
 10
65.47911878719839
 20
47.042005639598
 30
0.0
  0
VERTEX
  5
1B5
330
1B3
100
AcDbEntity
  8
DIBUJOS
 62
     7
100
AcDbVertex
100
AcDb2dVertex
 10
65.47354872816868
 20
47.03643558056829
 30
0.0
  0
VERTEX
  5
1B6
330
1B3
100
AcDbEntity
  8
DIBUJOS
 62
     7
100
AcDbVertex
100
AcDb2dVertex
 10
65.83314730226193
 20
43.73725246589793
 30
0.0
  0
VERTEX
  5
1B7
330
1B3
100
AcDbEntity
  8
DIBUJOS
 62
     7
100
AcDbVertex
100
AcDb2dVertex
 10
65.95806891677519
 20
42.69611010282798
 30
0.0
  0
VERTEX
  5
1B8
330
1B3
100
AcDbEntity
  8
DIBUJOS
 62
     7
100
AcDbVertex
100
AcDb2dVertex
 10
65.9692060369553
 20
42.68497298264755
 30
0.0
  0
VERTEX
  5
1B9
330
1B3
100
AcDbEntity
  8
DIBUJOS
 62
     7
100
AcDbVertex
100
AcDb2dVertex
 10
66.16969818323369
 20
42.68497298264755
 30
0.0
  0
VERTEX
  5
1BA
330
1B3
100
AcDbEntity
  8
DIBUJOS
 62
     7
100
AcDbVertex
100
AcDb2dVertex
 10
66.18083530341444
 20
42.69611010282798
 30
0.0
  0
VERTEX
  5
1BB
330
1B3
100
AcDbEntity
  8
DIBUJOS
 62
     7
100
AcDbVertex
100
AcDb2dVertex
 10
65.83251175193136
 20
46.96981671525246
 30
0.0
  0
VERTEX
  5
1BC
330
1B3
100
AcDbEntity
  8
DIBUJOS
 62
     7
100
AcDbVertex
100
AcDb2dVertex
 10
65.82440848521604
 20
47.042005639598
 30
0.0
  0
SEQEND
  5
1BD
330
1B3
100
AcDbEntity
  8
DIBUJOS
 62
     7
  0
ENDBLK
  5
F5
330
F2
100
AcDbEntity
  8
0
100
AcDbBlockEnd
  0
BLOCK
  5
1C0
330
1BE
100
AcDbEntity
  8
0
100
AcDbBlockBegin
  2
BLOCK_4
 70
     0
 10
0.0
 20
0.0
 30
0.0
  3
BLOCK_4
  1

  0
POLYLINE
  5
1C2
330
1BE
100
AcDbEntity
  8
DIBUJOS
 62
     7
100
AcDb2dPolyline
 66
     1
 10
0.0
 20
0.0
 30
0.0
  0
VERTEX
  5
1C3
330
1C2
100
AcDbEntity
  8
DIBUJOS
 62
     7
100
AcDbVertex
100
AcDb2dVertex
 10
65.48468584834879
 20
30.99751132789786
 30
0.0
  0
VERTEX
  5
1C4
330
1C2
100
AcDbEntity
  8
DIBUJOS
 62
     7
100
AcDbVertex
100
AcDb2dVertex
 10
65.73516762558518
 20
31.01128882993529
 30
0.0
  0
VERTEX
  5
1C5
330
1C2
100
AcDbEntity
  8
DIBUJOS
 62
     7
100
AcDbVertex
100
AcDb2dVertex
 10
65.82942093876684
 20
31.03816706284425
 30
0.0
  0
VERTEX
  5
1C6
330
1C2
100
AcDbEntity
  8
DIBUJOS
 62
     7
100
AcDbVertex
100
AcDb2dVertex
 10
65.85274443674945
 20
31.04566850536671
 30
0.0
  0
VERTEX
  5
1C7
330
1C2
100
AcDbEntity
  8
DIBUJOS
 62
     7
100
AcDbVertex
100
AcDb2dVertex
 10
65.99048198363651
 20
31.08795508644465
 30
0.0
  0
VERTEX
  5
1C8
330
1C2
100
AcDbEntity
  8
DIBUJOS
 62
     7
100
AcDbVertex
100
AcDb2dVertex
 10
66.00919474384291
 20
31.10198965659912
 30
0.0
  0
VERTEX
  5
1C9
330
1C2
100
AcDbEntity
  8
DIBUJOS
 62
     7
100
AcDbVertex
100
AcDb2dVertex
 10
66.15299100402386
 20
31.20357203426567
 30
0.0
  0
VERTEX
  5
1CA
330
1C2
100
AcDbEntity
  8
DIBUJOS
 62
     7
100
AcDbVertex
100
AcDb2dVertex
 10
66.19754548050292
 20
31.24812576127554
 30
0.0
  0
VERTEX
  5
1CB
330
1C2
100
AcDbEntity
  8
DIBUJOS
 62
     7
100
AcDbVertex
100
AcDb2dVertex
 10
66.21853662868736
 20
31.28239751306674
 30
0.0
  0
VERTEX
  5
1CC
330
1C2
100
AcDbEntity
  8
DIBUJOS
 62
     7
100
AcDbVertex
100
AcDb2dVertex
 10
66.31321264279653
 20
31.41605794462525
 30
0.0
  0
VERTEX
  5
1CD
330
1C2
100
AcDbEntity
  8
DIBUJOS
 62
     7
100
AcDbVertex
100
AcDb2dVertex
 10
66.37379377997168
 20
31.59390711143571
 30
0.0
  0
VERTEX
  5
1CE
330
1C2
100
AcDbEntity
  8
DIBUJOS
 62
     7
100
AcDbVertex
100
AcDb2dVertex
 10
66.38522769016451
 20
31.63295748222208
 30
0.0
  0
VERTEX
  5
1CF
330
1C2
100
AcDbEntity
  8
DIBUJOS
 62
     7
100
AcDbVertex
100
AcDb2dVertex
 10
66.40103250782025
 20
31.72169095084599
 30
0.0
  0
VERTEX
  5
1D0
330
1C2
100
AcDbEntity
  8
DIBUJOS
 62
     7
100
AcDbVertex
100
AcDb2dVertex
 10
66.41174692707352
 20
31.87169207091739
 30
0.0
  0
VERTEX
  5
1D1
330
1C2
100
AcDbEntity
  8
DIBUJOS
 62
     7
100
AcDbVertex
100
AcDb2dVertex
 10
66.41161801828008
 20
32.00580892954172
 30
0.0
  0
VERTEX
  5
1D2
330
1C2
100
AcDbEntity
  8
DIBUJOS
 62
     7
100
AcDbVertex
100
AcDb2dVertex
 10
66.39006626673871
 20
32.19458986182685
 30
0.0
  0
VERTEX
  5
1D3
330
1C2
100
AcDbEntity
  8
DIBUJOS
 62
     7
100
AcDbVertex
100
AcDb2dVertex
 10
66.36658687905246
 20
32.32347167439083
 30
0.0
  0
VERTEX
  5
1D4
330
1C2
100
AcDbEntity
  8
DIBUJOS
 62
     7
100
AcDbVertex
100
AcDb2dVertex
 10
66.3459464827018
 20
32.40602726403483
 30
0.0
  0
VERTEX
  5
1D5
330
1C2
100
AcDbEntity
  8
DIBUJOS
 62
     7
100
AcDbVertex
100
AcDb2dVertex
 10
66.19000881290312
 20
32.9740863465704
 30
0.0
  0
VERTEX
  5
1D6
330
1C2
100
AcDbEntity
  8
DIBUJOS
 62
     7
100
AcDbVertex
100
AcDb2dVertex
 10
66.12711031532473
 20
33.1978360374947
 30
0.0
  0
VERTEX
  5
1D7
330
1C2
100
AcDbEntity
  8
DIBUJOS
 62
     7
100
AcDbVertex
100
AcDb2dVertex
 10
65.98981345663809
 20
33.76484736134785
 30
0.0
  0
VERTEX
  5
1D8
330
1C2
100
AcDbEntity
  8
DIBUJOS
 62
     7
100
AcDbVertex
100
AcDb2dVertex
 10
65.95417167418216
 20
33.87734426668562
 30
0.0
  0
VERTEX
  5
1D9
330
1C2
100
AcDbEntity
  8
DIBUJOS
 62
     7
100
AcDbVertex
100
AcDb2dVertex
 10
65.87581611290219
 20
34.0168745451665
 30
0.0
  0
VERTEX
  5
1DA
330
1C2
100
AcDbEntity
  8
DIBUJOS
 62
     7
100
AcDbVertex
100
AcDb2dVertex
 10
65.85910893369204
 20
34.04472034349673
 30
0.0
  0
VERTEX
  5
1DB
330
1C2
100
AcDbEntity
  8
DIBUJOS
 62
     7
100
AcDbVertex
100
AcDb2dVertex
 10
65.8522527846066
 20
34.06057162827528
 30
0.0
  0
VERTEX
  5
1DC
330
1C2
100
AcDbEntity
  8
DIBUJOS
 62
     7
100
AcDbVertex
100
AcDb2dVertex
 10
65.71179616154042
 20
34.18727997862343
 30
0.0
  0
VERTEX
  5
1DD
330
1C2
100
AcDbEntity
  8
DIBUJOS
 62
     7
100
AcDbVertex
100
AcDb2dVertex
 10
65.6567760897577
 20
34.2265342051756
 30
0.0
  0
VERTEX
  5
1DE
330
1C2
100
AcDbEntity
  8
DIBUJOS
 62
     7
100
AcDbVertex
100
AcDb2dVertex
 10
65.60219670617701
 20
34.25103736851175
 30
0.0
  0
VERTEX
  5
1DF
330
1C2
100
AcDbEntity
  8
DIBUJOS
 62
     7
100
AcDbVertex
100
AcDb2dVertex
 10
65.43407265857616
 20
34.32592738176251
 30
0.0
  0
VERTEX
  5
1E0
330
1C2
100
AcDbEntity
  8
DIBUJOS
 62
     7
100
AcDbVertex
100
AcDb2dVertex
 10
65.32923983069327
 20
34.35213483926421
 30
0.0
  0
VERTEX
  5
1E1
330
1C2
100
AcDbEntity
  8
DIBUJOS
 62
     7
100
AcDbVertex
100
AcDb2dVertex
 10
65.12855881804239
 20
34.39712250924704
 30
0.0
  0
VERTEX
  5
1E2
330
1C2
100
AcDbEntity
  8
DIBUJOS
 62
     7
100
AcDbVertex
100
AcDb2dVertex
 10
65.03944986508428
 20
34.4082611283668
 30
0.0
  0
VERTEX
  5
1E3
330
1C2
100
AcDbEntity
  8
DIBUJOS
 62
     7
100
AcDbVertex
100
AcDb2dVertex
 10
64.84965115290659
 20
34.43108547950894
 30
0.0
  0
VERTEX
  5
1E4
330
1C2
100
AcDbEntity
  8
DIBUJOS
 62
     7
100
AcDbVertex
100
AcDb2dVertex
 10
64.52691749586792
 20
34.44748537613041
 30
0.0
  0
VERTEX
  5
1E5
330
1C2
100
AcDbEntity
  8
DIBUJOS
 62
     7
100
AcDbVertex
100
AcDb2dVertex
 10
64.159218652938
 20
34.45041580277264
 30
0.0
  0
VERTEX
  5
1E6
330
1C2
100
AcDbEntity
  8
DIBUJOS
 62
     7
100
AcDbVertex
100
AcDb2dVertex
 10
63.92544405491207
 20
34.43663755126475
 30
0.0
  0
VERTEX
  5
1E7
330
1C2
100
AcDbEntity
  8
DIBUJOS
 62
     7
100
AcDbVertex
100
AcDb2dVertex
 10
63.59697545550308
 20
34.40894914157879
 30
0.0
  0
VERTEX
  5
1E8
330
1C2
100
AcDbEntity
  8
DIBUJOS
 62
     7
100
AcDbVertex
100
AcDb2dVertex
 10
63.49116232121317
 20
34.39781052245839
 30
0.0
  0
VERTEX
  5
1E9
330
1C2
100
AcDbEntity
  8
DIBUJOS
 62
     7
100
AcDbVertex
100
AcDb2dVertex
 10
63.15713865217003
 20
34.34234226777858
 30
0.0
  0
VERTEX
  5
1EA
330
1C2
100
AcDbEntity
  8
DIBUJOS
 62
     7
100
AcDbVertex
100
AcDb2dVertex
 10
63.12372129587076
 20
34.33677370768852
 30
0.0
  0
VERTEX
  5
1EB
330
1C2
100
AcDbEntity
  8
DIBUJOS
 62
     7
100
AcDbVertex
100
AcDb2dVertex
 10
62.77861147058864
 20
34.24268377890716
 30
0.0
  0
VERTEX
  5
1EC
330
1C2
100
AcDbEntity
  8
DIBUJOS
 62
     7
100
AcDbVertex
100
AcDb2dVertex
 10
62.77199515181585
 20
34.24075164594458
 30
0.0
  0
VERTEX
  5
1ED
330
1C2
100
AcDbEntity
  8
DIBUJOS
 62
     7
100
AcDbVertex
100
AcDb2dVertex
 10
62.61042146965141
 20
34.17306853361305
 30
0.0
  0
VERTEX
  5
1EE
330
1C2
100
AcDbEntity
  8
DIBUJOS
 62
     7
100
AcDbVertex
100
AcDb2dVertex
 10
62.58925944236935
 20
34.16471494400782
 30
0.0
  0
VERTEX
  5
1EF
330
1C2
100
AcDbEntity
  8
DIBUJOS
 62
     7
100
AcDbVertex
100
AcDb2dVertex
 10
62.40406247433028
 20
34.07856489754148
 30
0.0
  0
VERTEX
  5
1F0
330
1C2
100
AcDbEntity
  8
DIBUJOS
 62
     7
100
AcDbVertex
100
AcDb2dVertex
 10
62.37064811591
 20
34.0562876593013
 30
0.0
  0
VERTEX
  5
1F1
330
1C2
100
AcDbEntity
  8
DIBUJOS
 62
     7
100
AcDbVertex
100
AcDb2dVertex
 10
62.13759900458289
 20
33.89906539838655
 30
0.0
  0
VERTEX
  5
1F2
330
1C2
100
AcDbEntity
  8
DIBUJOS
 62
     7
100
AcDbVertex
100
AcDb2dVertex
 10
61.88837333861303
 20
33.64155359508748
 30
0.0
  0
VERTEX
  5
1F3
330
1C2
100
AcDbEntity
  8
DIBUJOS
 62
     7
100
AcDbVertex
100
AcDb2dVertex
 10
61.72119362287203
 20
33.39141057816959
 30
0.0
  0
VERTEX
  5
1F4
330
1C2
100
AcDbEntity
  8
DIBUJOS
 62
     7
100
AcDbVertex
100
AcDb2dVertex
 10
61.71305438160952
 20
33.3764166867613
 30
0.0
  0
VERTEX
  5
1F5
330
1C2
100
AcDbEntity
  8
DIBUJOS
 62
     7
100
AcDbVertex
100
AcDb2dVertex
 10
61.64917857550405
 20
33.24134275529199
 30
0.0
  0
VERTEX
  5
1F6
330
1C2
100
AcDbEntity
  8
DIBUJOS
 62
     7
100
AcDbVertex
100
AcDb2dVertex
 10
61.55086613426677
 20
33.00291544918568
 30
0.0
  0
VERTEX
  5
1F7
330
1C2
100
AcDbEntity
  8
DIBUJOS
 62
     7
100
AcDbVertex
100
AcDb2dVertex
 10
61.4718030735622
 20
32.6791819995277
 30
0.0
  0
VERTEX
  5
1F8
330
1C2
100
AcDbEntity
  8
DIBUJOS
 62
     7
100
AcDbVertex
100
AcDb2dVertex
 10
61.46066595338209
 20
32.56779730726842
 30
0.0
  0
VERTEX
  5
1F9
330
1C2
100
AcDbEntity
  8
DIBUJOS
 62
     7
100
AcDbVertex
100
AcDb2dVertex
 10
61.44144655163857
 20
32.32855008127802
 30
0.0
  0
VERTEX
  5
1FA
330
1C2
100
AcDbEntity
  8
DIBUJOS
 62
     7
100
AcDbVertex
100
AcDb2dVertex
 10
61.45520681587256
 20
32.12263477203727
 30
0.0
  0
VERTEX
  5
1FB
330
1C2
100
AcDbEntity
  8
DIBUJOS
 62
     7
100
AcDbVertex
100
AcDb2dVertex
 10
61.47143433445579
 20
32.0059648192457
 30
0.0
  0
VERTEX
  5
1FC
330
1C2
100
AcDbEntity
  8
DIBUJOS
 62
     7
100
AcDbVertex
100
AcDb2dVertex
 10
61.5102448749279
 20
31.82781361613438
 30
0.0
  0
VERTEX
  5
1FD
330
1C2
100
AcDbEntity
  8
DIBUJOS
 62
     7
100
AcDbVertex
100
AcDb2dVertex
 10
61.57677979963442
 20
31.64409535187201
 30
0.0
  0
VERTEX
  5
1FE
330
1C2
100
AcDbEntity
  8
DIBUJOS
 62
     7
100
AcDbVertex
100
AcDb2dVertex
 10
61.59348697884359
 20
31.59954237433197
 30
0.0
  0
VERTEX
  5
1FF
330
1C2
100
AcDbEntity
  8
DIBUJOS
 62
     7
100
AcDbVertex
100
AcDb2dVertex
 10
61.7199075328163
 20
31.38735550239458
 30
0.0
  0
VERTEX
  5
200
330
1C2
100
AcDbEntity
  8
DIBUJOS
 62
     7
100
AcDbVertex
100
AcDb2dVertex
 10
61.88250049381328
 20
31.23834518130584
 30
0.0
  0
VERTEX
  5
201
330
1C2
100
AcDbEntity
  8
DIBUJOS
 62
     7
100
AcDbVertex
100
AcDb2dVertex
 10
62.03791053692227
 20
31.16570132883446
 30
0.0
  0
VERTEX
  5
202
330
1C2
100
AcDbEntity
  8
DIBUJOS
 62
     7
100
AcDbVertex
100
AcDb2dVertex
 10
62.06470557869174
 20
31.15705244815616
 30
0.0
  0
VERTEX
  5
203
330
1C2
100
AcDbEntity
  8
DIBUJOS
 62
     7
100
AcDbVertex
100
AcDb2dVertex
 10
62.2378420798431
 20
31.13117250892684
 30
0.0
  0
VERTEX
  5
204
330
1C2
100
AcDbEntity
  8
DIBUJOS
 62
     7
100
AcDbVertex
100
AcDb2dVertex
 10
62.43262026890309
 20
31.1393634636003
 30
0.0
  0
VERTEX
  5
205
330
1C2
100
AcDbEntity
  8
DIBUJOS
 62
     7
100
AcDbVertex
100
AcDb2dVertex
 10
62.66076784820021
 20
31.16692671184195
 30
0.0
  0
VERTEX
  5
206
330
1C2
100
AcDbEntity
  8
DIBUJOS
 62
     7
100
AcDbVertex
100
AcDb2dVertex
 10
62.91690962083327
 20
31.20582943709115
 30
0.0
  0
VERTEX
  5
207
330
1C2
100
AcDbEntity
  8
DIBUJOS
 62
     7
100
AcDbVertex
100
AcDb2dVertex
 10
63.26280489039227
 20
31.24561503768214
 30
0.0
  0
VERTEX
  5
208
330
1C2
100
AcDbEntity
  8
DIBUJOS
 62
     7
100
AcDbVertex
100
AcDb2dVertex
 10
63.6914056435413
 20
31.25926363092548
 30
0.0
  0
VERTEX
  5
209
330
1C2
100
AcDbEntity
  8
DIBUJOS
 62
     7
100
AcDbVertex
100
AcDb2dVertex
 10
64.0586727919071
 20
31.22344947043197
 30
0.0
  0
VERTEX
  5
20A
330
1C2
100
AcDbEntity
  8
DIBUJOS
 62
     7
100
AcDbVertex
100
AcDb2dVertex
 10
64.19782533764366
 20
31.201313881971
 30
0.0
  0
VERTEX
  5
20B
330
1C2
100
AcDbEntity
  8
DIBUJOS
 62
     7
100
AcDbVertex
100
AcDb2dVertex
 10
64.89392382876754
 20
31.07333817831022
 30
0.0
  0
VERTEX
  5
20C
330
1C2
100
AcDbEntity
  8
DIBUJOS
 62
     7
100
AcDbVertex
100
AcDb2dVertex
 10
65.01649810408772
 20
31.0509455217322
 30
0.0
  0
VERTEX
  5
20D
330
1C2
100
AcDbEntity
  8
DIBUJOS
 62
     7
100
AcDbVertex
100
AcDb2dVertex
 10
65.223204853363
 20
31.02223333639443
 30
0.0
  0
VERTEX
  5
20E
330
1C2
100
AcDbEntity
  8
DIBUJOS
 62
     7
100
AcDbVertex
100
AcDb2dVertex
 10
65.48468584834879
 20
30.99751132789786
 30
0.0
  0
SEQEND
  5
20F
330
1C2
100
AcDbEntity
  8
DIBUJOS
 62
     7
  0
ENDBLK
  5
1C1
330
1BE
100
AcDbEntity
  8
0
100
AcDbBlockEnd
  0
BLOCK
  5
212
330
210
100
AcDbEntity
  8
0
100
AcDbBlockBegin
  2
BLOCK_5
 70
     0
 10
0.0
 20
0.0
 30
0.0
  3
BLOCK_5
  1

  0
POLYLINE
  5
214
330
210
100
AcDbEntity
  8
DIBUJOS
 62
     7
100
AcDb2dPolyline
 66
     1
 10
0.0
 20
0.0
 30
0.0
  0
VERTEX
  5
215
330
214
100
AcDbEntity
  8
DIBUJOS
 62
     7
100
AcDbVertex
100
AcDb2dVertex
 10
81.913989647299
 20
30.65779018997027
 30
0.0
  0
VERTEX
  5
216
330
214
100
AcDbEntity
  8
DIBUJOS
 62
     7
100
AcDbVertex
100
AcDb2dVertex
 10
82.1812010878368
 20
30.67159242450875
 30
0.0
  0
VERTEX
  5
217
330
214
100
AcDbEntity
  8
DIBUJOS
 62
     7
100
AcDbVertex
100
AcDb2dVertex
 10
82.31998489446694
 20
30.70958379456659
 30
0.0
  0
VERTEX
  5
218
330
214
100
AcDbEntity
  8
DIBUJOS
 62
     7
100
AcDbVertex
100
AcDb2dVertex
 10
82.34330989138823
 20
30.71708598655952
 30
0.0
  0
VERTEX
  5
219
330
214
100
AcDbEntity
  8
DIBUJOS
 62
     7
100
AcDbVertex
100
AcDb2dVertex
 10
82.49775311854643
 20
30.7649418771967
 30
0.0
  0
VERTEX
  5
21A
330
214
100
AcDbEntity
  8
DIBUJOS
 62
     7
100
AcDbVertex
100
AcDb2dVertex
 10
82.51646587875283
 20
30.77897644735117
 30
0.0
  0
VERTEX
  5
21B
330
214
100
AcDbEntity
  8
DIBUJOS
 62
     7
100
AcDbVertex
100
AcDb2dVertex
 10
82.70481661541284
 20
30.913973183438
 30
0.0
  0
VERTEX
  5
21C
330
214
100
AcDbEntity
  8
DIBUJOS
 62
     7
100
AcDbVertex
100
AcDb2dVertex
 10
82.73823097383313
 20
30.94738829132811
 30
0.0
  0
VERTEX
  5
21D
330
214
100
AcDbEntity
  8
DIBUJOS
 62
     7
100
AcDbVertex
100
AcDb2dVertex
 10
82.75922362095594
 20
30.98166079258849
 30
0.0
  0
VERTEX
  5
21E
330
214
100
AcDbEntity
  8
DIBUJOS
 62
     7
100
AcDbVertex
100
AcDb2dVertex
 10
82.88726302954424
 20
31.16002034828521
 30
0.0
  0
VERTEX
  5
21F
330
214
100
AcDbEntity
  8
DIBUJOS
 62
     7
100
AcDbVertex
100
AcDb2dVertex
 10
82.95346518969023
 20
31.36556991629757
 30
0.0
  0
VERTEX
  5
220
330
214
100
AcDbEntity
  8
DIBUJOS
 62
     7
100
AcDbVertex
100
AcDb2dVertex
 10
82.96824023593749
 20
31.41464444471573
 30
0.0
  0
VERTEX
  5
221
330
214
100
AcDbEntity
  8
DIBUJOS
 62
     7
100
AcDbVertex
100
AcDb2dVertex
 10
82.98627247762951
 20
31.49892306526773
 30
0.0
  0
VERTEX
  5
222
330
214
100
AcDbEntity
  8
DIBUJOS
 62
     7
100
AcDbVertex
100
AcDb2dVertex
 10
83.00255695591184
 20
31.73246232979835
 30
0.0
  0
VERTEX
  5
223
330
214
100
AcDbEntity
  8
DIBUJOS
 62
     7
100
AcDbVertex
100
AcDb2dVertex
 10
83.00555333589108
 20
31.83846058311162
 30
0.0
  0
VERTEX
  5
224
330
214
100
AcDbEntity
  8
DIBUJOS
 62
     7
100
AcDbVertex
100
AcDb2dVertex
 10
82.96969270827347
 20
32.12778812589682
 30
0.0
  0
VERTEX
  5
225
330
214
100
AcDbEntity
  8
DIBUJOS
 62
     7
100
AcDbVertex
100
AcDb2dVertex
 10
82.94232657057111
 20
32.25565965326522
 30
0.0
  0
VERTEX
  5
226
330
214
100
AcDbEntity
  8
DIBUJOS
 62
     7
100
AcDbVertex
100
AcDb2dVertex
 10
82.90891071321118
 20
32.38932008482502
 30
0.0
  0
VERTEX
  5
227
330
214
100
AcDbEntity
  8
DIBUJOS
 62
     7
100
AcDbVertex
100
AcDb2dVertex
 10
82.76217952956904
 20
32.92501106868306
 30
0.0
  0
VERTEX
  5
228
330
214
100
AcDbEntity
  8
DIBUJOS
 62
     7
100
AcDbVertex
100
AcDb2dVertex
 10
82.6638670883324
 20
33.2692530080183
 30
0.0
  0
VERTEX
  5
229
330
214
100
AcDbEntity
  8
DIBUJOS
 62
     7
100
AcDbVertex
100
AcDb2dVertex
 10
82.50042722654143
 20
33.94974454149491
 30
0.0
  0
VERTEX
  5
22A
330
214
100
AcDbEntity
  8
DIBUJOS
 62
     7
100
AcDbVertex
100
AcDb2dVertex
 10
82.45223632293425
 20
34.10463295367281
 30
0.0
  0
VERTEX
  5
22B
330
214
100
AcDbEntity
  8
DIBUJOS
 62
     7
100
AcDbVertex
100
AcDb2dVertex
 10
82.39165518575975
 20
34.21008334461364
 30
0.0
  0
VERTEX
  5
22C
330
214
100
AcDbEntity
  8
DIBUJOS
 62
     7
100
AcDbVertex
100
AcDb2dVertex
 10
82.38308874675143
 20
34.22293525153494
 30
0.0
  0
VERTEX
  5
22D
330
214
100
AcDbEntity
  8
DIBUJOS
 62
     7
100
AcDbVertex
100
AcDb2dVertex
 10
82.32611106003588
 20
34.32232393130354
 30
0.0
  0
VERTEX
  5
22E
330
214
100
AcDbEntity
  8
DIBUJOS
 62
     7
100
AcDbVertex
100
AcDb2dVertex
 10
82.29826526170567
 20
34.35016972963312
 30
0.0
  0
VERTEX
  5
22F
330
214
100
AcDbEntity
  8
DIBUJOS
 62
     7
100
AcDbVertex
100
AcDb2dVertex
 10
82.10946934002658
 20
34.50722111144995
 30
0.0
  0
VERTEX
  5
230
330
214
100
AcDbEntity
  8
DIBUJOS
 62
     7
100
AcDbVertex
100
AcDb2dVertex
 10
82.06937121055844
 20
34.52727092565384
 30
0.0
  0
VERTEX
  5
231
330
214
100
AcDbEntity
  8
DIBUJOS
 62
     7
100
AcDbVertex
100
AcDb2dVertex
 10
81.8365124645422
 20
34.63059582044129
 30
0.0
  0
VERTEX
  5
232
330
214
100
AcDbEntity
  8
DIBUJOS
 62
     7
100
AcDbVertex
100
AcDb2dVertex
 10
81.76306443105113
 20
34.64923513261434
 30
0.0
  0
VERTEX
  5
233
330
214
100
AcDbEntity
  8
DIBUJOS
 62
     7
100
AcDbVertex
100
AcDb2dVertex
 10
81.49110734818605
 20
34.71442550862573
 30
0.0
  0
VERTEX
  5
234
330
214
100
AcDbEntity
  8
DIBUJOS
 62
     7
100
AcDbVertex
100
AcDb2dVertex
 10
81.44647642579433
 20
34.72013646796481
 30
0.0
  0
VERTEX
  5
235
330
214
100
AcDbEntity
  8
DIBUJOS
 62
     7
100
AcDbVertex
100
AcDb2dVertex
 10
81.11745621666442
 20
34.75966050361915
 30
0.0
  0
VERTEX
  5
236
330
214
100
AcDbEntity
  8
DIBUJOS
 62
     7
100
AcDbVertex
100
AcDb2dVertex
 10
80.89494764761268
 20
34.77051282530314
 30
0.0
  0
VERTEX
  5
237
330
214
100
AcDbEntity
  8
DIBUJOS
 62
     7
100
AcDbVertex
100
AcDb2dVertex
 10
80.7834430401966
 20
34.77899832158047
 30
0.0
  0
VERTEX
  5
238
330
214
100
AcDbEntity
  8
DIBUJOS
 62
     7
100
AcDbVertex
100
AcDb2dVertex
 10
80.25993693520108
 20
34.77899832158047
 30
0.0
  0
VERTEX
  5
239
330
214
100
AcDbEntity
  8
DIBUJOS
 62
     7
100
AcDbVertex
100
AcDb2dVertex
 10
80.03172640044754
 20
34.76521407431525
 30
0.0
  0
VERTEX
  5
23A
330
214
100
AcDbEntity
  8
DIBUJOS
 62
     7
100
AcDbVertex
100
AcDb2dVertex
 10
79.69160804356271
 20
34.73689011429745
 30
0.0
  0
VERTEX
  5
23B
330
214
100
AcDbEntity
  8
DIBUJOS
 62
     7
100
AcDbVertex
100
AcDb2dVertex
 10
79.53621298984831
 20
34.72086045572333
 30
0.0
  0
VERTEX
  5
23C
330
214
100
AcDbEntity
  8
DIBUJOS
 62
     7
100
AcDbVertex
100
AcDb2dVertex
 10
79.12419650287364
 20
34.65421760737595
 30
0.0
  0
VERTEX
  5
23D
330
214
100
AcDbEntity
  8
DIBUJOS
 62
     7
100
AcDbVertex
100
AcDb2dVertex
 10
79.08445961781558
 20
34.64759529284616
 30
0.0
  0
VERTEX
  5
23E
330
214
100
AcDbEntity
  8
DIBUJOS
 62
     7
100
AcDbVertex
100
AcDb2dVertex
 10
78.68886701049297
 20
34.54119307534913
 30
0.0
  0
VERTEX
  5
23F
330
214
100
AcDbEntity
  8
DIBUJOS
 62
     7
100
AcDbVertex
100
AcDb2dVertex
 10
78.65649891181543
 20
34.53198808813095
 30
0.0
  0
VERTEX
  5
240
330
214
100
AcDbEntity
  8
DIBUJOS
 62
     7
100
AcDbVertex
100
AcDb2dVertex
 10
78.47835145605261
 20
34.45988310439537
 30
0.0
  0
VERTEX
  5
241
330
214
100
AcDbEntity
  8
DIBUJOS
 62
     7
100
AcDbVertex
100
AcDb2dVertex
 10
78.43825182764546
 20
34.44094850114926
 30
0.0
  0
VERTEX
  5
242
330
214
100
AcDbEntity
  8
DIBUJOS
 62
     7
100
AcDbVertex
100
AcDb2dVertex
 10
78.22246750100578
 20
34.3433150794867
 30
0.0
  0
VERTEX
  5
243
330
214
100
AcDbEntity
  8
DIBUJOS
 62
     7
100
AcDbVertex
100
AcDb2dVertex
 10
78.15949255751538
 20
34.30133278311974
 30
0.0
  0
VERTEX
  5
244
330
214
100
AcDbEntity
  8
DIBUJOS
 62
     7
100
AcDbVertex
100
AcDb2dVertex
 10
77.89302758882833
 20
34.1218332839648
 30
0.0
  0
VERTEX
  5
245
330
214
100
AcDbEntity
  8
DIBUJOS
 62
     7
100
AcDbVertex
100
AcDb2dVertex
 10
77.59925194319773
 20
33.8197415222158
 30
0.0
  0
VERTEX
  5
246
330
214
100
AcDbEntity
  8
DIBUJOS
 62
     7
100
AcDbVertex
100
AcDb2dVertex
 10
77.41536205036759
 20
33.54177818893857
 30
0.0
  0
VERTEX
  5
247
330
214
100
AcDbEntity
  8
DIBUJOS
 62
     7
100
AcDbVertex
100
AcDb2dVertex
 10
77.3819461930083
 20
33.49165665130846
 30
0.0
  0
VERTEX
  5
248
330
214
100
AcDbEntity
  8
DIBUJOS
 62
     7
100
AcDbVertex
100
AcDb2dVertex
 10
77.32608296778072
 20
33.36943312782144
 30
0.0
  0
VERTEX
  5
249
330
214
100
AcDbEntity
  8
DIBUJOS
 62
     7
100
AcDbVertex
100
AcDb2dVertex
 10
77.20912971543075
 20
33.10211226470313
 30
0.0
  0
VERTEX
  5
24A
330
214
100
AcDbEntity
  8
DIBUJOS
 62
     7
100
AcDbVertex
100
AcDb2dVertex
 10
77.1000593856967
 20
32.67426847598112
 30
0.0
  0
VERTEX
  5
24B
330
214
100
AcDbEntity
  8
DIBUJOS
 62
     7
100
AcDbVertex
100
AcDb2dVertex
 10
77.0830126966992
 20
32.50144375423741
 30
0.0
  0
VERTEX
  5
24C
330
214
100
AcDbEntity
  8
DIBUJOS
 62
     7
100
AcDbVertex
100
AcDb2dVertex
 10
77.0632169527337
 20
32.32855008127802
 30
0.0
  0
VERTEX
  5
24D
330
214
100
AcDbEntity
  8
DIBUJOS
 62
     7
100
AcDbVertex
100
AcDb2dVertex
 10
77.08253603395127
 20
31.94442885763505
 30
0.0
  0
VERTEX
  5
24E
330
214
100
AcDbEntity
  8
DIBUJOS
 62
     7
100
AcDbVertex
100
AcDb2dVertex
 10
77.09320473555027
 20
31.88901156689637
 30
0.0
  0
VERTEX
  5
24F
330
214
100
AcDbEntity
  8
DIBUJOS
 62
     7
100
AcDbVertex
100
AcDb2dVertex
 10
77.14461311270657
 20
31.6486798582072
 30
0.0
  0
VERTEX
  5
250
330
214
100
AcDbEntity
  8
DIBUJOS
 62
     7
100
AcDbVertex
100
AcDb2dVertex
 10
77.19520681626628
 20
31.50375189873484
 30
0.0
  0
VERTEX
  5
251
330
214
100
AcDbEntity
  8
DIBUJOS
 62
     7
100
AcDbVertex
100
AcDb2dVertex
 10
77.24867098888981
 20
31.36563586963394
 30
0.0
  0
VERTEX
  5
252
330
214
100
AcDbEntity
  8
DIBUJOS
 62
     7
100
AcDbVertex
100
AcDb2dVertex
 10
77.32625459634785
 20
31.23227447649698
 30
0.0
  0
VERTEX
  5
253
330
214
100
AcDbEntity
  8
DIBUJOS
 62
     7
100
AcDbVertex
100
AcDb2dVertex
 10
77.35709977253534
 20
31.18600746168557
 30
0.0
  0
VERTEX
  5
254
330
214
100
AcDbEntity
  8
DIBUJOS
 62
     7
100
AcDbVertex
100
AcDb2dVertex
 10
77.3973687811014
 20
31.12003388980644
 30
0.0
  0
VERTEX
  5
255
330
214
100
AcDbEntity
  8
DIBUJOS
 62
     7
100
AcDbVertex
100
AcDb2dVertex
 10
77.58238137958695
 20
30.9487710629786
 30
0.0
  0
VERTEX
  5
256
330
214
100
AcDbEntity
  8
DIBUJOS
 62
     7
100
AcDbVertex
100
AcDb2dVertex
 10
77.62626283224927
 20
30.92622551457655
 30
0.0
  0
VERTEX
  5
257
330
214
100
AcDbEntity
  8
DIBUJOS
 62
     7
100
AcDbVertex
100
AcDb2dVertex
 10
77.78220050204794
 20
30.85438284524616
 30
0.0
  0
VERTEX
  5
258
330
214
100
AcDbEntity
  8
DIBUJOS
 62
     7
100
AcDbVertex
100
AcDb2dVertex
 10
77.91006903153769
 20
30.83277413400441
 30
0.0
  0
VERTEX
  5
259
330
214
100
AcDbEntity
  8
DIBUJOS
 62
     7
100
AcDbVertex
100
AcDb2dVertex
 10
78.07681105695724
 20
30.81372785976895
 30
0.0
  0
VERTEX
  5
25A
330
214
100
AcDbEntity
  8
DIBUJOS
 62
     7
100
AcDbVertex
100
AcDb2dVertex
 10
78.41619793138466
 20
30.84391275312482
 30
0.0
  0
VERTEX
  5
25B
330
214
100
AcDbEntity
  8
DIBUJOS
 62
     7
100
AcDbVertex
100
AcDb2dVertex
 10
78.52758262364394
 20
30.86062068180447
 30
0.0
  0
VERTEX
  5
25C
330
214
100
AcDbEntity
  8
DIBUJOS
 62
     7
100
AcDbVertex
100
AcDb2dVertex
 10
79.0962023095377
 20
30.93930900764401
 30
0.0
  0
VERTEX
  5
25D
330
214
100
AcDbEntity
  8
DIBUJOS
 62
     7
100
AcDbVertex
100
AcDb2dVertex
 10
79.15143822860152
 20
30.94433045483146
 30
0.0
  0
VERTEX
  5
25E
330
214
100
AcDbEntity
  8
DIBUJOS
 62
     7
100
AcDbVertex
100
AcDb2dVertex
 10
79.3298809754374
 20
30.96409622000776
 30
0.0
  0
VERTEX
  5
25F
330
214
100
AcDbEntity
  8
DIBUJOS
 62
     7
100
AcDbVertex
100
AcDb2dVertex
 10
79.7976939848341
 20
30.96409622000776
 30
0.0
  0
VERTEX
  5
260
330
214
100
AcDbEntity
  8
DIBUJOS
 62
     7
100
AcDbVertex
100
AcDb2dVertex
 10
80.20943916376694
 20
30.92285439973293
 30
0.0
  0
VERTEX
  5
261
330
214
100
AcDbEntity
  8
DIBUJOS
 62
     7
100
AcDbVertex
100
AcDb2dVertex
 10
80.34866815541616
 20
30.90057716149276
 30
0.0
  0
VERTEX
  5
262
330
214
100
AcDbEntity
  8
DIBUJOS
 62
     7
100
AcDbVertex
100
AcDb2dVertex
 10
81.23417113763979
 20
30.73907018213419
 30
0.0
  0
VERTEX
  5
263
330
214
100
AcDbEntity
  8
DIBUJOS
 62
     7
100
AcDbVertex
100
AcDb2dVertex
 10
81.3510719271077
 20
30.71690911170298
 30
0.0
  0
VERTEX
  5
264
330
214
100
AcDbEntity
  8
DIBUJOS
 62
     7
100
AcDbVertex
100
AcDb2dVertex
 10
81.60795567477318
 20
30.68251219846747
 30
0.0
  0
VERTEX
  5
265
330
214
100
AcDbEntity
  8
DIBUJOS
 62
     7
100
AcDbVertex
100
AcDb2dVertex
 10
81.65196603622893
 20
30.6776219084823
 30
0.0
  0
VERTEX
  5
266
330
214
100
AcDbEntity
  8
DIBUJOS
 62
     7
100
AcDbVertex
100
AcDb2dVertex
 10
81.80830692074218
 20
30.66042907288793
 30
0.0
  0
VERTEX
  5
267
330
214
100
AcDbEntity
  8
DIBUJOS
 62
     7
100
AcDbVertex
100
AcDb2dVertex
 10
81.913989647299
 20
30.65779018997027
 30
0.0
  0
SEQEND
  5
268
330
214
100
AcDbEntity
  8
DIBUJOS
 62
     7
  0
ENDBLK
  5
213
330
210
100
AcDbEntity
  8
0
100
AcDbBlockEnd
  0
ENDSEC
  0
SECTION
  2
ENTITIES
  0
MTEXT
  5
41
330
1F
100
AcDbEntity
  8
REFERENCIAS
 62
   255
100
AcDbMText
 10
56.23461658343484
 20
54.85563098807646
 30
0.0
 40
1.49859999962535
 41
0.0
 71
     7
 72
     1
  1
\fMyriad Pro|b0|i0|c0|p34;\W1;OVAR_1047-A_1047-B__AUXILIARY_TABLE
  0
MTEXT
  5
43
330
1F
100
AcDbEntity
  8
M_U_00C1RGENES
 62
   255
100
AcDbMText
 10
90.14127864703391
 20
23.7555119243149
 30
0.0
 40
1.748366666229575
 41
0.0
 71
     7
 72
     1
  1
\fMyriad Pro|b0|i0|c0|p34;\W1;400
  0
MTEXT
  5
44
330
1F
100
AcDbEntity
  8
M_U_00C1RGENES
 62
   255
100
AcDbMText
 10
84.21176331851954
 20
20.50332059082737
 30
0.0
 40
1.748366666229575
 41
0.0
 71
     7
 72
     1
  1
\fMyriad Pro|b0|i0|c0|p34;\W1;400
  0
POLYLINE
  5
45
330
1F
100
AcDbEntity
  8
M_U_00C1RGENES
 62
   255
100
AcDb2dPolyline
 66
     1
 10
0.0
 20
0.0
 30
0.0
  0
VERTEX
  5
46
330
45
100
AcDbEntity
  8
M_U_00C1RGENES
 62
   255
100
AcDbVertex
100
AcDb2dVertex
 10
84.41666477502157
 20
24.76314475783758
 30
0.0
  0
VERTEX
  5
47
330
45
100
AcDbEntity
  8
M_U_00C1RGENES
 62
   255
100
AcDbVertex
100
AcDb2dVertex
 10
94.99999810570907
 20
19.74726776251925
 30
0.0
  0
SEQEND
  5
48
330
45
100
AcDbEntity
  8
M_U_00C1RGENES
 62
   255
  0
POLYLINE
  5
49
330
1F
100
AcDbEntity
  8
M_U_00C1RGENES
 62
   254
100
AcDb2dPolyline
 66
     1
 10
0.0
 20
0.0
 30
0.0
  0
VERTEX
  5
4A
330
49
100
AcDbEntity
  8
M_U_00C1RGENES
 62
   254
100
AcDbVertex
100
AcDb2dVertex
 10
54.99999767595828
 20
20.88258920325216
 30
0.0
  0
VERTEX
  5
4B
330
49
100
AcDbEntity
  8
M_U_00C1RGENES
 62
   254
100
AcDbVertex
100
AcDb2dVertex
 10
54.99999767595828
 20
19.74726776251925
 30
0.0
  0
SEQEND
  5
4C
330
49
100
AcDbEntity
  8
M_U_00C1RGENES
 62
   254
  0
POLYLINE
  5
4D
330
1F
100
AcDbEntity
  8
M_U_00C1RGENES
 62
   255
100
AcDb2dPolyline
 66
     1
 10
0.0
 20
0.0
 30
0.0
  0
VERTEX
  5
4E
330
4D
100
AcDbEntity
  8
M_U_00C1RGENES
 62
   255
100
AcDbVertex
100
AcDb2dVertex
 10
94.99999797321169
 20
59.74726768656564
 30
0.0
  0
VERTEX
  5
4F
330
4D
100
AcDbEntity
  8
M_U_00C1RGENES
 62
   255
100
AcDbVertex
100
AcDb2dVertex
 10
93.86467653247878
 20
59.74726768651462
 30
0.0
  0
SEQEND
  5
50
330
4D
100
AcDbEntity
  8
M_U_00C1RGENES
 62
   255
  0
INSERT
  5
53
330
1F
100
AcDbEntity
  8
DIBUJOS
100
AcDbBlockReference
  2
BLOCK_2
 10
0.0
 20
0.0
 30
0.0
  0
INSERT
  5
F3
330
1F
100
AcDbEntity
  8
DIBUJOS
100
AcDbBlockReference
  2
BLOCK_3
 10
0.0
 20
0.0
 30
0.0
  0
INSERT
  5
1BF
330
1F
100
AcDbEntity
  8
DIBUJOS
100
AcDbBlockReference
  2
BLOCK_4
 10
0.0
 20
0.0
 30
0.0
  0
INSERT
  5
211
330
1F
100
AcDbEntity
  8
DIBUJOS
100
AcDbBlockReference
  2
BLOCK_5
 10
0.0
 20
0.0
 30
0.0
  0
POLYLINE
  5
26A
330
1F
100
AcDbEntity
  8
COTAS_LINEA
 62
     7
100
AcDb2dPolyline
 66
     1
 10
0.0
 20
0.0
 30
0.0
  0
VERTEX
  5
26B
330
26A
100
AcDbEntity
  8
COTAS_LINEA
 62
     7
100
AcDbVertex
100
AcDb2dVertex
 10
68.33539722899562
 20
47.32603535662522
 30
0.0
  0
VERTEX
  5
26C
330
26A
100
AcDbEntity
  8
COTAS_LINEA
 62
     7
100
AcDbVertex
100
AcDb2dVertex
 10
68.3353972298587
 20
42.6842049620326
 30
0.0
  0
SEQEND
  5
26D
330
26A
100
AcDbEntity
  8
COTAS_LINEA
 62
     7
  0
POLYLINE
  5
26E
330
1F
100
AcDbEntity
  8
COTAS_LINEA
 62
     7
100
AcDb2dPolyline
 66
     1
 10
0.0
 20
0.0
 30
0.0
  0
VERTEX
  5
26F
330
26E
100
AcDbEntity
  8
COTAS_LINEA
 62
     7
100
AcDbVertex
100
AcDb2dVertex
 10
61.59742232992795
 20
38.66119575631178
 30
0.0
  0
VERTEX
  5
270
330
26E
100
AcDbEntity
  8
COTAS_LINEA
 62
     7
100
AcDbVertex
100
AcDb2dVertex
 10
66.39955272680669
 20
38.66119575631178
 30
0.0
  0
SEQEND
  5
271
330
26E
100
AcDbEntity
  8
COTAS_LINEA
 62
     7
  0
POLYLINE
  5
272
330
1F
100
AcDbEntity
  8
COTAS_LINEA
 62
     7
100
AcDb2dPolyline
 66
     1
 10
0.0
 20
0.0
 30
0.0
  0
VERTEX
  5
273
330
272
100
AcDbEntity
  8
COTAS_LINEA
 62
     7
100
AcDbVertex
100
AcDb2dVertex
 10
84.91595069007847
 20
46.67895424472604
 30
0.0
  0
VERTEX
  5
274
330
272
100
AcDbEntity
  8
COTAS_LINEA
 62
     7
100
AcDbVertex
100
AcDb2dVertex
 10
84.91595069094156
 20
42.68420120987265
 30
0.0
  0
SEQEND
  5
275
330
272
100
AcDbEntity
  8
COTAS_LINEA
 62
     7
  0
POLYLINE
  5
276
330
1F
100
AcDbEntity
  8
COTAS_LINEA
 62
     7
100
AcDb2dPolyline
 66
     1
 10
0.0
 20
0.0
 30
0.0
  0
VERTEX
  5
277
330
276
100
AcDbEntity
  8
COTAS_LINEA
 62
     7
100
AcDbVertex
100
AcDb2dVertex
 10
68.33539618293217
 20
34.65499434403398
 30
0.0
  0
VERTEX
  5
278
330
276
100
AcDbEntity
  8
COTAS_LINEA
 62
     7
100
AcDbVertex
100
AcDb2dVertex
 10
68.33539618379527
 20
30.33698106819808
 30
0.0
  0
SEQEND
  5
279
330
276
100
AcDbEntity
  8
COTAS_LINEA
 62
     7
  0
POLYLINE
  5
27A
330
1F
100
AcDbEntity
  8
COTAS_LINEA
 62
     7
100
AcDb2dPolyline
 66
     1
 10
0.0
 20
0.0
 30
0.0
  0
VERTEX
  5
27B
330
27A
100
AcDbEntity
  8
COTAS_LINEA
 62
     7
100
AcDbVertex
100
AcDb2dVertex
 10
84.91595173434291
 20
34.65499434403398
 30
0.0
  0
VERTEX
  5
27C
330
27A
100
AcDbEntity
  8
COTAS_LINEA
 62
     7
100
AcDbVertex
100
AcDb2dVertex
 10
84.91595173520601
 20
30.33698106819808
 30
0.0
  0
SEQEND
  5
27D
330
27A
100
AcDbEntity
  8
COTAS_LINEA
 62
     7
  0
POLYLINE
  5
27E
330
1F
100
AcDbEntity
  8
COTAS_LINEA
 62
     7
100
AcDb2dPolyline
 66
     1
 10
0.0
 20
0.0
 30
0.0
  0
VERTEX
  5
27F
330
27E
100
AcDbEntity
  8
COTAS_LINEA
 62
     7
100
AcDbVertex
100
AcDb2dVertex
 10
77.47242232595953
 20
38.66119575631178
 30
0.0
  0
VERTEX
  5
280
330
27E
100
AcDbEntity
  8
COTAS_LINEA
 62
     7
100
AcDbVertex
100
AcDb2dVertex
 10
82.27455272283794
 20
38.66119575631178
 30
0.0
  0
SEQEND
  5
281
330
27E
100
AcDbEntity
  8
COTAS_LINEA
 62
     7
  0
MTEXT
  5
283
330
1F
100
AcDbEntity
  8
COTAS_N_U_00DAMERO
 62
     7
100
AcDbMText
 10
69.11070940621137
 20
44.07784893205508
 30
0.0
 40
1.998533025814148
 41
0.0
 71
     7
 72
     1
  1
\fMyriad Pro|b0|i0|c0|p34;\W1;47
  0
MTEXT
  5
284
330
1F
100
AcDbEntity
  8
COTAS_N_U_00DAMERO
 62
     7
100
AcDbMText
 10
62.49285861678239
 20
39.21616786400239
 30
0.0
 40
1.998533025814148
 41
0.0
 71
     7
 72
     1
  1
\fMyriad Pro|b0|i0|c0|p34;\W1;50
  0
MTEXT
  5
285
330
1F
100
AcDbEntity
  8
COTAS_N_U_00DAMERO
 62
     7
100
AcDbMText
 10
85.69126495762178
 20
43.7250711543655
 30
0.0
 40
1.998533025814148
 41
0.0
 71
     7
 72
     1
  1
\fMyriad Pro|b0|i0|c0|p34;\W1;44
  0
MTEXT
  5
286
330
1F
100
AcDbEntity
  8
COTAS_N_U_00DAMERO
 62
     7
100
AcDbMText
 10
69.11070940621137
 20
31.73062671291967
 30
0.0
 40
1.998533025814148
 41
0.0
 71
     7
 72
     1
  1
\fMyriad Pro|b0|i0|c0|p34;\W1;35
  0
MTEXT
  5
287
330
1F
100
AcDbEntity
  8
COTAS_N_U_00DAMERO
 62
     7
100
AcDbMText
 10
85.69126495762178
 20
31.73062671291967
 30
0.0
 40
1.998533025814148
 41
0.0
 71
     7
 72
     1
  1
\fMyriad Pro|b0|i0|c0|p34;\W1;42
  0
MTEXT
  5
288
330
1F
100
AcDbEntity
  8
COTAS_N_U_00DAMERO
 62
     7
100
AcDbMText
 10
78.36785861281363
 20
39.21616786400239
 30
0.0
 40
1.998533025814148
 41
0.0
 71
     7
 72
     1
  1
\fMyriad Pro|b0|i0|c0|p34;\W1;60
  0
ENDSEC
  0
SECTION
  2
OBJECTS
  0
DICTIONARY
  5
C
330
0
100
AcDbDictionary
  3
ACAD_GROUP
350
D
  3
ACAD_LAYOUT
350
1A
  3
ACAD_MATERIAL
350
3B
  3
ACAD_MLEADERSTYLE
350
2AB
  3
ACAD_MLINESTYLE
350
17
  3
ACAD_PLOTSETTINGS
350
19
  3
ACAD_VISUALSTYLE
350
2A
  3
ACDBHEADERROUNDTRIPXREC
350
289
  3
ACDBVARIABLEDICTIONARY
350
2A9
  0
DICTIONARY
  5
D
102
{ACAD_REACTORS
330
C
102
}
330
C
100
AcDbDictionary
  0
DICTIONARY
  5
1A
102
{ACAD_REACTORS
330
C
102
}
330
C
100
AcDbDictionary
  0
DICTIONARY
  5
3B
102
{ACAD_REACTORS
330
C
102
}
330
C
100
AcDbDictionary
  3
BYBLOCK
350
3D
  3
BYLAYER
350
3C
  3
GLOBAL
350
3E
  0
DICTIONARY
  5
2AB
102
{ACAD_REACTORS
330
C
102
}
330
C
100
AcDbDictionary
  0
DICTIONARY
  5
17
102
{ACAD_REACTORS
330
C
102
}
330
C
100
AcDbDictionary
  3
STANDARD
350
18
  0
DICTIONARY
  5
19
102
{ACAD_REACTORS
330
C
102
}
330
C
100
AcDbDictionary
  0
DICTIONARY
  5
2A
102
{ACAD_REACTORS
330
C
102
}
330
C
100
AcDbDictionary
  3
2DWIREFRAME
350
2F
  3
3D_HIDDEN
350
31
  3
3DWIREFRAME
350
30
  3
BASIC
350
32
  3
BRIGHTEN
350
36
  3
COLORCHANGE
350
3A
  3
CONCEPTUAL
350
34
  3
DIM
350
35
  3
FACEPATTERN
350
39
  3
FLAT
350
2B
  3
FLATWITHEDGES
350
2C
  3
GOURAUD
350
2D
  3
GOURAUDWITHEDGES
350
2E
  3
LINEPATTERN
350
38
  3
REALISTIC
350
33
  3
THICKEN
350
37
  0
DICTIONARY
  5
289
102
{ACAD_REACTORS
330
C
102
}
330
C
100
AcDbDictionary
  3
CEPSNTYPE
350
292
  3
DIMSTYLEDATA
350
2A8
  3
FINGERPRINTGUID
350
293
  3
HYPERLINKBASE
350
28C
  3
INSUNITS
350
291
  3
LAYOUTDICT
350
28E
  3
LWETCUNION
350
290
  3
PLOTSETDICT
350
28F
  3
PSVPSCALE
350
295
  3
PUCSBASE
350
298
  3
PUCSORGBACK
350
29E
  3
PUCSORGBOTTOM
350
29A
  3
PUCSORGFRONT
350
29D
  3
PUCSORGLEFT
350
29B
  3
PUCSORGRIGHT
350
29C
  3
PUCSORGTOP
350
299
  3
PUCSORTHOREF
350
296
  3
PUCSORTHOVIEW
350
297
  3
STYLESHEET
350
28D
  3
TSTACKALIGN
350
28A
  3
TSTACKSIZE
350
28B
  3
UCSBASE
350
2A1
  3
UCSORGBACK
350
2A7
  3
UCSORGBOTTOM
350
2A3
  3
UCSORGFRONT
350
2A6
  3
UCSORGLEFT
350
2A4
  3
UCSORGRIGHT
350
2A5
  3
UCSORGTOP
350
2A2
  3
UCSORTHOREF
350
29F
  3
UCSORTHOVIEW
350
2A0
  3
VERSIONGUID
350
294
  0
DICTIONARY
  5
2A9
102
{ACAD_REACTORS
330
C
102
}
330
C
100
AcDbDictionary
  3
DIMASSOC
350
2AC
  3
HIDETEXT
350
2AD
  0
MATERIAL
  5
3D
102
{ACAD_REACTORS
330
3B
102
}
102
{ACAD_XDICTIONARY
360
2B0
102
}
330
3B
100
AcDbMaterial
  1
ByBlock
  0
MATERIAL
  5
3C
102
{ACAD_REACTORS
330
3B
102
}
102
{ACAD_XDICTIONARY
360
2AE
102
}
330
3B
100
AcDbMaterial
  1
ByLayer
  0
MATERIAL
  5
3E
102
{ACAD_REACTORS
330
3B
102
}
102
{ACAD_XDICTIONARY
360
2B2
102
}
330
3B
100
AcDbMaterial
  1
Global
  0
MLINESTYLE
  5
18
102
{ACAD_REACTORS
330
17
102
}
330
17
100
AcDbMlineStyle
  2
Standard
 70
     0
  3

 62
   256
 51
90.0
 52
90.0
 71
     2
 49
0.5
 62
   256
  6
BYLAYER
 49
-0.5
 62
   256
  6
BYLAYER
  0
ACAD_PROXY_OBJECT
  5
2F
102
{ACAD_REACTORS
330
2A
102
}
330
2A
100
AcDbProxyObject
 90
      499
 91
      501
 93
      436
310
42CC9915DA5C99599C985B595049028333333333333E3BF0000000000000FB0107901411070040501600405405064090741402480A0340
1001
ACAD
1000
AcDbSavedByObjectVersion
1070
     0
  0
ACAD_PROXY_OBJECT
  5
31
102
{ACAD_REACTORS
330
2A
102
}
330
2A
100
AcDbProxyObject
 90
      499
 91
      501
 93
      500
310
424CD108121A5919195B90640502408333333333333E3BF0000000000000FB01079024090700405020000000000001110200405405064090740C02480A0340
1001
ACAD
1000
AcDbSavedByObjectVersion
1070
     0
  0
ACAD_PROXY_OBJECT
  5
30
102
{ACAD_REACTORS
330
2A
102
}
330
2A
100
AcDbProxyObject
 90
      499
 91
      501
 93
      436
310
42CCD915DA5C99599C985B595059028333333333333E3BF0000000000000FB0107901411070040501600405405064090741402480A0340
1001
ACAD
1000
AcDbSavedByObjectVersion
1070
     0
  0
ACAD_PROXY_OBJECT
  5
32
102
{ACAD_REACTORS
330
2A
102
}
330
2A
100
AcDbProxyObject
 90
      499
 91
      501
 93
      388
310
4150985CDA58D07406404333333333333E3BF0000000000000FB0107A41107004050150841D405064090741402480A0350
1001
ACAD
1000
AcDbSavedByObjectVersion
1070
     0
  0
ACAD_PROXY_OBJECT
  5
36
102
{ACAD_REACTORS
330
2A
102
}
330
2A
100
AcDbProxyObject
 90
      499
 91
      501
 93
      428
310
42109C9A59DA1D195B90C409028333333333333E3BF0000000000000FB010790141107004050150841D405064090741402480A029950
1001
ACAD
1000
AcDbSavedByObjectVersion
1070
     0
  0
ACAD_PROXY_OBJECT
  5
3A
102
{ACAD_REACTORS
330
2A
102
}
330
2A
100
AcDbProxyObject
 90
      499
 91
      501
 93
      452
310
42D0DBDB1BDC90DA185B99D95104090240C333333333333E3BF0000000000000FB0108901411070040501508421405064090741402480A0350
1001
ACAD
1000
AcDbSavedByObjectVersion
1070
     0
  0
ACAD_PROXY_OBJECT
  5
34
102
{ACAD_REACTORS
330
2A
102
}
330
2A
100
AcDbProxyObject
 90
      499
 91
      501
 93
      500
310
4290DBDB98D95C1D1D585B10940D028333333333333E3BF0000000000000FB0107902409070040501000000000000111010841D405064090740C02480A0340
1001
ACAD
1000
AcDbSavedByObjectVersion
1070
     0
  0
ACAD_PROXY_OBJECT
  5
35
102
{ACAD_REACTORS
330
2A
102
}
330
2A
100
AcDbProxyObject
 90
      499
 91
      501
 93
      412
310
40D11A5B50B409028333333333333E3BF0000000000000FB010790141107004050150841D405064090741402480A02677FFFFFD0
1001
ACAD
1000
AcDbSavedByObjectVersion
1070
     0
  0
ACAD_PROXY_OBJECT
  5
39
102
{ACAD_REACTORS
330
2A
102
}
330
2A
100
AcDbProxyObject
 90
      499
 91
      501
 93
      444
310
42D19858D95C185D1D195C9B90F409028333333333333E3BF0000000000000FB010790141107004050150841D405064090741402480A0350
1001
ACAD
1000
AcDbSavedByObjectVersion
1070
     0
  0
ACAD_PROXY_OBJECT
  5
2B
102
{ACAD_REACTORS
330
2A
102
}
330
2A
100
AcDbProxyObject
 90
      499
 91
      501
 93
      388
310
41119B185D240901404333333333333E3BF0000000000000F9010740A41107004050150841D405064090741402480A1B50
1001
ACAD
1000
AcDbSavedByObjectVersion
1070
     0
  0
ACAD_PROXY_OBJECT
  5
2C
102
{ACAD_REACTORS
330
2A
102
}
330
2A
100
AcDbProxyObject
 90
      499
 91
      501
 93
      476
310
43519B185D15DA5D1A115919D95CD0140901404333333333333E3BF0000000000000F9010740901411070040501600405405064090741402480A1B50
1001
ACAD
1000
AcDbSavedByObjectVersion
1070
     0
  0
ACAD_PROXY_OBJECT
  5
2D
102
{ACAD_REACTORS
330
2A
102
}
330
2A
100
AcDbProxyObject
 90
      499
 91
      501
 93
      412
310
41D1DBDD5C985D5910240902404333333333333E3BF0000000000000F9010740A411070040501641D405064090741402480A1B50
1001
ACAD
1000
AcDbSavedByObjectVersion
1070
     0
  0
ACAD_PROXY_OBJECT
  5
2E
102
{ACAD_REACTORS
330
2A
102
}
330
2A
100
AcDbProxyObject
 90
      499
 91
      501
 93
      500
310
4411DBDD5C985D5915DA5D1A115919D95CD0340902404333333333333E3BF0000000000000F9010740901411070040501600405405064090741402480A1B50
1001
ACAD
1000
AcDbSavedByObjectVersion
1070
     0
  0
ACAD_PROXY_OBJECT
  5
38
102
{ACAD_REACTORS
330
2A
102
}
330
2A
100
AcDbProxyObject
 90
      499
 91
      501
 93
      444
310
42D31A5B995C185D1D195C9B90E409028333333333333E3BF0000000000000FB010790141107004050750841D405064090741402483A0350
1001
ACAD
1000
AcDbSavedByObjectVersion
1070
     0
  0
ACAD_PROXY_OBJECT
  5
33
102
{ACAD_REACTORS
330
2A
102
}
330
2A
100
AcDbProxyObject
 90
      499
 91
      501
 93
      420
310
425499585B1A5CDD1A58D08409028333333333333E3BF0000000000000FB01079019070040501508421405064090741402480A1B40
1001
ACAD
1000
AcDbSavedByObjectVersion
1070
     0
  0
ACAD_PROXY_OBJECT
  5
37
102
{ACAD_REACTORS
330
2A
102
}
330
2A
100
AcDbProxyObject
 90
      499
 91
      501
 93
      412
310
41D51A1A58DAD95B90D409028333333333333E3BF0000000000000FB010790141107004050150C41D405064090741402480A0350
1001
ACAD
1000
AcDbSavedByObjectVersion
1070
     0
  0
XRECORD
  5
292
102
{ACAD_REACTORS
330
289
102
}
330
289
100
AcDbXrecord
 90
        0
  0
XRECORD
  5
2A8
102
{ACAD_REACTORS
330
289
102
}
330
289
100
AcDbXrecord
1000
DSTYLE
1002
{
1070
   340
340
11
1002
}
  0
XRECORD
  5
293
102
{ACAD_REACTORS
330
289
102
}
330
289
100
AcDbXrecord
  1
{5A7F8C30-A84D-41E3-98E6-4F73A8BF4480}
  0
XRECORD
  5
28C
102
{ACAD_REACTORS
330
289
102
}
330
289
100
AcDbXrecord
  1

  0
XRECORD
  5
291
102
{ACAD_REACTORS
330
289
102
}
330
289
100
AcDbXrecord
 90
        1
  0
XRECORD
  5
28E
102
{ACAD_REACTORS
330
289
102
}
330
289
100
AcDbXrecord
340
1A
  0
XRECORD
  5
290
102
{ACAD_REACTORS
330
289
102
}
330
289
100
AcDbXrecord
 90
    10269
  0
XRECORD
  5
28F
102
{ACAD_REACTORS
330
289
102
}
330
289
100
AcDbXrecord
340
19
  0
XRECORD
  5
295
102
{ACAD_REACTORS
330
289
102
}
330
289
100
AcDbXrecord
 40
0.0
  0
XRECORD
  5
298
102
{ACAD_REACTORS
330
289
102
}
330
289
100
AcDbXrecord
340
0
  0
XRECORD
  5
29E
102
{ACAD_REACTORS
330
289
102
}
330
289
100
AcDbXrecord
 10
0.0
 20
0.0
 30
0.0
  0
XRECORD
  5
29A
102
{ACAD_REACTORS
330
289
102
}
330
289
100
AcDbXrecord
 10
0.0
 20
0.0
 30
0.0
  0
XRECORD
  5
29D
102
{ACAD_REACTORS
330
289
102
}
330
289
100
AcDbXrecord
 10
0.0
 20
0.0
 30
0.0
  0
XRECORD
  5
29B
102
{ACAD_REACTORS
330
289
102
}
330
289
100
AcDbXrecord
 10
0.0
 20
0.0
 30
0.0
  0
XRECORD
  5
29C
102
{ACAD_REACTORS
330
289
102
}
330
289
100
AcDbXrecord
 10
0.0
 20
0.0
 30
0.0
  0
XRECORD
  5
299
102
{ACAD_REACTORS
330
289
102
}
330
289
100
AcDbXrecord
 10
0.0
 20
0.0
 30
0.0
  0
XRECORD
  5
296
102
{ACAD_REACTORS
330
289
102
}
330
289
100
AcDbXrecord
340
0
  0
XRECORD
  5
297
102
{ACAD_REACTORS
330
289
102
}
330
289
100
AcDbXrecord
 70
     0
  0
XRECORD
  5
28D
102
{ACAD_REACTORS
330
289
102
}
330
289
100
AcDbXrecord
  1

  0
XRECORD
  5
28A
102
{ACAD_REACTORS
330
289
102
}
330
289
100
AcDbXrecord
 90
        1
  0
XRECORD
  5
28B
102
{ACAD_REACTORS
330
289
102
}
330
289
100
AcDbXrecord
 90
       70
  0
XRECORD
  5
2A1
102
{ACAD_REACTORS
330
289
102
}
330
289
100
AcDbXrecord
340
0
  0
XRECORD
  5
2A7
102
{ACAD_REACTORS
330
289
102
}
330
289
100
AcDbXrecord
 10
0.0
 20
0.0
 30
0.0
  0
XRECORD
  5
2A3
102
{ACAD_REACTORS
330
289
102
}
330
289
100
AcDbXrecord
 10
0.0
 20
0.0
 30
0.0
  0
XRECORD
  5
2A6
102
{ACAD_REACTORS
330
289
102
}
330
289
100
AcDbXrecord
 10
0.0
 20
0.0
 30
0.0
  0
XRECORD
  5
2A4
102
{ACAD_REACTORS
330
289
102
}
330
289
100
AcDbXrecord
 10
0.0
 20
0.0
 30
0.0
  0
XRECORD
  5
2A5
102
{ACAD_REACTORS
330
289
102
}
330
289
100
AcDbXrecord
 10
0.0
 20
0.0
 30
0.0
  0
XRECORD
  5
2A2
102
{ACAD_REACTORS
330
289
102
}
330
289
100
AcDbXrecord
 10
0.0
 20
0.0
 30
0.0
  0
XRECORD
  5
29F
102
{ACAD_REACTORS
330
289
102
}
330
289
100
AcDbXrecord
340
0
  0
XRECORD
  5
2A0
102
{ACAD_REACTORS
330
289
102
}
330
289
100
AcDbXrecord
 70
     0
  0
XRECORD
  5
294
102
{ACAD_REACTORS
330
289
102
}
330
289
100
AcDbXrecord
  1
{FAEB1C32-E019-11D5-929B-00C0DF256EC4}
  0
DICTIONARYVAR
  5
2AC
102
{ACAD_REACTORS
330
2A9
102
}
330
2A9
100
DictionaryVariables
280
     0
  1
2
  0
DICTIONARYVAR
  5
2AD
102
{ACAD_REACTORS
330
2A9
102
}
330
2A9
100
DictionaryVariables
280
     0
  1
1
  0
DICTIONARY
  5
2B0
330
3D
100
AcDbDictionary
280
     1
  3
ACAD_XREC_ROUNDTRIP
360
2B1
  0
DICTIONARY
  5
2AE
330
3C
100
AcDbDictionary
280
     1
  3
ACAD_XREC_ROUNDTRIP
360
2AF
  0
DICTIONARY
  5
2B2
330
3E
100
AcDbDictionary
280
     1
  3
ACAD_XREC_ROUNDTRIP
360
2B3
  0
XRECORD
  5
2B1
102
{ACAD_REACTORS
330
2B0
102
}
330
2B0
100
AcDbXrecord
102
MATERIAL
148
0.0
149
0.0
149
0.0
 93
        0
 94
      127
282
     0
 72
     1
 77
     1
171
     1
175
     1
179
     1
273
     0
  0
XRECORD
  5
2AF
102
{ACAD_REACTORS
330
2AE
102
}
330
2AE
100
AcDbXrecord
102
MATERIAL
148
0.0
149
0.0
149
0.0
 93
        0
 94
      127
282
     0
 72
     1
 77
     1
171
     1
175
     1
179
     1
273
     0
  0
XRECORD
  5
2B3
102
{ACAD_REACTORS
330
2B2
102
}
330
2B2
100
AcDbXrecord
102
MATERIAL
148
0.0
149
0.0
149
0.0
 93
        0
 94
      127
282
     0
 72
     1
 77
     1
171
     1
175
     1
179
     1
273
     0
  0
ENDSEC
  0
EOF
