  0
SECTION
  2
HEADER
  9
$ACADVER
  1
AC1014
  9
$ACADMAINTVER
 70
     9
  9
$DWGCODEPAGE
  3
ANSI_1252
  9
$INSBASE
 10
0.0
 20
0.0
 30
0.0
  9
$EXTMIN
 10
1.000000000000000E+20
 20
1.000000000000000E+20
 30
1.000000000000000E+20
  9
$EXTMAX
 10
-1.000000000000000E+20
 20
-1.000000000000000E+20
 30
-1.000000000000000E+20
  9
$LIMMIN
 10
0.0
 20
0.0
  9
$LIMMAX
 10
12.0
 20
9.0
  9
$ORTHOMODE
 70
     0
  9
$REGENMODE
 70
     1
  9
$FILLMODE
 70
     1
  9
$QTEXTMODE
 70
     0
  9
$MIRRTEXT
 70
     1
  9
$DRAGMODE
 70
     2
  9
$LTSCALE
 40
1.0
  9
$OSMODE
 70
    37
  9
$ATTMODE
 70
     1
  9
$TEXTSIZE
 40
0.2
  9
$TRACEWID
 40
0.05
  9
$TEXTSTYLE
  7
STANDARD
  9
$CLAYER
  8
0
  9
$CELTYPE
  6
BYLAYER
  9
$CECOLOR
 62
   256
  9
$CELTSCALE
 40
1.0
  9
$DELOBJ
 70
     1
  9
$DISPSILH
 70
     0
  9
$DIMSCALE
 40
1.0
  9
$DIMASZ
 40
0.18
  9
$DIMEXO
 40
0.0625
  9
$DIMDLI
 40
0.38
  9
$DIMRND
 40
0.0
  9
$DIMDLE
 40
0.0
  9
$DIMEXE
 40
0.18
  9
$DIMTP
 40
0.0
  9
$DIMTM
 40
0.0
  9
$DIMTXT
 40
0.18
  9
$DIMCEN
 40
0.09
  9
$DIMTSZ
 40
0.0
  9
$DIMTOL
 70
     0
  9
$DIMLIM
 70
     0
  9
$DIMTIH
 70
     1
  9
$DIMTOH
 70
     1
  9
$DIMSE1
 70
     0
  9
$DIMSE2
 70
     0
  9
$DIMTAD
 70
     0
  9
$DIMZIN
 70
     0
  9
$DIMBLK
  1

  9
$DIMASO
 70
     1
  9
$DIMSHO
 70
     1
  9
$DIMPOST
  1

  9
$DIMAPOST
  1

  9
$DIMALT
 70
     0
  9
$DIMALTD
 70
     2
  9
$DIMALTF
 40
25.4
  9
$DIMLFAC
 40
1.0
  9
$DIMTOFL
 70
     0
  9
$DIMTVP
 40
0.0
  9
$DIMTIX
 70
     0
  9
$DIMSOXD
 70
     0
  9
$DIMSAH
 70
     0
  9
$DIMBLK1
  1

  9
$DIMBLK2
  1

  9
$DIMSTYLE
  2
STANDARD
  9
$DIMCLRD
 70
     0
  9
$DIMCLRE
 70
     0
  9
$DIMCLRT
 70
     0
  9
$DIMTFAC
 40
1.0
  9
$DIMGAP
 40
0.09
  9
$DIMJUST
 70
     0
  9
$DIMSD1
 70
     0
  9
$DIMSD2
 70
     0
  9
$DIMTOLJ
 70
     1
  9
$DIMTZIN
 70
     0
  9
$DIMALTZ
 70
     0
  9
$DIMALTTZ
 70
     0
  9
$DIMFIT
 70
     3
  9
$DIMUPT
 70
     0
  9
$DIMUNIT
 70
     2
  9
$DIMDEC
 70
     4
  9
$DIMTDEC
 70
     4
  9
$DIMALTU
 70
     2
  9
$DIMALTTD
 70
     2
  9
$DIMTXSTY
  7
STANDARD
  9
$DIMAUNIT
 70
     0
  9
$LUNITS
 70
     2
  9
$LUPREC
 70
     4
  9
$SKETCHINC
 40
0.1
  9
$FILLETRAD
 40
0.5
  9
$AUNITS
 70
     0
  9
$AUPREC
 70
     0
  9
$MENU
  1
.
  9
$ELEVATION
 40
0.0
  9
$PELEVATION
 40
0.0
  9
$THICKNESS
 40
0.0
  9
$LIMCHECK
 70
     0
  9
$CHAMFERA
 40
0.5
  9
$CHAMFERB
 40
0.5
  9
$CHAMFERC
 40
1.0
  9
$CHAMFERD
 40
0.0
  9
$SKPOLY
 70
     0
  9
$TDCREATE
 40
2460490.515188819
  9
$TDUPDATE
 40
2460490.51518897
  9
$TDINDWG
 40
0.0000000116
  9
$TDUSRTIMER
 40
0.0000000116
  9
$USRTIMER
 70
     1
  9
$ANGBASE
 50
0.0
  9
$ANGDIR
 70
     0
  9
$PDMODE
 70
     0
  9
$PDSIZE
 40
0.0
  9
$PLINEWID
 40
0.0
  9
$COORDS
 70
     1
  9
$SPLFRAME
 70
     0
  9
$SPLINETYPE
 70
     6
  9
$SPLINESEGS
 70
     8
  9
$ATTDIA
 70
     0
  9
$ATTREQ
 70
     1
  9
$HANDLING
 70
     1
  9
$HANDSEED
  5
503
  9
$SURFTAB1
 70
     6
  9
$SURFTAB2
 70
     6
  9
$SURFTYPE
 70
     6
  9
$SURFU
 70
     6
  9
$SURFV
 70
     6
  9
$UCSNAME
  2

  9
$UCSORG
 10
0.0
 20
0.0
 30
0.0
  9
$UCSXDIR
 10
1.0
 20
0.0
 30
0.0
  9
$UCSYDIR
 10
0.0
 20
1.0
 30
0.0
  9
$PUCSNAME
  2

  9
$PUCSORG
 10
0.0
 20
0.0
 30
0.0
  9
$PUCSXDIR
 10
1.0
 20
0.0
 30
0.0
  9
$PUCSYDIR
 10
0.0
 20
1.0
 30
0.0
  9
$USERI1
 70
     0
  9
$USERI2
 70
     0
  9
$USERI3
 70
     0
  9
$USERI4
 70
     0
  9
$USERI5
 70
     0
  9
$USERR1
 40
0.0
  9
$USERR2
 40
0.0
  9
$USERR3
 40
0.0
  9
$USERR4
 40
0.0
  9
$USERR5
 40
0.0
  9
$WORLDVIEW
 70
     1
  9
$SHADEDGE
 70
     3
  9
$SHADEDIF
 70
    70
  9
$TILEMODE
 70
     1
  9
$MAXACTVP
 70
    64
  9
$PINSBASE
 10
0.0
 20
0.0
 30
0.0
  9
$PLIMCHECK
 70
     0
  9
$PEXTMIN
 10
1.000000000000000E+20
 20
1.000000000000000E+20
 30
1.000000000000000E+20
  9
$PEXTMAX
 10
-1.000000000000000E+20
 20
-1.000000000000000E+20
 30
-1.000000000000000E+20
  9
$PLIMMIN
 10
0.0
 20
0.0
  9
$PLIMMAX
 10
12.0
 20
9.0
  9
$UNITMODE
 70
     0
  9
$VISRETAIN
 70
     1
  9
$PLINEGEN
 70
     0
  9
$PSLTSCALE
 70
     1
  9
$TREEDEPTH
 70
  3020
  9
$PICKSTYLE
 70
     1
  9
$CMLSTYLE
  2
STANDARD
  9
$CMLJUST
 70
     0
  9
$CMLSCALE
 40
1.0
  9
$PROXYGRAPHICS
 70
     1
  9
$MEASUREMENT
 70
     0
  0
ENDSEC
  0
SECTION
  2
CLASSES
  0
CLASS
  1
ACDBDICTIONARYWDFLT
  2
AcDbDictionaryWithDefault
  3
ObjectDBX Classes
 90
        0
280
     0
281
     0
  0
CLASS
  1
VISUALSTYLE
  2
AcDbVisualStyle
  3
ObjectDBX Classes
 90
     4095
280
     0
281
     0
  0
CLASS
  1
MATERIAL
  2
AcDbMaterial
  3
ObjectDBX Classes
 90
     1153
280
     0
281
     0
  0
CLASS
  1
SUN
  2
AcDbSun
  3
SCENEOE
 90
     1024
280
     0
281
     0
  0
CLASS
  1
DICTIONARYVAR
  2
AcDbDictionaryVar
  3
ObjectDBX Classes
 90
        0
280
     0
281
     0
  0
CLASS
  1
XRECORD
  2
AcDbXrecord
  3
AutoCAD 2000
 90
        0
280
     0
281
     0
  0
CLASS
  1
LWPOLYLINE
  2
AcDbPolyline
  3
AutoCAD 2000
 90
        0
280
     0
281
     1
  0
CLASS
  1
HATCH
  2
AcDbHatch
  3
AutoCAD 2000
 90
        0
280
     0
281
     1
  0
CLASS
  1
ACDBPLACEHOLDER
  2
AcDbPlaceHolder
  3
ObjectDBX Classes
 90
        0
280
     0
281
     0
  0
CLASS
  1
LAYOUT
  2
AcDbLayout
  3
ObjectDBX Classes
 90
        0
280
     0
281
     0
  0
ENDSEC
  0
SECTION
  2
TABLES
  0
TABLE
  2
VPORT
  5
8
330
0
100
AcDbSymbolTable
 70
     1
  0
VPORT
  5
29
330
8
100
AcDbSymbolTableRecord
100
AcDbViewportTableRecord
  2
*ACTIVE
 70
     0
 10
0.0
 20
0.0
 11
1.0
 21
1.0
 12
0.0
 22
0.0
 13
0.0
 23
0.0
 14
0.5
 24
0.5
 15
0.5
 25
0.5
 16
0.0
 26
0.0
 36
1.0
 17
74.99999786197358
 27
39.74999886684608
 37
0.0
 40
39.99999998999989
 41
1.000000000000008
 42
50.0
 43
0.0
 44
0.0
 50
0.0
 51
0.0
 71
     0
 72
   100
 73
     1
 74
     3
 75
     0
 76
     0
 77
     0
 78
     0
  0
ENDTAB
  0
TABLE
  2
LTYPE
  5
5
330
0
100
AcDbSymbolTable
 70
     1
  0
LTYPE
  5
14
330
5
100
AcDbSymbolTableRecord
100
AcDbLinetypeTableRecord
  2
BYBLOCK
 70
     0
  3

 72
    65
 73
     0
 40
0.0
  0
LTYPE
  5
15
330
5
100
AcDbSymbolTableRecord
100
AcDbLinetypeTableRecord
  2
BYLAYER
 70
     0
  3

 72
    65
 73
     0
 40
0.0
  0
LTYPE
  5
16
330
5
100
AcDbSymbolTableRecord
100
AcDbLinetypeTableRecord
  2
CONTINUOUS
 70
     0
  3
Solid line
 72
    65
 73
     0
 40
0.0
  0
ENDTAB
  0
TABLE
  2
LAYER
  5
2
330
0
100
AcDbSymbolTable
 70
     6
  0
LAYER
  5
10
330
2
100
AcDbSymbolTableRecord
100
AcDbLayerTableRecord
  2
0
 70
     0
 62
     7
  6
CONTINUOUS
  0
LAYER
  5
40
330
2
100
AcDbSymbolTableRecord
100
AcDbLayerTableRecord
  2
REFERENCIAS
 70
     0
 62
     7
  6
CONTINUOUS
  0
LAYER
  5
42
330
2
100
AcDbSymbolTableRecord
100
AcDbLayerTableRecord
  2
M_U_00C1RGENES
 70
     0
 62
     7
  6
CONTINUOUS
  0
LAYER
  5
51
330
2
100
AcDbSymbolTableRecord
100
AcDbLayerTableRecord
  2
DIBUJOS
 70
     0
 62
     7
  6
CONTINUOUS
  0
LAYER
  5
4C0
330
2
100
AcDbSymbolTableRecord
100
AcDbLayerTableRecord
  2
COTAS_LINEA
 70
     0
 62
     7
  6
CONTINUOUS
  0
LAYER
  5
4D1
330
2
100
AcDbSymbolTableRecord
100
AcDbLayerTableRecord
  2
COTAS_N_U_00DAMERO
 70
     0
 62
     7
  6
CONTINUOUS
  0
ENDTAB
  0
TABLE
  2
STYLE
  5
3
330
0
100
AcDbSymbolTable
 70
     1
  0
STYLE
  5
11
330
3
100
AcDbSymbolTableRecord
100
AcDbTextStyleTableRecord
  2
STANDARD
 70
     0
 40
0.0
 41
1.0
 50
0.0
 71
     0
 42
0.2
  3
txt
  4

  0
ENDTAB
  0
TABLE
  2
VIEW
  5
6
330
0
100
AcDbSymbolTable
 70
     0
  0
ENDTAB
  0
TABLE
  2
UCS
  5
7
330
0
100
AcDbSymbolTable
 70
     0
  0
ENDTAB
  0
TABLE
  2
APPID
  5
9
330
0
100
AcDbSymbolTable
 70
     1
  0
APPID
  5
12
330
9
100
AcDbSymbolTableRecord
100
AcDbRegAppTableRecord
  2
ACAD
 70
     0
  0
ENDTAB
  0
TABLE
  2
DIMSTYLE
  5
A
330
0
100
AcDbSymbolTable
 70
     1
  0
DIMSTYLE
105
27
330
A
100
AcDbSymbolTableRecord
100
AcDbDimStyleTableRecord
  2
STANDARD
 70
     0
  3

  4

  5

  6

  7

 40
1.0
 41
0.18
 42
0.0625
 43
0.38
 44
0.18
 45
0.0
 46
0.0
 47
0.0
 48
0.0
140
0.18
141
0.09
142
0.0
143
25.4
144
1.0
145
0.0
146
1.0
147
0.09
 71
     0
 72
     0
 73
     1
 74
     1
 75
     0
 76
     0
 77
     0
 78
     0
170
     0
171
     2
172
     0
173
     0
174
     0
175
     0
176
     0
177
     0
178
     0
270
     2
271
     4
272
     4
273
     2
274
     2
340
11
275
     0
280
     0
281
     0
282
     0
283
     1
284
     0
285
     0
286
     0
287
     3
288
     0
  0
ENDTAB
  0
TABLE
  2
BLOCK_RECORD
  5
1
330
0
100
AcDbSymbolTable
 70
     4
  0
BLOCK_RECORD
  5
1F
330
1
100
AcDbSymbolTableRecord
100
AcDbBlockTableRecord
  2
*MODEL_SPACE
  0
BLOCK_RECORD
  5
1B
330
1
100
AcDbSymbolTableRecord
100
AcDbBlockTableRecord
  2
*PAPER_SPACE
  0
BLOCK_RECORD
  5
52
330
1
100
AcDbSymbolTableRecord
100
AcDbBlockTableRecord
  2
BLOCK_2
  0
BLOCK_RECORD
  5
222
330
1
100
AcDbSymbolTableRecord
100
AcDbBlockTableRecord
  2
BLOCK_3
  0
BLOCK_RECORD
  5
369
330
1
100
AcDbSymbolTableRecord
100
AcDbBlockTableRecord
  2
BLOCK_4
  0
ENDTAB
  0
ENDSEC
  0
SECTION
  2
BLOCKS
  0
BLOCK
  5
20
330
1F
100
AcDbEntity
  8
0
100
AcDbBlockBegin
  2
*MODEL_SPACE
 70
     0
 10
0.0
 20
0.0
 30
0.0
  3
*MODEL_SPACE
  1

  0
ENDBLK
  5
21
330
1F
100
AcDbEntity
  8
0
100
AcDbBlockEnd
  0
BLOCK
  5
1C
330
1B
100
AcDbEntity
 67
     1
  8
0
100
AcDbBlockBegin
  2
*PAPER_SPACE
 70
     0
 10
0.0
 20
0.0
 30
0.0
  3
*PAPER_SPACE
  1

  0
ENDBLK
  5
1D
330
1B
100
AcDbEntity
 67
     1
  8
0
100
AcDbBlockEnd
  0
BLOCK
  5
54
330
52
100
AcDbEntity
  8
0
100
AcDbBlockBegin
  2
BLOCK_2
 70
     0
 10
0.0
 20
0.0
 30
0.0
  3
BLOCK_2
  1

  0
POLYLINE
  5
56
330
52
100
AcDbEntity
  8
DIBUJOS
 62
     7
100
AcDb2dPolyline
 66
     1
 10
0.0
 20
0.0
 30
0.0
  0
VERTEX
  5
57
330
56
100
AcDbEntity
  8
DIBUJOS
 62
     7
100
AcDbVertex
100
AcDb2dVertex
 10
66.89619914305989
 20
47.38625806067989
 30
0.0
  0
VERTEX
  5
58
330
56
100
AcDbEntity
  8
DIBUJOS
 62
     7
100
AcDbVertex
100
AcDb2dVertex
 10
66.89619914305989
 20
47.39230717410674
 30
0.0
  0
SEQEND
  5
59
330
56
100
AcDbEntity
  8
DIBUJOS
 62
     7
  0
POLYLINE
  5
5A
330
52
100
AcDbEntity
  8
DIBUJOS
 62
     7
100
AcDb2dPolyline
 66
     1
 10
0.0
 20
0.0
 30
0.0
  0
VERTEX
  5
5B
330
5A
100
AcDbEntity
  8
DIBUJOS
 62
     7
100
AcDbVertex
100
AcDb2dVertex
 10
62.30954771237938
 20
47.24102070405207
 30
0.0
  0
VERTEX
  5
5C
330
5A
100
AcDbEntity
  8
DIBUJOS
 62
     7
100
AcDbVertex
100
AcDb2dVertex
 10
62.30349578642061
 20
47.4286181419966
 30
0.0
  0
SEQEND
  5
5D
330
5A
100
AcDbEntity
  8
DIBUJOS
 62
     7
  0
POLYLINE
  5
5E
330
52
100
AcDbEntity
  8
DIBUJOS
 62
     7
100
AcDb2dPolyline
 66
     1
 10
0.0
 20
0.0
 30
0.0
  0
VERTEX
  5
5F
330
5E
100
AcDbEntity
  8
DIBUJOS
 62
     7
100
AcDbVertex
100
AcDb2dVertex
 10
62.30954771237938
 20
47.23497159062522
 30
0.0
  0
VERTEX
  5
60
330
5E
100
AcDbEntity
  8
DIBUJOS
 62
     7
100
AcDbVertex
100
AcDb2dVertex
 10
62.30349578642061
 20
47.23497159062522
 30
0.0
  0
SEQEND
  5
61
330
5E
100
AcDbEntity
  8
DIBUJOS
 62
     7
  0
POLYLINE
  5
62
330
52
100
AcDbEntity
  8
DIBUJOS
 62
     7
100
AcDb2dPolyline
 66
     1
 10
0.0
 20
0.0
 30
0.0
  0
VERTEX
  5
63
330
62
100
AcDbEntity
  8
DIBUJOS
 62
     7
100
AcDbVertex
100
AcDb2dVertex
 10
62.30954771237938
 20
47.23497159062522
 30
0.0
  0
VERTEX
  5
64
330
62
100
AcDbEntity
  8
DIBUJOS
 62
     7
100
AcDbVertex
100
AcDb2dVertex
 10
62.30954771237938
 20
47.24102070405207
 30
0.0
  0
SEQEND
  5
65
330
62
100
AcDbEntity
  8
DIBUJOS
 62
     7
  0
POLYLINE
  5
66
330
52
100
AcDbEntity
  8
DIBUJOS
 62
     7
100
AcDb2dPolyline
 66
     1
 10
0.0
 20
0.0
 30
0.0
  0
VERTEX
  5
67
330
66
100
AcDbEntity
  8
DIBUJOS
 62
     7
100
AcDbVertex
100
AcDb2dVertex
 10
62.29139519172633
 20
47.22891921973288
 30
0.0
  0
VERTEX
  5
68
330
66
100
AcDbEntity
  8
DIBUJOS
 62
     7
100
AcDbVertex
100
AcDb2dVertex
 10
62.29139519172633
 20
47.23497159062522
 30
0.0
  0
SEQEND
  5
69
330
66
100
AcDbEntity
  8
DIBUJOS
 62
     7
  0
POLYLINE
  5
6A
330
52
100
AcDbEntity
  8
DIBUJOS
 62
     7
100
AcDb2dPolyline
 66
     1
 10
0.0
 20
0.0
 30
0.0
  0
VERTEX
  5
6B
330
6A
100
AcDbEntity
  8
DIBUJOS
 62
     7
100
AcDbVertex
100
AcDb2dVertex
 10
62.29744548907347
 20
47.22891921973288
 30
0.0
  0
VERTEX
  5
6C
330
6A
100
AcDbEntity
  8
DIBUJOS
 62
     7
100
AcDbVertex
100
AcDb2dVertex
 10
62.29139519172633
 20
47.22891921973288
 30
0.0
  0
SEQEND
  5
6D
330
6A
100
AcDbEntity
  8
DIBUJOS
 62
     7
  0
POLYLINE
  5
6E
330
52
100
AcDbEntity
  8
DIBUJOS
 62
     7
100
AcDb2dPolyline
 66
     1
 10
0.0
 20
0.0
 30
0.0
  0
VERTEX
  5
6F
330
6E
100
AcDbEntity
  8
DIBUJOS
 62
     7
100
AcDbVertex
100
AcDb2dVertex
 10
62.29744548907347
 20
47.22891921973288
 30
0.0
  0
VERTEX
  5
70
330
6E
100
AcDbEntity
  8
DIBUJOS
 62
     7
100
AcDbVertex
100
AcDb2dVertex
 10
62.30349578642061
 20
47.23497159062522
 30
0.0
  0
SEQEND
  5
71
330
6E
100
AcDbEntity
  8
DIBUJOS
 62
     7
  0
POLYLINE
  5
72
330
52
100
AcDbEntity
  8
DIBUJOS
 62
     7
100
AcDb2dPolyline
 66
     1
 10
0.0
 20
0.0
 30
0.0
  0
VERTEX
  5
73
330
72
100
AcDbEntity
  8
DIBUJOS
 62
     7
100
AcDbVertex
100
AcDb2dVertex
 10
62.30954771237938
 20
47.22891921973288
 30
0.0
  0
VERTEX
  5
74
330
72
100
AcDbEntity
  8
DIBUJOS
 62
     7
100
AcDbVertex
100
AcDb2dVertex
 10
62.30954771237938
 20
47.23497159062522
 30
0.0
  0
SEQEND
  5
75
330
72
100
AcDbEntity
  8
DIBUJOS
 62
     7
  0
POLYLINE
  5
76
330
52
100
AcDbEntity
  8
DIBUJOS
 62
     7
100
AcDb2dPolyline
 66
     1
 10
0.0
 20
0.0
 30
0.0
  0
VERTEX
  5
77
330
76
100
AcDbEntity
  8
DIBUJOS
 62
     7
100
AcDbVertex
100
AcDb2dVertex
 10
62.29139519172633
 20
47.22286684884021
 30
0.0
  0
VERTEX
  5
78
330
76
100
AcDbEntity
  8
DIBUJOS
 62
     7
100
AcDbVertex
100
AcDb2dVertex
 10
62.29139519172633
 20
47.22891921973288
 30
0.0
  0
SEQEND
  5
79
330
76
100
AcDbEntity
  8
DIBUJOS
 62
     7
  0
POLYLINE
  5
7A
330
52
100
AcDbEntity
  8
DIBUJOS
 62
     7
100
AcDb2dPolyline
 66
     1
 10
0.0
 20
0.0
 30
0.0
  0
VERTEX
  5
7B
330
7A
100
AcDbEntity
  8
DIBUJOS
 62
     7
100
AcDbVertex
100
AcDb2dVertex
 10
66.76307794391947
 20
47.09578660489039
 30
0.0
  0
VERTEX
  5
7C
330
7A
100
AcDbEntity
  8
DIBUJOS
 62
     7
100
AcDbVertex
100
AcDb2dVertex
 10
66.72517034740748
 20
47.12337408018024
 30
0.0
  0
VERTEX
  5
7D
330
7A
100
AcDbEntity
  8
DIBUJOS
 62
     7
100
AcDbVertex
100
AcDb2dVertex
 10
66.65369377945457
 20
47.14187322673509
 30
0.0
  0
VERTEX
  5
7E
330
7A
100
AcDbEntity
  8
DIBUJOS
 62
     7
100
AcDbVertex
100
AcDb2dVertex
 10
66.58796132960227
 20
47.15279225107928
 30
0.0
  0
VERTEX
  5
7F
330
7A
100
AcDbEntity
  8
DIBUJOS
 62
     7
100
AcDbVertex
100
AcDb2dVertex
 10
66.33950827127092
 20
47.16840528320398
 30
0.0
  0
VERTEX
  5
80
330
7A
100
AcDbEntity
  8
DIBUJOS
 62
     7
100
AcDbVertex
100
AcDb2dVertex
 10
65.40151837760885
 20
47.1350292917267
 30
0.0
  0
VERTEX
  5
81
330
7A
100
AcDbEntity
  8
DIBUJOS
 62
     7
100
AcDbVertex
100
AcDb2dVertex
 10
64.89332108692001
 20
47.11999283099492
 30
0.0
  0
VERTEX
  5
82
330
7A
100
AcDbEntity
  8
DIBUJOS
 62
     7
100
AcDbVertex
100
AcDb2dVertex
 10
64.31242576851925
 20
47.11999283099492
 30
0.0
  0
VERTEX
  5
83
330
7A
100
AcDbEntity
  8
DIBUJOS
 62
     7
100
AcDbVertex
100
AcDb2dVertex
 10
63.2052148396503
 20
47.15919642824527
 30
0.0
  0
VERTEX
  5
84
330
7A
100
AcDbEntity
  8
DIBUJOS
 62
     7
100
AcDbVertex
100
AcDb2dVertex
 10
63.19904402494004
 20
47.16235291231163
 30
0.0
  0
VERTEX
  5
85
330
7A
100
AcDbEntity
  8
DIBUJOS
 62
     7
100
AcDbVertex
100
AcDb2dVertex
 10
62.66655597115125
 20
47.16235291231163
 30
0.0
  0
VERTEX
  5
86
330
7A
100
AcDbEntity
  8
DIBUJOS
 62
     7
100
AcDbVertex
100
AcDb2dVertex
 10
62.5700655359184
 20
47.14764545559503
 30
0.0
  0
VERTEX
  5
87
330
7A
100
AcDbEntity
  8
DIBUJOS
 62
     7
100
AcDbVertex
100
AcDb2dVertex
 10
62.47413371494869
 20
47.1236249050235
 30
0.0
  0
VERTEX
  5
88
330
7A
100
AcDbEntity
  8
DIBUJOS
 62
     7
100
AcDbVertex
100
AcDb2dVertex
 10
62.43661861417394
 20
47.09578660489039
 30
0.0
  0
SEQEND
  5
89
330
7A
100
AcDbEntity
  8
DIBUJOS
 62
     7
  0
POLYLINE
  5
8A
330
52
100
AcDbEntity
  8
DIBUJOS
 62
     7
100
AcDb2dPolyline
 66
     1
 10
0.0
 20
0.0
 30
0.0
  0
VERTEX
  5
8B
330
8A
100
AcDbEntity
  8
DIBUJOS
 62
     7
100
AcDbVertex
100
AcDb2dVertex
 10
62.5515872926626
 20
47.0050173288298
 30
0.0
  0
VERTEX
  5
8C
330
8A
100
AcDbEntity
  8
DIBUJOS
 62
     7
100
AcDbVertex
100
AcDb2dVertex
 10
62.50923032539774
 20
47.0050173288298
 30
0.0
  0
SEQEND
  5
8D
330
8A
100
AcDbEntity
  8
DIBUJOS
 62
     7
  0
POLYLINE
  5
8E
330
52
100
AcDbEntity
  8
DIBUJOS
 62
     7
100
AcDb2dPolyline
 66
     1
 10
0.0
 20
0.0
 30
0.0
  0
VERTEX
  5
8F
330
8E
100
AcDbEntity
  8
DIBUJOS
 62
     7
100
AcDbVertex
100
AcDb2dVertex
 10
62.56973981331564
 20
47.0050173288298
 30
0.0
  0
VERTEX
  5
90
330
8E
100
AcDbEntity
  8
DIBUJOS
 62
     7
100
AcDbVertex
100
AcDb2dVertex
 10
62.56368951596851
 20
47.0050173288298
 30
0.0
  0
SEQEND
  5
91
330
8E
100
AcDbEntity
  8
DIBUJOS
 62
     7
  0
POLYLINE
  5
92
330
52
100
AcDbEntity
  8
DIBUJOS
 62
     7
100
AcDb2dPolyline
 66
     1
 10
0.0
 20
0.0
 30
0.0
  0
VERTEX
  5
93
330
92
100
AcDbEntity
  8
DIBUJOS
 62
     7
100
AcDbVertex
100
AcDb2dVertex
 10
66.69046623269566
 20
47.0050173288298
 30
0.0
  0
VERTEX
  5
94
330
92
100
AcDbEntity
  8
DIBUJOS
 62
     7
100
AcDbVertex
100
AcDb2dVertex
 10
66.623904818819
 20
47.0050173288298
 30
0.0
  0
SEQEND
  5
95
330
92
100
AcDbEntity
  8
DIBUJOS
 62
     7
  0
POLYLINE
  5
96
330
52
100
AcDbEntity
  8
DIBUJOS
 62
     7
100
AcDb2dPolyline
 66
     1
 10
0.0
 20
0.0
 30
0.0
  0
VERTEX
  5
97
330
96
100
AcDbEntity
  8
DIBUJOS
 62
     7
100
AcDbVertex
100
AcDb2dVertex
 10
66.81148520853017
 20
47.0050173288298
 30
0.0
  0
VERTEX
  5
98
330
96
100
AcDbEntity
  8
DIBUJOS
 62
     7
100
AcDbVertex
100
AcDb2dVertex
 10
66.81362194880428
 20
47.02263695970051
 30
0.0
  0
VERTEX
  5
99
330
96
100
AcDbEntity
  8
DIBUJOS
 62
     7
100
AcDbVertex
100
AcDb2dVertex
 10
66.83103507914949
 20
47.05249814590711
 30
0.0
  0
VERTEX
  5
9A
330
96
100
AcDbEntity
  8
DIBUJOS
 62
     7
100
AcDbVertex
100
AcDb2dVertex
 10
66.84034423113705
 20
47.06646290049077
 30
0.0
  0
VERTEX
  5
9B
330
96
100
AcDbEntity
  8
DIBUJOS
 62
     7
100
AcDbVertex
100
AcDb2dVertex
 10
66.87571933441059
 20
47.15676635898501
 30
0.0
  0
VERTEX
  5
9C
330
96
100
AcDbEntity
  8
DIBUJOS
 62
     7
100
AcDbVertex
100
AcDb2dVertex
 10
66.88037391040437
 20
47.18004094995779
 30
0.0
  0
VERTEX
  5
9D
330
96
100
AcDbEntity
  8
DIBUJOS
 62
     7
100
AcDbVertex
100
AcDb2dVertex
 10
66.88725968622752
 20
47.21694151910192
 30
0.0
  0
VERTEX
  5
9E
330
96
100
AcDbEntity
  8
DIBUJOS
 62
     7
100
AcDbVertex
100
AcDb2dVertex
 10
66.89619914305989
 20
47.35599946368269
 30
0.0
  0
SEQEND
  5
9F
330
96
100
AcDbEntity
  8
DIBUJOS
 62
     7
  0
POLYLINE
  5
A0
330
52
100
AcDbEntity
  8
DIBUJOS
 62
     7
100
AcDb2dPolyline
 66
     1
 10
0.0
 20
0.0
 30
0.0
  0
VERTEX
  5
A1
330
A0
100
AcDbEntity
  8
DIBUJOS
 62
     7
100
AcDbVertex
100
AcDb2dVertex
 10
62.38215942360318
 20
46.99896495793745
 30
0.0
  0
VERTEX
  5
A2
330
A0
100
AcDbEntity
  8
DIBUJOS
 62
     7
100
AcDbVertex
100
AcDb2dVertex
 10
62.38820972095032
 20
47.0050173288298
 30
0.0
  0
VERTEX
  5
A3
330
A0
100
AcDbEntity
  8
DIBUJOS
 62
     7
100
AcDbVertex
100
AcDb2dVertex
 10
62.38820972095032
 20
47.02317118404198
 30
0.0
  0
VERTEX
  5
A4
330
A0
100
AcDbEntity
  8
DIBUJOS
 62
     7
100
AcDbVertex
100
AcDb2dVertex
 10
62.37471177629106
 20
47.04039340412209
 30
0.0
  0
VERTEX
  5
A5
330
A0
100
AcDbEntity
  8
DIBUJOS
 62
     7
100
AcDbVertex
100
AcDb2dVertex
 10
62.36279684348148
 20
47.05887300588395
 30
0.0
  0
VERTEX
  5
A6
330
A0
100
AcDbEntity
  8
DIBUJOS
 62
     7
100
AcDbVertex
100
AcDb2dVertex
 10
62.32983697330652
 20
47.13868091054858
 30
0.0
  0
VERTEX
  5
A7
330
A0
100
AcDbEntity
  8
DIBUJOS
 62
     7
100
AcDbVertex
100
AcDb2dVertex
 10
62.30954771237938
 20
47.22891921973288
 30
0.0
  0
SEQEND
  5
A8
330
A0
100
AcDbEntity
  8
DIBUJOS
 62
     7
  0
POLYLINE
  5
A9
330
52
100
AcDbEntity
  8
DIBUJOS
 62
     7
100
AcDb2dPolyline
 66
     1
 10
0.0
 20
0.0
 30
0.0
  0
VERTEX
  5
AA
330
A9
100
AcDbEntity
  8
DIBUJOS
 62
     7
100
AcDbVertex
100
AcDb2dVertex
 10
62.66050567380412
 20
46.99896495793745
 30
0.0
  0
VERTEX
  5
AB
330
A9
100
AcDbEntity
  8
DIBUJOS
 62
     7
100
AcDbVertex
100
AcDb2dVertex
 10
62.59999455727331
 20
47.0050173288298
 30
0.0
  0
SEQEND
  5
AC
330
A9
100
AcDbEntity
  8
DIBUJOS
 62
     7
  0
POLYLINE
  5
AD
330
52
100
AcDbEntity
  8
DIBUJOS
 62
     7
100
AcDb2dPolyline
 66
     1
 10
0.0
 20
0.0
 30
0.0
  0
VERTEX
  5
AE
330
AD
100
AcDbEntity
  8
DIBUJOS
 62
     7
100
AcDbVertex
100
AcDb2dVertex
 10
66.52103836363624
 20
46.99896495793745
 30
0.0
  0
VERTEX
  5
AF
330
AD
100
AcDbEntity
  8
DIBUJOS
 62
     7
100
AcDbVertex
100
AcDb2dVertex
 10
66.61180259551308
 20
47.0050173288298
 30
0.0
  0
SEQEND
  5
B0
330
AD
100
AcDbEntity
  8
DIBUJOS
 62
     7
  0
POLYLINE
  5
B1
330
52
100
AcDbEntity
  8
DIBUJOS
 62
     7
100
AcDb2dPolyline
 66
     1
 10
0.0
 20
0.0
 30
0.0
  0
VERTEX
  5
B2
330
B1
100
AcDbEntity
  8
DIBUJOS
 62
     7
100
AcDbVertex
100
AcDb2dVertex
 10
62.70891293841611
 20
46.99291258704511
 30
0.0
  0
VERTEX
  5
B3
330
B1
100
AcDbEntity
  8
DIBUJOS
 62
     7
100
AcDbVertex
100
AcDb2dVertex
 10
62.70286264106897
 20
46.99291258704511
 30
0.0
  0
SEQEND
  5
B4
330
B1
100
AcDbEntity
  8
DIBUJOS
 62
     7
  0
POLYLINE
  5
B5
330
52
100
AcDbEntity
  8
DIBUJOS
 62
     7
100
AcDb2dPolyline
 66
     1
 10
0.0
 20
0.0
 30
0.0
  0
VERTEX
  5
B6
330
B5
100
AcDbEntity
  8
DIBUJOS
 62
     7
100
AcDbVertex
100
AcDb2dVertex
 10
62.73916768237378
 20
46.99291258704511
 30
0.0
  0
VERTEX
  5
B7
330
B5
100
AcDbEntity
  8
DIBUJOS
 62
     7
100
AcDbVertex
100
AcDb2dVertex
 10
62.73311738502792
 20
46.99291258704511
 30
0.0
  0
SEQEND
  5
B8
330
B5
100
AcDbEntity
  8
DIBUJOS
 62
     7
  0
POLYLINE
  5
B9
330
52
100
AcDbEntity
  8
DIBUJOS
 62
     7
100
AcDb2dPolyline
 66
     1
 10
0.0
 20
0.0
 30
0.0
  0
VERTEX
  5
BA
330
B9
100
AcDbEntity
  8
DIBUJOS
 62
     7
100
AcDbVertex
100
AcDb2dVertex
 10
66.46052887571834
 20
46.99291258704511
 30
0.0
  0
VERTEX
  5
BB
330
B9
100
AcDbEntity
  8
DIBUJOS
 62
     7
100
AcDbVertex
100
AcDb2dVertex
 10
66.45447694975958
 20
46.99291258704511
 30
0.0
  0
SEQEND
  5
BC
330
B9
100
AcDbEntity
  8
DIBUJOS
 62
     7
  0
POLYLINE
  5
BD
330
52
100
AcDbEntity
  8
DIBUJOS
 62
     7
100
AcDb2dPolyline
 66
     1
 10
0.0
 20
0.0
 30
0.0
  0
VERTEX
  5
BE
330
BD
100
AcDbEntity
  8
DIBUJOS
 62
     7
100
AcDbVertex
100
AcDb2dVertex
 10
66.39396746184168
 20
46.98686021615244
 30
0.0
  0
VERTEX
  5
BF
330
BD
100
AcDbEntity
  8
DIBUJOS
 62
     7
100
AcDbVertex
100
AcDb2dVertex
 10
66.38186523853578
 20
46.98686021615244
 30
0.0
  0
SEQEND
  5
C0
330
BD
100
AcDbEntity
  8
DIBUJOS
 62
     7
  0
POLYLINE
  5
C1
330
52
100
AcDbEntity
  8
DIBUJOS
 62
     7
100
AcDb2dPolyline
 66
     1
 10
0.0
 20
0.0
 30
0.0
  0
VERTEX
  5
C2
330
C1
100
AcDbEntity
  8
DIBUJOS
 62
     7
100
AcDbVertex
100
AcDb2dVertex
 10
62.87229051012839
 20
46.97475873183293
 30
0.0
  0
VERTEX
  5
C3
330
C1
100
AcDbEntity
  8
DIBUJOS
 62
     7
100
AcDbVertex
100
AcDb2dVertex
 10
62.83598384021067
 20
46.98686021615244
 30
0.0
  0
SEQEND
  5
C4
330
C1
100
AcDbEntity
  8
DIBUJOS
 62
     7
  0
POLYLINE
  5
C5
330
52
100
AcDbEntity
  8
DIBUJOS
 62
     7
100
AcDb2dPolyline
 66
     1
 10
0.0
 20
0.0
 30
0.0
  0
VERTEX
  5
C6
330
C5
100
AcDbEntity
  8
DIBUJOS
 62
     7
100
AcDbVertex
100
AcDb2dVertex
 10
66.31530382465911
 20
46.97475873183293
 30
0.0
  0
VERTEX
  5
C7
330
C5
100
AcDbEntity
  8
DIBUJOS
 62
     7
100
AcDbVertex
100
AcDb2dVertex
 10
66.33345797392379
 20
46.97475873183293
 30
0.0
  0
VERTEX
  5
C8
330
C5
100
AcDbEntity
  8
DIBUJOS
 62
     7
100
AcDbVertex
100
AcDb2dVertex
 10
66.33950827127092
 20
46.98081110272527
 30
0.0
  0
SEQEND
  5
C9
330
C5
100
AcDbEntity
  8
DIBUJOS
 62
     7
  0
POLYLINE
  5
CA
330
52
100
AcDbEntity
  8
DIBUJOS
 62
     7
100
AcDb2dPolyline
 66
     1
 10
0.0
 20
0.0
 30
0.0
  0
VERTEX
  5
CB
330
CA
100
AcDbEntity
  8
DIBUJOS
 62
     7
100
AcDbVertex
100
AcDb2dVertex
 10
66.20033514617045
 20
46.96265724751309
 30
0.0
  0
VERTEX
  5
CC
330
CA
100
AcDbEntity
  8
DIBUJOS
 62
     7
100
AcDbVertex
100
AcDb2dVertex
 10
66.28504908070016
 20
46.97475873183293
 30
0.0
  0
SEQEND
  5
CD
330
CA
100
AcDbEntity
  8
DIBUJOS
 62
     7
  0
POLYLINE
  5
CE
330
52
100
AcDbEntity
  8
DIBUJOS
 62
     7
100
AcDb2dPolyline
 66
     1
 10
0.0
 20
0.0
 30
0.0
  0
VERTEX
  5
CF
330
CE
100
AcDbEntity
  8
DIBUJOS
 62
     7
100
AcDbVertex
100
AcDb2dVertex
 10
63.56210258105777
 20
46.91424479530403
 30
0.0
  0
VERTEX
  5
D0
330
CE
100
AcDbEntity
  8
DIBUJOS
 62
     7
100
AcDbVertex
100
AcDb2dVertex
 10
63.55665649913914
 20
46.91545331500333
 30
0.0
  0
VERTEX
  5
D1
330
CE
100
AcDbEntity
  8
DIBUJOS
 62
     7
100
AcDbVertex
100
AcDb2dVertex
 10
62.92099255369526
 20
46.97136445278562
 30
0.0
  0
VERTEX
  5
D2
330
CE
100
AcDbEntity
  8
DIBUJOS
 62
     7
100
AcDbVertex
100
AcDb2dVertex
 10
62.91464584878033
 20
46.97475873183293
 30
0.0
  0
SEQEND
  5
D3
330
CE
100
AcDbEntity
  8
DIBUJOS
 62
     7
  0
POLYLINE
  5
D4
330
52
100
AcDbEntity
  8
DIBUJOS
 62
     7
100
AcDb2dPolyline
 66
     1
 10
0.0
 20
0.0
 30
0.0
  0
VERTEX
  5
D5
330
D4
100
AcDbEntity
  8
DIBUJOS
 62
     7
100
AcDbVertex
100
AcDb2dVertex
 10
65.61943982776839
 20
46.9202971661967
 30
0.0
  0
VERTEX
  5
D6
330
D4
100
AcDbEntity
  8
DIBUJOS
 62
     7
100
AcDbVertex
100
AcDb2dVertex
 10
65.63154205107558
 20
46.91424479530403
 30
0.0
  0
VERTEX
  5
D7
330
D4
100
AcDbEntity
  8
DIBUJOS
 62
     7
100
AcDbVertex
100
AcDb2dVertex
 10
66.1394999356498
 20
46.95921084901784
 30
0.0
  0
VERTEX
  5
D8
330
D4
100
AcDbEntity
  8
DIBUJOS
 62
     7
100
AcDbVertex
100
AcDb2dVertex
 10
66.15192788155846
 20
46.96265724751309
 30
0.0
  0
SEQEND
  5
D9
330
D4
100
AcDbEntity
  8
DIBUJOS
 62
     7
  0
POLYLINE
  5
DA
330
52
100
AcDbEntity
  8
DIBUJOS
 62
     7
100
AcDb2dPolyline
 66
     1
 10
0.0
 20
0.0
 30
0.0
  0
VERTEX
  5
DB
330
DA
100
AcDbEntity
  8
DIBUJOS
 62
     7
100
AcDbVertex
100
AcDb2dVertex
 10
65.03249421202048
 20
46.8900385691995
 30
0.0
  0
VERTEX
  5
DC
330
DA
100
AcDbEntity
  8
DIBUJOS
 62
     7
100
AcDbVertex
100
AcDb2dVertex
 10
65.02039198871458
 20
46.8900385691995
 30
0.0
  0
SEQEND
  5
DD
330
DA
100
AcDbEntity
  8
DIBUJOS
 62
     7
  0
POLYLINE
  5
DE
330
52
100
AcDbEntity
  8
DIBUJOS
 62
     7
100
AcDb2dPolyline
 66
     1
 10
0.0
 20
0.0
 30
0.0
  0
VERTEX
  5
DF
330
DE
100
AcDbEntity
  8
DIBUJOS
 62
     7
100
AcDbVertex
100
AcDb2dVertex
 10
65.05064673267353
 20
46.8900385691995
 30
0.0
  0
VERTEX
  5
E0
330
DE
100
AcDbEntity
  8
DIBUJOS
 62
     7
100
AcDbVertex
100
AcDb2dVertex
 10
65.04459643532768
 20
46.8900385691995
 30
0.0
  0
SEQEND
  5
E1
330
DE
100
AcDbEntity
  8
DIBUJOS
 62
     7
  0
POLYLINE
  5
E2
330
52
100
AcDbEntity
  8
DIBUJOS
 62
     7
100
AcDb2dPolyline
 66
     1
 10
0.0
 20
0.0
 30
0.0
  0
VERTEX
  5
E3
330
E2
100
AcDbEntity
  8
DIBUJOS
 62
     7
100
AcDbVertex
100
AcDb2dVertex
 10
64.98408531879686
 20
46.88398619830716
 30
0.0
  0
VERTEX
  5
E4
330
E2
100
AcDbEntity
  8
DIBUJOS
 62
     7
100
AcDbVertex
100
AcDb2dVertex
 10
65.00828976540868
 20
46.8900385691995
 30
0.0
  0
SEQEND
  5
E5
330
E2
100
AcDbEntity
  8
DIBUJOS
 62
     7
  0
POLYLINE
  5
E6
330
52
100
AcDbEntity
  8
DIBUJOS
 62
     7
100
AcDb2dPolyline
 66
     1
 10
0.0
 20
0.0
 30
0.0
  0
VERTEX
  5
E7
330
E6
100
AcDbEntity
  8
DIBUJOS
 62
     7
100
AcDbVertex
100
AcDb2dVertex
 10
62.53948506935669
 20
46.87793708487999
 30
0.0
  0
VERTEX
  5
E8
330
E6
100
AcDbEntity
  8
DIBUJOS
 62
     7
100
AcDbVertex
100
AcDb2dVertex
 10
62.53948506935669
 20
46.88398619830716
 30
0.0
  0
VERTEX
  5
E9
330
E6
100
AcDbEntity
  8
DIBUJOS
 62
     7
100
AcDbVertex
100
AcDb2dVertex
 10
62.54553536670254
 20
46.88398619830716
 30
0.0
  0
SEQEND
  5
EA
330
E6
100
AcDbEntity
  8
DIBUJOS
 62
     7
  0
POLYLINE
  5
EB
330
52
100
AcDbEntity
  8
DIBUJOS
 62
     7
100
AcDb2dPolyline
 66
     1
 10
0.0
 20
0.0
 30
0.0
  0
VERTEX
  5
EC
330
EB
100
AcDbEntity
  8
DIBUJOS
 62
     7
100
AcDbVertex
100
AcDb2dVertex
 10
63.56210258105777
 20
46.91424479530403
 30
0.0
  0
VERTEX
  5
ED
330
EB
100
AcDbEntity
  8
DIBUJOS
 62
     7
100
AcDbVertex
100
AcDb2dVertex
 10
64.38494953463943
 20
46.88105447936007
 30
0.0
  0
VERTEX
  5
EE
330
EB
100
AcDbEntity
  8
DIBUJOS
 62
     7
100
AcDbVertex
100
AcDb2dVertex
 10
64.79660264586548
 20
46.88106425175656
 30
0.0
  0
VERTEX
  5
EF
330
EB
100
AcDbEntity
  8
DIBUJOS
 62
     7
100
AcDbVertex
100
AcDb2dVertex
 10
65.61943982776839
 20
46.9202971661967
 30
0.0
  0
SEQEND
  5
F0
330
EB
100
AcDbEntity
  8
DIBUJOS
 62
     7
  0
POLYLINE
  5
F1
330
52
100
AcDbEntity
  8
DIBUJOS
 62
     7
100
AcDb2dPolyline
 66
     1
 10
0.0
 20
0.0
 30
0.0
  0
VERTEX
  5
F2
330
F1
100
AcDbEntity
  8
DIBUJOS
 62
     7
100
AcDbVertex
100
AcDb2dVertex
 10
62.78152464963863
 20
46.84767848788279
 30
0.0
  0
VERTEX
  5
F3
330
F1
100
AcDbEntity
  8
DIBUJOS
 62
     7
100
AcDbVertex
100
AcDb2dVertex
 10
62.77500856897068
 20
46.85140177094559
 30
0.0
  0
VERTEX
  5
F4
330
F1
100
AcDbEntity
  8
DIBUJOS
 62
     7
100
AcDbVertex
100
AcDb2dVertex
 10
62.5997258361263
 20
46.88129227434133
 30
0.0
  0
VERTEX
  5
F5
330
F1
100
AcDbEntity
  8
DIBUJOS
 62
     7
100
AcDbVertex
100
AcDb2dVertex
 10
62.54553536670254
 20
46.88398619830716
 30
0.0
  0
SEQEND
  5
F6
330
F1
100
AcDbEntity
  8
DIBUJOS
 62
     7
  0
POLYLINE
  5
F7
330
52
100
AcDbEntity
  8
DIBUJOS
 62
     7
100
AcDb2dPolyline
 66
     1
 10
0.0
 20
0.0
 30
0.0
  0
VERTEX
  5
F8
330
F7
100
AcDbEntity
  8
DIBUJOS
 62
     7
100
AcDbVertex
100
AcDb2dVertex
 10
62.78757657559868
 20
46.84767848788279
 30
0.0
  0
VERTEX
  5
F9
330
F7
100
AcDbEntity
  8
DIBUJOS
 62
     7
100
AcDbVertex
100
AcDb2dVertex
 10
62.78152464963863
 20
46.84767848788279
 30
0.0
  0
SEQEND
  5
FA
330
F7
100
AcDbEntity
  8
DIBUJOS
 62
     7
  0
POLYLINE
  5
FB
330
52
100
AcDbEntity
  8
DIBUJOS
 62
     7
100
AcDb2dPolyline
 66
     1
 10
0.0
 20
0.0
 30
0.0
  0
VERTEX
  5
FC
330
FB
100
AcDbEntity
  8
DIBUJOS
 62
     7
100
AcDbVertex
100
AcDb2dVertex
 10
62.79362687294581
 20
46.84767848788279
 30
0.0
  0
VERTEX
  5
FD
330
FB
100
AcDbEntity
  8
DIBUJOS
 62
     7
100
AcDbVertex
100
AcDb2dVertex
 10
62.78757657559868
 20
46.84767848788279
 30
0.0
  0
SEQEND
  5
FE
330
FB
100
AcDbEntity
  8
DIBUJOS
 62
     7
  0
POLYLINE
  5
FF
330
52
100
AcDbEntity
  8
DIBUJOS
 62
     7
100
AcDb2dPolyline
 66
     1
 10
0.0
 20
0.0
 30
0.0
  0
VERTEX
  5
100
330
FF
100
AcDbEntity
  8
DIBUJOS
 62
     7
100
AcDbVertex
100
AcDb2dVertex
 10
62.78757657559868
 20
46.84162611699045
 30
0.0
  0
VERTEX
  5
101
330
FF
100
AcDbEntity
  8
DIBUJOS
 62
     7
100
AcDbVertex
100
AcDb2dVertex
 10
62.78757657559868
 20
46.84767848788279
 30
0.0
  0
SEQEND
  5
102
330
FF
100
AcDbEntity
  8
DIBUJOS
 62
     7
  0
POLYLINE
  5
103
330
52
100
AcDbEntity
  8
DIBUJOS
 62
     7
100
AcDb2dPolyline
 66
     1
 10
0.0
 20
0.0
 30
0.0
  0
VERTEX
  5
104
330
103
100
AcDbEntity
  8
DIBUJOS
 62
     7
100
AcDbVertex
100
AcDb2dVertex
 10
66.41211998249473
 20
46.84162611699045
 30
0.0
  0
VERTEX
  5
105
330
103
100
AcDbEntity
  8
DIBUJOS
 62
     7
100
AcDbVertex
100
AcDb2dVertex
 10
66.40606968514759
 20
46.84162611699045
 30
0.0
  0
SEQEND
  5
106
330
103
100
AcDbEntity
  8
DIBUJOS
 62
     7
  0
POLYLINE
  5
107
330
52
100
AcDbEntity
  8
DIBUJOS
 62
     7
100
AcDb2dPolyline
 66
     1
 10
0.0
 20
0.0
 30
0.0
  0
VERTEX
  5
108
330
107
100
AcDbEntity
  8
DIBUJOS
 62
     7
100
AcDbVertex
100
AcDb2dVertex
 10
66.41211998249473
 20
46.83557700356327
 30
0.0
  0
VERTEX
  5
109
330
107
100
AcDbEntity
  8
DIBUJOS
 62
     7
100
AcDbVertex
100
AcDb2dVertex
 10
66.41211998249473
 20
46.84162611699045
 30
0.0
  0
SEQEND
  5
10A
330
107
100
AcDbEntity
  8
DIBUJOS
 62
     7
  0
POLYLINE
  5
10B
330
52
100
AcDbEntity
  8
DIBUJOS
 62
     7
100
AcDb2dPolyline
 66
     1
 10
0.0
 20
0.0
 30
0.0
  0
VERTEX
  5
10C
330
10B
100
AcDbEntity
  8
DIBUJOS
 62
     7
100
AcDbVertex
100
AcDb2dVertex
 10
64.46975141427275
 20
46.73875209914484
 30
0.0
  0
VERTEX
  5
10D
330
10B
100
AcDbEntity
  8
DIBUJOS
 62
     7
100
AcDbVertex
100
AcDb2dVertex
 10
64.37284079688187
 20
46.74187926602173
 30
0.0
  0
VERTEX
  5
10E
330
10B
100
AcDbEntity
  8
DIBUJOS
 62
     7
100
AcDbVertex
100
AcDb2dVertex
 10
63.61664645950632
 20
46.75984418823478
 30
0.0
  0
VERTEX
  5
10F
330
10B
100
AcDbEntity
  8
DIBUJOS
 62
     7
100
AcDbVertex
100
AcDb2dVertex
 10
63.61051147428267
 20
46.76295832524936
 30
0.0
  0
VERTEX
  5
110
330
10B
100
AcDbEntity
  8
DIBUJOS
 62
     7
100
AcDbVertex
100
AcDb2dVertex
 10
63.59840925097676
 20
46.75690595435702
 30
0.0
  0
VERTEX
  5
111
330
10B
100
AcDbEntity
  8
DIBUJOS
 62
     7
100
AcDbVertex
100
AcDb2dVertex
 10
63.07167671557769
 20
46.80871268561371
 30
0.0
  0
VERTEX
  5
112
330
10B
100
AcDbEntity
  8
DIBUJOS
 62
     7
100
AcDbVertex
100
AcDb2dVertex
 10
63.02385900887801
 20
46.81402561183829
 30
0.0
  0
VERTEX
  5
113
330
10B
100
AcDbEntity
  8
DIBUJOS
 62
     7
100
AcDbVertex
100
AcDb2dVertex
 10
62.79362687294581
 20
46.84767848788279
 30
0.0
  0
SEQEND
  5
114
330
10B
100
AcDbEntity
  8
DIBUJOS
 62
     7
  0
POLYLINE
  5
115
330
52
100
AcDbEntity
  8
DIBUJOS
 62
     7
100
AcDb2dPolyline
 66
     1
 10
0.0
 20
0.0
 30
0.0
  0
VERTEX
  5
116
330
115
100
AcDbEntity
  8
DIBUJOS
 62
     7
100
AcDbVertex
100
AcDb2dVertex
 10
64.47580334023152
 20
46.73875209914484
 30
0.0
  0
VERTEX
  5
117
330
115
100
AcDbEntity
  8
DIBUJOS
 62
     7
100
AcDbVertex
100
AcDb2dVertex
 10
64.46975141427275
 20
46.73875209914484
 30
0.0
  0
SEQEND
  5
118
330
115
100
AcDbEntity
  8
DIBUJOS
 62
     7
  0
POLYLINE
  5
119
330
52
100
AcDbEntity
  8
DIBUJOS
 62
     7
100
AcDb2dPolyline
 66
     1
 10
0.0
 20
0.0
 30
0.0
  0
VERTEX
  5
11A
330
119
100
AcDbEntity
  8
DIBUJOS
 62
     7
100
AcDbVertex
100
AcDb2dVertex
 10
64.48185363757867
 20
46.73875209914484
 30
0.0
  0
VERTEX
  5
11B
330
119
100
AcDbEntity
  8
DIBUJOS
 62
     7
100
AcDbVertex
100
AcDb2dVertex
 10
64.47580334023152
 20
46.73875209914484
 30
0.0
  0
SEQEND
  5
11C
330
119
100
AcDbEntity
  8
DIBUJOS
 62
     7
  0
POLYLINE
  5
11D
330
52
100
AcDbEntity
  8
DIBUJOS
 62
     7
100
AcDb2dPolyline
 66
     1
 10
0.0
 20
0.0
 30
0.0
  0
VERTEX
  5
11E
330
11D
100
AcDbEntity
  8
DIBUJOS
 62
     7
100
AcDbVertex
100
AcDb2dVertex
 10
64.48185363757867
 20
46.73875209914484
 30
0.0
  0
VERTEX
  5
11F
330
11D
100
AcDbEntity
  8
DIBUJOS
 62
     7
100
AcDbVertex
100
AcDb2dVertex
 10
64.49395586088457
 20
46.7448044700375
 30
0.0
  0
SEQEND
  5
120
330
11D
100
AcDbEntity
  8
DIBUJOS
 62
     7
  0
POLYLINE
  5
121
330
52
100
AcDbEntity
  8
DIBUJOS
 62
     7
100
AcDb2dPolyline
 66
     1
 10
0.0
 20
0.0
 30
0.0
  0
VERTEX
  5
122
330
121
100
AcDbEntity
  8
DIBUJOS
 62
     7
100
AcDbVertex
100
AcDb2dVertex
 10
64.72389321786059
 20
46.73875209914484
 30
0.0
  0
VERTEX
  5
123
330
121
100
AcDbEntity
  8
DIBUJOS
 62
     7
100
AcDbVertex
100
AcDb2dVertex
 10
64.71179099455469
 20
46.73875209914484
 30
0.0
  0
VERTEX
  5
124
330
121
100
AcDbEntity
  8
DIBUJOS
 62
     7
100
AcDbVertex
100
AcDb2dVertex
 10
64.70574069720884
 20
46.7448044700375
 30
0.0
  0
SEQEND
  5
125
330
121
100
AcDbEntity
  8
DIBUJOS
 62
     7
  0
POLYLINE
  5
126
330
52
100
AcDbEntity
  8
DIBUJOS
 62
     7
100
AcDb2dPolyline
 66
     1
 10
0.0
 20
0.0
 30
0.0
  0
VERTEX
  5
127
330
126
100
AcDbEntity
  8
DIBUJOS
 62
     7
100
AcDbVertex
100
AcDb2dVertex
 10
64.72994514382064
 20
46.73875209914484
 30
0.0
  0
VERTEX
  5
128
330
126
100
AcDbEntity
  8
DIBUJOS
 62
     7
100
AcDbVertex
100
AcDb2dVertex
 10
64.72389321786059
 20
46.73875209914484
 30
0.0
  0
SEQEND
  5
129
330
126
100
AcDbEntity
  8
DIBUJOS
 62
     7
  0
POLYLINE
  5
12A
330
52
100
AcDbEntity
  8
DIBUJOS
 62
     7
100
AcDb2dPolyline
 66
     1
 10
0.0
 20
0.0
 30
0.0
  0
VERTEX
  5
12B
330
12A
100
AcDbEntity
  8
DIBUJOS
 62
     7
100
AcDbVertex
100
AcDb2dVertex
 10
64.73599544116779
 20
46.73875209914484
 30
0.0
  0
VERTEX
  5
12C
330
12A
100
AcDbEntity
  8
DIBUJOS
 62
     7
100
AcDbVertex
100
AcDb2dVertex
 10
64.72994514382064
 20
46.73875209914484
 30
0.0
  0
SEQEND
  5
12D
330
12A
100
AcDbEntity
  8
DIBUJOS
 62
     7
  0
POLYLINE
  5
12E
330
52
100
AcDbEntity
  8
DIBUJOS
 62
     7
100
AcDb2dPolyline
 66
     1
 10
0.0
 20
0.0
 30
0.0
  0
VERTEX
  5
12F
330
12E
100
AcDbEntity
  8
DIBUJOS
 62
     7
100
AcDbVertex
100
AcDb2dVertex
 10
64.73599544116779
 20
46.73875209914484
 30
0.0
  0
VERTEX
  5
130
330
12E
100
AcDbEntity
  8
DIBUJOS
 62
     7
100
AcDbVertex
100
AcDb2dVertex
 10
65.226126527693
 20
46.75690595435702
 30
0.0
  0
VERTEX
  5
131
330
12E
100
AcDbEntity
  8
DIBUJOS
 62
     7
100
AcDbVertex
100
AcDb2dVertex
 10
65.3350432802216
 20
46.75690595435702
 30
0.0
  0
VERTEX
  5
132
330
12E
100
AcDbEntity
  8
DIBUJOS
 62
     7
100
AcDbVertex
100
AcDb2dVertex
 10
65.34109520618037
 20
46.75085684093017
 30
0.0
  0
VERTEX
  5
133
330
12E
100
AcDbEntity
  8
DIBUJOS
 62
     7
100
AcDbVertex
100
AcDb2dVertex
 10
65.5954031282967
 20
46.76012107280233
 30
0.0
  0
VERTEX
  5
134
330
12E
100
AcDbEntity
  8
DIBUJOS
 62
     7
100
AcDbVertex
100
AcDb2dVertex
 10
65.691885420465
 20
46.76579557769705
 30
0.0
  0
VERTEX
  5
135
330
12E
100
AcDbEntity
  8
DIBUJOS
 62
     7
100
AcDbVertex
100
AcDb2dVertex
 10
66.08569219028455
 20
46.80271243416899
 30
0.0
  0
VERTEX
  5
136
330
12E
100
AcDbEntity
  8
DIBUJOS
 62
     7
100
AcDbVertex
100
AcDb2dVertex
 10
66.40606968514759
 20
46.84162611699045
 30
0.0
  0
SEQEND
  5
137
330
12E
100
AcDbEntity
  8
DIBUJOS
 62
     7
  0
POLYLINE
  5
138
330
52
100
AcDbEntity
  8
DIBUJOS
 62
     7
100
AcDb2dPolyline
 66
     1
 10
0.0
 20
0.0
 30
0.0
  0
VERTEX
  5
139
330
138
100
AcDbEntity
  8
DIBUJOS
 62
     7
100
AcDbVertex
100
AcDb2dVertex
 10
64.47580334023152
 20
46.73270298571799
 30
0.0
  0
VERTEX
  5
13A
330
138
100
AcDbEntity
  8
DIBUJOS
 62
     7
100
AcDbVertex
100
AcDb2dVertex
 10
64.47580334023152
 20
46.73875209914484
 30
0.0
  0
SEQEND
  5
13B
330
138
100
AcDbEntity
  8
DIBUJOS
 62
     7
  0
POLYLINE
  5
13C
330
52
100
AcDbEntity
  8
DIBUJOS
 62
     7
100
AcDb2dPolyline
 66
     1
 10
0.0
 20
0.0
 30
0.0
  0
VERTEX
  5
13D
330
13C
100
AcDbEntity
  8
DIBUJOS
 62
     7
100
AcDbVertex
100
AcDb2dVertex
 10
64.72994514382064
 20
46.73270298571799
 30
0.0
  0
VERTEX
  5
13E
330
13C
100
AcDbEntity
  8
DIBUJOS
 62
     7
100
AcDbVertex
100
AcDb2dVertex
 10
64.72994514382064
 20
46.73875209914484
 30
0.0
  0
SEQEND
  5
13F
330
13C
100
AcDbEntity
  8
DIBUJOS
 62
     7
  0
POLYLINE
  5
140
330
52
100
AcDbEntity
  8
DIBUJOS
 62
     7
100
AcDb2dPolyline
 66
     1
 10
0.0
 20
0.0
 30
0.0
  0
VERTEX
  5
141
330
140
100
AcDbEntity
  8
DIBUJOS
 62
     7
100
AcDbVertex
100
AcDb2dVertex
 10
64.47580334023152
 20
46.73270298571799
 30
0.0
  0
VERTEX
  5
142
330
140
100
AcDbEntity
  8
DIBUJOS
 62
     7
100
AcDbVertex
100
AcDb2dVertex
 10
64.49395586088457
 20
46.71454587304031
 30
0.0
  0
VERTEX
  5
143
330
140
100
AcDbEntity
  8
DIBUJOS
 62
     7
100
AcDbVertex
100
AcDb2dVertex
 10
64.59077201872017
 20
46.71454587304031
 30
0.0
  0
VERTEX
  5
144
330
140
100
AcDbEntity
  8
DIBUJOS
 62
     7
100
AcDbVertex
100
AcDb2dVertex
 10
64.60287424202609
 20
46.72059824393298
 30
0.0
  0
VERTEX
  5
145
330
140
100
AcDbEntity
  8
DIBUJOS
 62
     7
100
AcDbVertex
100
AcDb2dVertex
 10
64.60892453937322
 20
46.71454587304031
 30
0.0
  0
VERTEX
  5
146
330
140
100
AcDbEntity
  8
DIBUJOS
 62
     7
100
AcDbVertex
100
AcDb2dVertex
 10
64.70574069720884
 20
46.71454587304031
 30
0.0
  0
VERTEX
  5
147
330
140
100
AcDbEntity
  8
DIBUJOS
 62
     7
100
AcDbVertex
100
AcDb2dVertex
 10
64.71691135387057
 20
46.72199569663076
 30
0.0
  0
VERTEX
  5
148
330
140
100
AcDbEntity
  8
DIBUJOS
 62
     7
100
AcDbVertex
100
AcDb2dVertex
 10
64.72994514382064
 20
46.73270298571799
 30
0.0
  0
SEQEND
  5
149
330
140
100
AcDbEntity
  8
DIBUJOS
 62
     7
  0
POLYLINE
  5
14A
330
52
100
AcDbEntity
  8
DIBUJOS
 62
     7
100
AcDb2dPolyline
 66
     1
 10
0.0
 20
0.0
 30
0.0
  0
VERTEX
  5
14B
330
14A
100
AcDbEntity
  8
DIBUJOS
 62
     7
100
AcDbVertex
100
AcDb2dVertex
 10
66.67231371204262
 20
46.70849675961346
 30
0.0
  0
VERTEX
  5
14C
330
14A
100
AcDbEntity
  8
DIBUJOS
 62
     7
100
AcDbVertex
100
AcDb2dVertex
 10
66.66913628805288
 20
46.71468268659117
 30
0.0
  0
VERTEX
  5
14D
330
14A
100
AcDbEntity
  8
DIBUJOS
 62
     7
100
AcDbVertex
100
AcDb2dVertex
 10
66.6602114887367
 20
46.87793708487999
 30
0.0
  0
VERTEX
  5
14E
330
14A
100
AcDbEntity
  8
DIBUJOS
 62
     7
100
AcDbVertex
100
AcDb2dVertex
 10
66.65415956277666
 20
46.88398619830716
 30
0.0
  0
VERTEX
  5
14F
330
14A
100
AcDbEntity
  8
DIBUJOS
 62
     7
100
AcDbVertex
100
AcDb2dVertex
 10
66.59365007486005
 20
46.88398619830716
 30
0.0
  0
VERTEX
  5
150
330
14A
100
AcDbEntity
  8
DIBUJOS
 62
     7
100
AcDbVertex
100
AcDb2dVertex
 10
66.48514047558487
 20
46.86337947157591
 30
0.0
  0
VERTEX
  5
151
330
14A
100
AcDbEntity
  8
DIBUJOS
 62
     7
100
AcDbVertex
100
AcDb2dVertex
 10
66.47827261450503
 20
46.86223610118687
 30
0.0
  0
VERTEX
  5
152
330
14A
100
AcDbEntity
  8
DIBUJOS
 62
     7
100
AcDbVertex
100
AcDb2dVertex
 10
66.42547460920754
 20
46.85060043443307
 30
0.0
  0
VERTEX
  5
153
330
14A
100
AcDbEntity
  8
DIBUJOS
 62
     7
100
AcDbVertex
100
AcDb2dVertex
 10
66.41211998249473
 20
46.84162611699045
 30
0.0
  0
SEQEND
  5
154
330
14A
100
AcDbEntity
  8
DIBUJOS
 62
     7
  0
POLYLINE
  5
155
330
52
100
AcDbEntity
  8
DIBUJOS
 62
     7
100
AcDb2dPolyline
 66
     1
 10
0.0
 20
0.0
 30
0.0
  0
VERTEX
  5
156
330
155
100
AcDbEntity
  8
DIBUJOS
 62
     7
100
AcDbVertex
100
AcDb2dVertex
 10
66.67836400938975
 20
46.70849675961346
 30
0.0
  0
VERTEX
  5
157
330
155
100
AcDbEntity
  8
DIBUJOS
 62
     7
100
AcDbVertex
100
AcDb2dVertex
 10
66.67231371204262
 20
46.70849675961346
 30
0.0
  0
SEQEND
  5
158
330
155
100
AcDbEntity
  8
DIBUJOS
 62
     7
  0
POLYLINE
  5
159
330
52
100
AcDbEntity
  8
DIBUJOS
 62
     7
100
AcDb2dPolyline
 66
     1
 10
0.0
 20
0.0
 30
0.0
  0
VERTEX
  5
15A
330
159
100
AcDbEntity
  8
DIBUJOS
 62
     7
100
AcDbVertex
100
AcDb2dVertex
 10
66.67836400938975
 20
46.70849675961346
 30
0.0
  0
VERTEX
  5
15B
330
159
100
AcDbEntity
  8
DIBUJOS
 62
     7
100
AcDbVertex
100
AcDb2dVertex
 10
66.69167629216432
 20
46.7169661699044
 30
0.0
  0
VERTEX
  5
15C
330
159
100
AcDbEntity
  8
DIBUJOS
 62
     7
100
AcDbVertex
100
AcDb2dVertex
 10
66.78774654524045
 20
46.73642626878047
 30
0.0
  0
VERTEX
  5
15D
330
159
100
AcDbEntity
  8
DIBUJOS
 62
     7
100
AcDbVertex
100
AcDb2dVertex
 10
66.82358743183607
 20
46.7448044700375
 30
0.0
  0
VERTEX
  5
15E
330
159
100
AcDbEntity
  8
DIBUJOS
 62
     7
100
AcDbVertex
100
AcDb2dVertex
 10
66.83568965514327
 20
46.75690595435702
 30
0.0
  0
VERTEX
  5
15F
330
159
100
AcDbEntity
  8
DIBUJOS
 62
     7
100
AcDbVertex
100
AcDb2dVertex
 10
66.83568965514327
 20
46.8597832296678
 30
0.0
  0
VERTEX
  5
160
330
159
100
AcDbEntity
  8
DIBUJOS
 62
     7
100
AcDbVertex
100
AcDb2dVertex
 10
66.82126014383982
 20
46.92588046205751
 30
0.0
  0
VERTEX
  5
161
330
159
100
AcDbEntity
  8
DIBUJOS
 62
     7
100
AcDbVertex
100
AcDb2dVertex
 10
66.81753713449022
 20
46.94450013483573
 30
0.0
  0
VERTEX
  5
162
330
159
100
AcDbEntity
  8
DIBUJOS
 62
     7
100
AcDbVertex
100
AcDb2dVertex
 10
66.84295164057197
 20
46.98020521414288
 30
0.0
  0
VERTEX
  5
163
330
159
100
AcDbEntity
  8
DIBUJOS
 62
     7
100
AcDbVertex
100
AcDb2dVertex
 10
66.86110416122374
 20
47.01046381114007
 30
0.0
  0
VERTEX
  5
164
330
159
100
AcDbEntity
  8
DIBUJOS
 62
     7
100
AcDbVertex
100
AcDb2dVertex
 10
66.89228395737521
 20
47.09525238054861
 30
0.0
  0
VERTEX
  5
165
330
159
100
AcDbEntity
  8
DIBUJOS
 62
     7
100
AcDbVertex
100
AcDb2dVertex
 10
66.90457835701618
 20
47.15583798131843
 30
0.0
  0
VERTEX
  5
166
330
159
100
AcDbEntity
  8
DIBUJOS
 62
     7
100
AcDbVertex
100
AcDb2dVertex
 10
66.91135012992913
 20
47.31366218462446
 30
0.0
  0
VERTEX
  5
167
330
159
100
AcDbEntity
  8
DIBUJOS
 62
     7
100
AcDbVertex
100
AcDb2dVertex
 10
66.91735482611091
 20
48.10030426991221
 30
0.0
  0
VERTEX
  5
168
330
159
100
AcDbEntity
  8
DIBUJOS
 62
     7
100
AcDbVertex
100
AcDb2dVertex
 10
66.91137781634991
 20
48.50572516814221
 30
0.0
  0
VERTEX
  5
169
330
159
100
AcDbEntity
  8
DIBUJOS
 62
     7
100
AcDbVertex
100
AcDb2dVertex
 10
66.8994742838307
 20
48.85654117225477
 30
0.0
  0
VERTEX
  5
16A
330
159
100
AcDbEntity
  8
DIBUJOS
 62
     7
100
AcDbVertex
100
AcDb2dVertex
 10
66.88130221982273
 20
49.10466557658953
 30
0.0
  0
VERTEX
  5
16B
330
159
100
AcDbEntity
  8
DIBUJOS
 62
     7
100
AcDbVertex
100
AcDb2dVertex
 10
66.86827168709847
 20
49.22635797260834
 30
0.0
  0
VERTEX
  5
16C
330
159
100
AcDbEntity
  8
DIBUJOS
 62
     7
100
AcDbVertex
100
AcDb2dVertex
 10
66.81362194880428
 20
49.49269160906874
 30
0.0
  0
VERTEX
  5
16D
330
159
100
AcDbEntity
  8
DIBUJOS
 62
     7
100
AcDbVertex
100
AcDb2dVertex
 10
66.72556121453181
 20
49.72150575794029
 30
0.0
  0
VERTEX
  5
16E
330
159
100
AcDbEntity
  8
DIBUJOS
 62
     7
100
AcDbVertex
100
AcDb2dVertex
 10
66.69772658951146
 20
49.78323147163366
 30
0.0
  0
VERTEX
  5
16F
330
159
100
AcDbEntity
  8
DIBUJOS
 62
     7
100
AcDbVertex
100
AcDb2dVertex
 10
66.55129310759519
 20
49.98837361874215
 30
0.0
  0
VERTEX
  5
170
330
159
100
AcDbEntity
  8
DIBUJOS
 62
     7
100
AcDbVertex
100
AcDb2dVertex
 10
66.5028858429832
 20
50.03678607095122
 30
0.0
  0
VERTEX
  5
171
330
159
100
AcDbEntity
  8
DIBUJOS
 62
     7
100
AcDbVertex
100
AcDb2dVertex
 10
66.36262317577719
 20
50.15031200097027
 30
0.0
  0
VERTEX
  5
172
330
159
100
AcDbEntity
  8
DIBUJOS
 62
     7
100
AcDbVertex
100
AcDb2dVertex
 10
66.2783929393116
 20
50.20501461905327
 30
0.0
  0
VERTEX
  5
173
330
159
100
AcDbEntity
  8
DIBUJOS
 62
     7
100
AcDbVertex
100
AcDb2dVertex
 10
66.24934825482259
 20
50.21953965770205
 30
0.0
  0
VERTEX
  5
174
330
159
100
AcDbEntity
  8
DIBUJOS
 62
     7
100
AcDbVertex
100
AcDb2dVertex
 10
66.04845558233556
 20
50.30728600578165
 30
0.0
  0
VERTEX
  5
175
330
159
100
AcDbEntity
  8
DIBUJOS
 62
     7
100
AcDbVertex
100
AcDb2dVertex
 10
65.98296579582113
 20
50.32353098621273
 30
0.0
  0
VERTEX
  5
176
330
159
100
AcDbEntity
  8
DIBUJOS
 62
     7
100
AcDbVertex
100
AcDb2dVertex
 10
65.70997605382357
 20
50.37896327656699
 30
0.0
  0
VERTEX
  5
177
330
159
100
AcDbEntity
  8
DIBUJOS
 62
     7
100
AcDbVertex
100
AcDb2dVertex
 10
65.64387390881608
 20
50.3844716507217
 30
0.0
  0
VERTEX
  5
178
330
159
100
AcDbEntity
  8
DIBUJOS
 62
     7
100
AcDbVertex
100
AcDb2dVertex
 10
65.4377989897187
 20
50.40301965925867
 30
0.0
  0
VERTEX
  5
179
330
159
100
AcDbEntity
  8
DIBUJOS
 62
     7
100
AcDbVertex
100
AcDb2dVertex
 10
65.28674676129526
 20
50.40882772023908
 30
0.0
  0
VERTEX
  5
17A
330
159
100
AcDbEntity
  8
DIBUJOS
 62
     7
100
AcDbVertex
100
AcDb2dVertex
 10
63.90701024513665
 20
50.41197443190863
 30
0.0
  0
VERTEX
  5
17B
330
159
100
AcDbEntity
  8
DIBUJOS
 62
     7
100
AcDbVertex
100
AcDb2dVertex
 10
63.5562998328898
 20
50.38504170718331
 30
0.0
  0
VERTEX
  5
17C
330
159
100
AcDbEntity
  8
DIBUJOS
 62
     7
100
AcDbVertex
100
AcDb2dVertex
 10
63.41129301597348
 20
50.36728852022755
 30
0.0
  0
VERTEX
  5
17D
330
159
100
AcDbEntity
  8
DIBUJOS
 62
     7
100
AcDbVertex
100
AcDb2dVertex
 10
63.16320313834441
 20
50.31282369712583
 30
0.0
  0
VERTEX
  5
17E
330
159
100
AcDbEntity
  8
DIBUJOS
 62
     7
100
AcDbVertex
100
AcDb2dVertex
 10
63.09072985922703
 20
50.28368566825952
 30
0.0
  0
VERTEX
  5
17F
330
159
100
AcDbEntity
  8
DIBUJOS
 62
     7
100
AcDbVertex
100
AcDb2dVertex
 10
62.99875556788152
 20
50.2437458838069
 30
0.0
  0
VERTEX
  5
180
330
159
100
AcDbEntity
  8
DIBUJOS
 62
     7
100
AcDbVertex
100
AcDb2dVertex
 10
62.86717015081252
 20
50.17457360398825
 30
0.0
  0
VERTEX
  5
181
330
159
100
AcDbEntity
  8
DIBUJOS
 62
     7
100
AcDbVertex
100
AcDb2dVertex
 10
62.66655597115125
 20
50.01257984484668
 30
0.0
  0
VERTEX
  5
182
330
159
100
AcDbEntity
  8
DIBUJOS
 62
     7
100
AcDbVertex
100
AcDb2dVertex
 10
62.62885357988019
 20
49.95904991434253
 30
0.0
  0
VERTEX
  5
183
330
159
100
AcDbEntity
  8
DIBUJOS
 62
     7
100
AcDbVertex
100
AcDb2dVertex
 10
62.49858082489965
 20
49.78153758957534
 30
0.0
  0
VERTEX
  5
184
330
159
100
AcDbEntity
  8
DIBUJOS
 62
     7
100
AcDbVertex
100
AcDb2dVertex
 10
62.46263733568421
 20
49.69729953183576
 30
0.0
  0
VERTEX
  5
185
330
159
100
AcDbEntity
  8
DIBUJOS
 62
     7
100
AcDbVertex
100
AcDb2dVertex
 10
62.41725603405224
 20
49.58353254936993
 30
0.0
  0
VERTEX
  5
186
330
159
100
AcDbEntity
  8
DIBUJOS
 62
     7
100
AcDbVertex
100
AcDb2dVertex
 10
62.38448671159943
 20
49.49169156716155
 30
0.0
  0
VERTEX
  5
187
330
159
100
AcDbEntity
  8
DIBUJOS
 62
     7
100
AcDbVertex
100
AcDb2dVertex
 10
62.32537294503489
 20
49.20215174650381
 30
0.0
  0
VERTEX
  5
188
330
159
100
AcDbEntity
  8
DIBUJOS
 62
     7
100
AcDbVertex
100
AcDb2dVertex
 10
62.31278702366487
 20
49.03848690756273
 30
0.0
  0
VERTEX
  5
189
330
159
100
AcDbEntity
  8
DIBUJOS
 62
     7
100
AcDbVertex
100
AcDb2dVertex
 10
62.29465078914222
 20
48.79644093384427
 30
0.0
  0
VERTEX
  5
18A
330
159
100
AcDbEntity
  8
DIBUJOS
 62
     7
100
AcDbVertex
100
AcDb2dVertex
 10
62.27929296842043
 20
47.94904060211602
 30
0.0
  0
VERTEX
  5
18B
330
159
100
AcDbEntity
  8
DIBUJOS
 62
     7
100
AcDbVertex
100
AcDb2dVertex
 10
62.29139519172633
 20
47.23497159062522
 30
0.0
  0
SEQEND
  5
18C
330
159
100
AcDbEntity
  8
DIBUJOS
 62
     7
  0
POLYLINE
  5
18D
330
52
100
AcDbEntity
  8
DIBUJOS
 62
     7
100
AcDb2dPolyline
 66
     1
 10
0.0
 20
0.0
 30
0.0
  0
VERTEX
  5
18E
330
18D
100
AcDbEntity
  8
DIBUJOS
 62
     7
100
AcDbVertex
100
AcDb2dVertex
 10
62.52133254870365
 20
46.70244438872079
 30
0.0
  0
VERTEX
  5
18F
330
18D
100
AcDbEntity
  8
DIBUJOS
 62
     7
100
AcDbVertex
100
AcDb2dVertex
 10
62.50136412454052
 20
46.7169661699044
 30
0.0
  0
VERTEX
  5
190
330
18D
100
AcDbEntity
  8
DIBUJOS
 62
     7
100
AcDbVertex
100
AcDb2dVertex
 10
62.41194838424004
 20
46.73642626878047
 30
0.0
  0
VERTEX
  5
191
330
18D
100
AcDbEntity
  8
DIBUJOS
 62
     7
100
AcDbVertex
100
AcDb2dVertex
 10
62.37610912625604
 20
46.7448044700375
 30
0.0
  0
VERTEX
  5
192
330
18D
100
AcDbEntity
  8
DIBUJOS
 62
     7
100
AcDbVertex
100
AcDb2dVertex
 10
62.36400690295014
 20
46.75690595435702
 30
0.0
  0
VERTEX
  5
193
330
18D
100
AcDbEntity
  8
DIBUJOS
 62
     7
100
AcDbVertex
100
AcDb2dVertex
 10
62.36400690295014
 20
46.86583234309497
 30
0.0
  0
VERTEX
  5
194
330
18D
100
AcDbEntity
  8
DIBUJOS
 62
     7
100
AcDbVertex
100
AcDb2dVertex
 10
62.37843641425358
 20
46.92588046205751
 30
0.0
  0
VERTEX
  5
195
330
18D
100
AcDbEntity
  8
DIBUJOS
 62
     7
100
AcDbVertex
100
AcDb2dVertex
 10
62.38215942360318
 20
46.94450013483573
 30
0.0
  0
VERTEX
  5
196
330
18D
100
AcDbEntity
  8
DIBUJOS
 62
     7
100
AcDbVertex
100
AcDb2dVertex
 10
62.35069462017557
 20
46.98625758503554
 30
0.0
  0
VERTEX
  5
197
330
18D
100
AcDbEntity
  8
DIBUJOS
 62
     7
100
AcDbVertex
100
AcDb2dVertex
 10
62.3319362554811
 20
47.02256529545959
 30
0.0
  0
VERTEX
  5
198
330
18D
100
AcDbEntity
  8
DIBUJOS
 62
     7
100
AcDbVertex
100
AcDb2dVertex
 10
62.30582307441686
 20
47.09625242245611
 30
0.0
  0
VERTEX
  5
199
330
18D
100
AcDbEntity
  8
DIBUJOS
 62
     7
100
AcDbVertex
100
AcDb2dVertex
 10
62.30116849842307
 20
47.11952701342889
 30
0.0
  0
VERTEX
  5
19A
330
18D
100
AcDbEntity
  8
DIBUJOS
 62
     7
100
AcDbVertex
100
AcDb2dVertex
 10
62.29139519172633
 20
47.22286684884021
 30
0.0
  0
SEQEND
  5
19B
330
18D
100
AcDbEntity
  8
DIBUJOS
 62
     7
  0
POLYLINE
  5
19C
330
52
100
AcDbEntity
  8
DIBUJOS
 62
     7
100
AcDb2dPolyline
 66
     1
 10
0.0
 20
0.0
 30
0.0
  0
VERTEX
  5
19D
330
19C
100
AcDbEntity
  8
DIBUJOS
 62
     7
100
AcDbVertex
100
AcDb2dVertex
 10
62.52133254870365
 20
46.70244438872079
 30
0.0
  0
VERTEX
  5
19E
330
19C
100
AcDbEntity
  8
DIBUJOS
 62
     7
100
AcDbVertex
100
AcDb2dVertex
 10
62.52878019601577
 20
46.71547750817238
 30
0.0
  0
VERTEX
  5
19F
330
19C
100
AcDbEntity
  8
DIBUJOS
 62
     7
100
AcDbVertex
100
AcDb2dVertex
 10
62.53662685351678
 20
46.76916053955488
 30
0.0
  0
VERTEX
  5
1A0
330
19C
100
AcDbEntity
  8
DIBUJOS
 62
     7
100
AcDbVertex
100
AcDb2dVertex
 10
62.53948506935669
 20
46.87793708487999
 30
0.0
  0
SEQEND
  5
1A1
330
19C
100
AcDbEntity
  8
DIBUJOS
 62
     7
  0
POLYLINE
  5
1A2
330
52
100
AcDbEntity
  8
DIBUJOS
 62
     7
100
AcDb2dPolyline
 66
     1
 10
0.0
 20
0.0
 30
0.0
  0
VERTEX
  5
1A3
330
1A2
100
AcDbEntity
  8
DIBUJOS
 62
     7
100
AcDbVertex
100
AcDb2dVertex
 10
66.67836400938975
 20
46.70244438872079
 30
0.0
  0
VERTEX
  5
1A4
330
1A2
100
AcDbEntity
  8
DIBUJOS
 62
     7
100
AcDbVertex
100
AcDb2dVertex
 10
66.67836400938975
 20
46.70849675961346
 30
0.0
  0
SEQEND
  5
1A5
330
1A2
100
AcDbEntity
  8
DIBUJOS
 62
     7
  0
POLYLINE
  5
1A6
330
52
100
AcDbEntity
  8
DIBUJOS
 62
     7
100
AcDb2dPolyline
 66
     1
 10
0.0
 20
0.0
 30
0.0
  0
VERTEX
  5
1A7
330
1A6
100
AcDbEntity
  8
DIBUJOS
 62
     7
100
AcDbVertex
100
AcDb2dVertex
 10
66.43027413176068
 20
46.38776996429227
 30
0.0
  0
VERTEX
  5
1A8
330
1A6
100
AcDbEntity
  8
DIBUJOS
 62
     7
100
AcDbVertex
100
AcDb2dVertex
 10
66.41211998249473
 20
46.83557700356327
 30
0.0
  0
SEQEND
  5
1A9
330
1A6
100
AcDbEntity
  8
DIBUJOS
 62
     7
  0
POLYLINE
  5
1AA
330
52
100
AcDbEntity
  8
DIBUJOS
 62
     7
100
AcDb2dPolyline
 66
     1
 10
0.0
 20
0.0
 30
0.0
  0
VERTEX
  5
1AB
330
1AA
100
AcDbEntity
  8
DIBUJOS
 62
     7
100
AcDbVertex
100
AcDb2dVertex
 10
62.77547435229278
 20
46.38171759339992
 30
0.0
  0
VERTEX
  5
1AC
330
1AA
100
AcDbEntity
  8
DIBUJOS
 62
     7
100
AcDbVertex
100
AcDb2dVertex
 10
62.76942242633272
 20
46.38776996429227
 30
0.0
  0
VERTEX
  5
1AD
330
1AA
100
AcDbEntity
  8
DIBUJOS
 62
     7
100
AcDbVertex
100
AcDb2dVertex
 10
62.78503431068405
 20
46.80568324270172
 30
0.0
  0
VERTEX
  5
1AE
330
1AA
100
AcDbEntity
  8
DIBUJOS
 62
     7
100
AcDbVertex
100
AcDb2dVertex
 10
62.78757657559868
 20
46.84162611699045
 30
0.0
  0
SEQEND
  5
1AF
330
1AA
100
AcDbEntity
  8
DIBUJOS
 62
     7
  0
POLYLINE
  5
1B0
330
52
100
AcDbEntity
  8
DIBUJOS
 62
     7
100
AcDb2dPolyline
 66
     1
 10
0.0
 20
0.0
 30
0.0
  0
VERTEX
  5
1B1
330
1B0
100
AcDbEntity
  8
DIBUJOS
 62
     7
100
AcDbVertex
100
AcDb2dVertex
 10
62.78152464963863
 20
46.38171759339992
 30
0.0
  0
VERTEX
  5
1B2
330
1B0
100
AcDbEntity
  8
DIBUJOS
 62
     7
100
AcDbVertex
100
AcDb2dVertex
 10
62.77547435229278
 20
46.38171759339992
 30
0.0
  0
SEQEND
  5
1B3
330
1B0
100
AcDbEntity
  8
DIBUJOS
 62
     7
  0
POLYLINE
  5
1B4
330
52
100
AcDbEntity
  8
DIBUJOS
 62
     7
100
AcDb2dPolyline
 66
     1
 10
0.0
 20
0.0
 30
0.0
  0
VERTEX
  5
1B5
330
1B4
100
AcDbEntity
  8
DIBUJOS
 62
     7
100
AcDbVertex
100
AcDb2dVertex
 10
66.43027413176068
 20
46.38171759339992
 30
0.0
  0
VERTEX
  5
1B6
330
1B4
100
AcDbEntity
  8
DIBUJOS
 62
     7
100
AcDbVertex
100
AcDb2dVertex
 10
66.42422220580063
 20
46.38171759339992
 30
0.0
  0
SEQEND
  5
1B7
330
1B4
100
AcDbEntity
  8
DIBUJOS
 62
     7
  0
POLYLINE
  5
1B8
330
52
100
AcDbEntity
  8
DIBUJOS
 62
     7
100
AcDb2dPolyline
 66
     1
 10
0.0
 20
0.0
 30
0.0
  0
VERTEX
  5
1B9
330
1B8
100
AcDbEntity
  8
DIBUJOS
 62
     7
100
AcDbVertex
100
AcDb2dVertex
 10
66.43027413176068
 20
46.38171759339992
 30
0.0
  0
VERTEX
  5
1BA
330
1B8
100
AcDbEntity
  8
DIBUJOS
 62
     7
100
AcDbVertex
100
AcDb2dVertex
 10
66.43027413176068
 20
46.38776996429227
 30
0.0
  0
SEQEND
  5
1BB
330
1B8
100
AcDbEntity
  8
DIBUJOS
 62
     7
  0
POLYLINE
  5
1BC
330
52
100
AcDbEntity
  8
DIBUJOS
 62
     7
100
AcDb2dPolyline
 66
     1
 10
0.0
 20
0.0
 30
0.0
  0
VERTEX
  5
1BD
330
1BC
100
AcDbEntity
  8
DIBUJOS
 62
     7
100
AcDbVertex
100
AcDb2dVertex
 10
62.77547435229278
 20
46.37566522250725
 30
0.0
  0
VERTEX
  5
1BE
330
1BC
100
AcDbEntity
  8
DIBUJOS
 62
     7
100
AcDbVertex
100
AcDb2dVertex
 10
62.77547435229278
 20
46.38171759339992
 30
0.0
  0
SEQEND
  5
1BF
330
1BC
100
AcDbEntity
  8
DIBUJOS
 62
     7
  0
POLYLINE
  5
1C0
330
52
100
AcDbEntity
  8
DIBUJOS
 62
     7
100
AcDb2dPolyline
 66
     1
 10
0.0
 20
0.0
 30
0.0
  0
VERTEX
  5
1C1
330
1C0
100
AcDbEntity
  8
DIBUJOS
 62
     7
100
AcDbVertex
100
AcDb2dVertex
 10
66.43027413176068
 20
46.37566522250725
 30
0.0
  0
VERTEX
  5
1C2
330
1C0
100
AcDbEntity
  8
DIBUJOS
 62
     7
100
AcDbVertex
100
AcDb2dVertex
 10
66.43027413176068
 20
46.38171759339992
 30
0.0
  0
SEQEND
  5
1C3
330
1C0
100
AcDbEntity
  8
DIBUJOS
 62
     7
  0
POLYLINE
  5
1C4
330
52
100
AcDbEntity
  8
DIBUJOS
 62
     7
100
AcDb2dPolyline
 66
     1
 10
0.0
 20
0.0
 30
0.0
  0
VERTEX
  5
1C5
330
1C4
100
AcDbEntity
  8
DIBUJOS
 62
     7
100
AcDbVertex
100
AcDb2dVertex
 10
62.78152464963863
 20
46.38171759339992
 30
0.0
  0
VERTEX
  5
1C6
330
1C4
100
AcDbEntity
  8
DIBUJOS
 62
     7
100
AcDbVertex
100
AcDb2dVertex
 10
63.12001720705519
 20
46.33076431810338
 30
0.0
  0
VERTEX
  5
1C7
330
1C4
100
AcDbEntity
  8
DIBUJOS
 62
     7
100
AcDbVertex
100
AcDb2dVertex
 10
63.5436797106448
 20
46.28219876501598
 30
0.0
  0
VERTEX
  5
1C8
330
1C4
100
AcDbEntity
  8
DIBUJOS
 62
     7
100
AcDbVertex
100
AcDb2dVertex
 10
63.67682371036854
 20
46.27006470604118
 30
0.0
  0
VERTEX
  5
1C9
330
1C4
100
AcDbEntity
  8
DIBUJOS
 62
     7
100
AcDbVertex
100
AcDb2dVertex
 10
64.04026173331894
 20
46.2454187220949
 30
0.0
  0
VERTEX
  5
1CA
330
1C4
100
AcDbEntity
  8
DIBUJOS
 62
     7
100
AcDbVertex
100
AcDb2dVertex
 10
64.36688495909
 20
46.23043112334526
 30
0.0
  0
VERTEX
  5
1CB
330
1C4
100
AcDbEntity
  8
DIBUJOS
 62
     7
100
AcDbVertex
100
AcDb2dVertex
 10
64.84499688157291
 20
46.23354526035984
 30
0.0
  0
VERTEX
  5
1CC
330
1C4
100
AcDbEntity
  8
DIBUJOS
 62
     7
100
AcDbVertex
100
AcDb2dVertex
 10
65.18363764277336
 20
46.2454187220949
 30
0.0
  0
VERTEX
  5
1CD
330
1C4
100
AcDbEntity
  8
DIBUJOS
 62
     7
100
AcDbVertex
100
AcDb2dVertex
 10
65.61363707960042
 20
46.27611707693384
 30
0.0
  0
VERTEX
  5
1CE
330
1C4
100
AcDbEntity
  8
DIBUJOS
 62
     7
100
AcDbVertex
100
AcDb2dVertex
 10
65.73413978511005
 20
46.28758987041248
 30
0.0
  0
VERTEX
  5
1CF
330
1C4
100
AcDbEntity
  8
DIBUJOS
 62
     7
100
AcDbVertex
100
AcDb2dVertex
 10
66.13341218020443
 20
46.3358492217432
 30
0.0
  0
VERTEX
  5
1D0
330
1C4
100
AcDbEntity
  8
DIBUJOS
 62
     7
100
AcDbVertex
100
AcDb2dVertex
 10
66.1401513808553
 20
46.3367515396858
 30
0.0
  0
VERTEX
  5
1D1
330
1C4
100
AcDbEntity
  8
DIBUJOS
 62
     7
100
AcDbVertex
100
AcDb2dVertex
 10
66.41165419917263
 20
46.37799431033712
 30
0.0
  0
VERTEX
  5
1D2
330
1C4
100
AcDbEntity
  8
DIBUJOS
 62
     7
100
AcDbVertex
100
AcDb2dVertex
 10
66.42422220580063
 20
46.38171759339992
 30
0.0
  0
SEQEND
  5
1D3
330
1C4
100
AcDbEntity
  8
DIBUJOS
 62
     7
  0
POLYLINE
  5
1D4
330
52
100
AcDbEntity
  8
DIBUJOS
 62
     7
100
AcDb2dPolyline
 66
     1
 10
0.0
 20
0.0
 30
0.0
  0
VERTEX
  5
1D5
330
1D4
100
AcDbEntity
  8
DIBUJOS
 62
     7
100
AcDbVertex
100
AcDb2dVertex
 10
62.76942242633272
 20
46.19412341292089
 30
0.0
  0
VERTEX
  5
1D6
330
1D4
100
AcDbEntity
  8
DIBUJOS
 62
     7
100
AcDbVertex
100
AcDb2dVertex
 10
62.76337212898687
 20
46.20017578381356
 30
0.0
  0
VERTEX
  5
1D7
330
1D4
100
AcDbEntity
  8
DIBUJOS
 62
     7
100
AcDbVertex
100
AcDb2dVertex
 10
62.76337212898687
 20
46.28489594644666
 30
0.0
  0
VERTEX
  5
1D8
330
1D4
100
AcDbEntity
  8
DIBUJOS
 62
     7
100
AcDbVertex
100
AcDb2dVertex
 10
62.77221875487817
 20
46.3694141462196
 30
0.0
  0
VERTEX
  5
1D9
330
1D4
100
AcDbEntity
  8
DIBUJOS
 62
     7
100
AcDbVertex
100
AcDb2dVertex
 10
62.77547435229278
 20
46.37566522250725
 30
0.0
  0
SEQEND
  5
1DA
330
1D4
100
AcDbEntity
  8
DIBUJOS
 62
     7
  0
POLYLINE
  5
1DB
330
52
100
AcDbEntity
  8
DIBUJOS
 62
     7
100
AcDb2dPolyline
 66
     1
 10
0.0
 20
0.0
 30
0.0
  0
VERTEX
  5
1DC
330
1DB
100
AcDbEntity
  8
DIBUJOS
 62
     7
100
AcDbVertex
100
AcDb2dVertex
 10
62.77547435229278
 20
46.19412341292089
 30
0.0
  0
VERTEX
  5
1DD
330
1DB
100
AcDbEntity
  8
DIBUJOS
 62
     7
100
AcDbVertex
100
AcDb2dVertex
 10
62.76942242633272
 20
46.19412341292089
 30
0.0
  0
SEQEND
  5
1DE
330
1DB
100
AcDbEntity
  8
DIBUJOS
 62
     7
  0
POLYLINE
  5
1DF
330
52
100
AcDbEntity
  8
DIBUJOS
 62
     7
100
AcDb2dPolyline
 66
     1
 10
0.0
 20
0.0
 30
0.0
  0
VERTEX
  5
1E0
330
1DF
100
AcDbEntity
  8
DIBUJOS
 62
     7
100
AcDbVertex
100
AcDb2dVertex
 10
62.76942242633272
 20
46.18807104202855
 30
0.0
  0
VERTEX
  5
1E1
330
1DF
100
AcDbEntity
  8
DIBUJOS
 62
     7
100
AcDbVertex
100
AcDb2dVertex
 10
62.76942242633272
 20
46.19412341292089
 30
0.0
  0
SEQEND
  5
1E2
330
1DF
100
AcDbEntity
  8
DIBUJOS
 62
     7
  0
POLYLINE
  5
1E3
330
52
100
AcDbEntity
  8
DIBUJOS
 62
     7
100
AcDb2dPolyline
 66
     1
 10
0.0
 20
0.0
 30
0.0
  0
VERTEX
  5
1E4
330
1E3
100
AcDbEntity
  8
DIBUJOS
 62
     7
100
AcDbVertex
100
AcDb2dVertex
 10
66.43632442910653
 20
46.18202192860137
 30
0.0
  0
VERTEX
  5
1E5
330
1E3
100
AcDbEntity
  8
DIBUJOS
 62
     7
100
AcDbVertex
100
AcDb2dVertex
 10
66.43027413176068
 20
46.37566522250725
 30
0.0
  0
SEQEND
  5
1E6
330
1E3
100
AcDbEntity
  8
DIBUJOS
 62
     7
  0
POLYLINE
  5
1E7
330
52
100
AcDbEntity
  8
DIBUJOS
 62
     7
100
AcDb2dPolyline
 66
     1
 10
0.0
 20
0.0
 30
0.0
  0
VERTEX
  5
1E8
330
1E7
100
AcDbEntity
  8
DIBUJOS
 62
     7
100
AcDbVertex
100
AcDb2dVertex
 10
66.43632442910653
 20
46.17596955770903
 30
0.0
  0
VERTEX
  5
1E9
330
1E7
100
AcDbEntity
  8
DIBUJOS
 62
     7
100
AcDbVertex
100
AcDb2dVertex
 10
66.43027413176068
 20
46.17596955770903
 30
0.0
  0
SEQEND
  5
1EA
330
1E7
100
AcDbEntity
  8
DIBUJOS
 62
     7
  0
POLYLINE
  5
1EB
330
52
100
AcDbEntity
  8
DIBUJOS
 62
     7
100
AcDb2dPolyline
 66
     1
 10
0.0
 20
0.0
 30
0.0
  0
VERTEX
  5
1EC
330
1EB
100
AcDbEntity
  8
DIBUJOS
 62
     7
100
AcDbVertex
100
AcDb2dVertex
 10
66.43632442910653
 20
46.17596955770903
 30
0.0
  0
VERTEX
  5
1ED
330
1EB
100
AcDbEntity
  8
DIBUJOS
 62
     7
100
AcDbVertex
100
AcDb2dVertex
 10
66.43632442910653
 20
46.18202192860137
 30
0.0
  0
SEQEND
  5
1EE
330
1EB
100
AcDbEntity
  8
DIBUJOS
 62
     7
  0
POLYLINE
  5
1EF
330
52
100
AcDbEntity
  8
DIBUJOS
 62
     7
100
AcDb2dPolyline
 66
     1
 10
0.0
 20
0.0
 30
0.0
  0
VERTEX
  5
1F0
330
1EF
100
AcDbEntity
  8
DIBUJOS
 62
     7
100
AcDbVertex
100
AcDb2dVertex
 10
66.43632442910653
 20
46.16991718681668
 30
0.0
  0
VERTEX
  5
1F1
330
1EF
100
AcDbEntity
  8
DIBUJOS
 62
     7
100
AcDbVertex
100
AcDb2dVertex
 10
66.43632442910653
 20
46.17596955770903
 30
0.0
  0
SEQEND
  5
1F2
330
1EF
100
AcDbEntity
  8
DIBUJOS
 62
     7
  0
POLYLINE
  5
1F3
330
52
100
AcDbEntity
  8
DIBUJOS
 62
     7
100
AcDb2dPolyline
 66
     1
 10
0.0
 20
0.0
 30
0.0
  0
VERTEX
  5
1F4
330
1F3
100
AcDbEntity
  8
DIBUJOS
 62
     7
100
AcDbVertex
100
AcDb2dVertex
 10
62.77547435229278
 20
46.19412341292089
 30
0.0
  0
VERTEX
  5
1F5
330
1F3
100
AcDbEntity
  8
DIBUJOS
 62
     7
100
AcDbVertex
100
AcDb2dVertex
 10
63.0232385073191
 20
46.15520973009976
 30
0.0
  0
VERTEX
  5
1F6
330
1F3
100
AcDbEntity
  8
DIBUJOS
 62
     7
100
AcDbVertex
100
AcDb2dVertex
 10
63.50184064231904
 20
46.10002826458874
 30
0.0
  0
VERTEX
  5
1F7
330
1F3
100
AcDbEntity
  8
DIBUJOS
 62
     7
100
AcDbVertex
100
AcDb2dVertex
 10
63.56185503187989
 20
46.09457200988199
 30
0.0
  0
VERTEX
  5
1F8
330
1F3
100
AcDbEntity
  8
DIBUJOS
 62
     7
100
AcDbVertex
100
AcDb2dVertex
 10
63.97374754921927
 20
46.0638182781296
 30
0.0
  0
VERTEX
  5
1F9
330
1F3
100
AcDbEntity
  8
DIBUJOS
 62
     7
100
AcDbVertex
100
AcDb2dVertex
 10
64.0641583720713
 20
46.05816657549303
 30
0.0
  0
VERTEX
  5
1FA
330
1F3
100
AcDbEntity
  8
DIBUJOS
 62
     7
100
AcDbVertex
100
AcDb2dVertex
 10
64.42134414966077
 20
46.04283694286654
 30
0.0
  0
VERTEX
  5
1FB
330
1F3
100
AcDbEntity
  8
DIBUJOS
 62
     7
100
AcDbVertex
100
AcDb2dVertex
 10
64.8691166403082
 20
46.04283694286654
 30
0.0
  0
VERTEX
  5
1FC
330
1F3
100
AcDbEntity
  8
DIBUJOS
 62
     7
100
AcDbVertex
100
AcDb2dVertex
 10
65.12318841353702
 20
46.05184057749896
 30
0.0
  0
VERTEX
  5
1FD
330
1F3
100
AcDbEntity
  8
DIBUJOS
 62
     7
100
AcDbVertex
100
AcDb2dVertex
 10
65.61315989598796
 20
46.08190046910085
 30
0.0
  0
VERTEX
  5
1FE
330
1F3
100
AcDbEntity
  8
DIBUJOS
 62
     7
100
AcDbVertex
100
AcDb2dVertex
 10
65.68577160721048
 20
46.0879528399932
 30
0.0
  0
VERTEX
  5
1FF
330
1F3
100
AcDbEntity
  8
DIBUJOS
 62
     7
100
AcDbVertex
100
AcDb2dVertex
 10
66.10381539590263
 20
46.13095138454728
 30
0.0
  0
VERTEX
  5
200
330
1F3
100
AcDbEntity
  8
DIBUJOS
 62
     7
100
AcDbVertex
100
AcDb2dVertex
 10
66.43027413176068
 20
46.17596955770903
 30
0.0
  0
SEQEND
  5
201
330
1F3
100
AcDbEntity
  8
DIBUJOS
 62
     7
  0
POLYLINE
  5
202
330
52
100
AcDbEntity
  8
DIBUJOS
 62
     7
100
AcDb2dPolyline
 66
     1
 10
0.0
 20
0.0
 30
0.0
  0
VERTEX
  5
203
330
202
100
AcDbEntity
  8
DIBUJOS
 62
     7
100
AcDbVertex
100
AcDb2dVertex
 10
62.52133254870365
 20
46.70244438872079
 30
0.0
  0
VERTEX
  5
204
330
202
100
AcDbEntity
  8
DIBUJOS
 62
     7
100
AcDbVertex
100
AcDb2dVertex
 10
62.50005309106496
 20
46.01248713683544
 30
0.0
  0
VERTEX
  5
205
330
202
100
AcDbEntity
  8
DIBUJOS
 62
     7
100
AcDbVertex
100
AcDb2dVertex
 10
62.38820972095032
 20
42.47249025668127
 30
0.0
  0
VERTEX
  5
206
330
202
100
AcDbEntity
  8
DIBUJOS
 62
     7
100
AcDbVertex
100
AcDb2dVertex
 10
62.40031194425622
 20
42.44223165968375
 30
0.0
  0
VERTEX
  5
207
330
202
100
AcDbEntity
  8
DIBUJOS
 62
     7
100
AcDbVertex
100
AcDb2dVertex
 10
62.41148260091795
 20
42.43478509355879
 30
0.0
  0
VERTEX
  5
208
330
202
100
AcDbEntity
  8
DIBUJOS
 62
     7
100
AcDbVertex
100
AcDb2dVertex
 10
62.44872083747985
 20
42.41802706231213
 30
0.0
  0
VERTEX
  5
209
330
202
100
AcDbEntity
  8
DIBUJOS
 62
     7
100
AcDbVertex
100
AcDb2dVertex
 10
62.50945995983233
 20
42.42132361739421
 30
0.0
  0
VERTEX
  5
20A
330
202
100
AcDbEntity
  8
DIBUJOS
 62
     7
100
AcDbVertex
100
AcDb2dVertex
 10
62.57556210483983
 20
42.42683199154892
 30
0.0
  0
VERTEX
  5
20B
330
202
100
AcDbEntity
  8
DIBUJOS
 62
     7
100
AcDbVertex
100
AcDb2dVertex
 10
62.60604648323336
 20
42.43618091752399
 30
0.0
  0
VERTEX
  5
20C
330
202
100
AcDbEntity
  8
DIBUJOS
 62
     7
100
AcDbVertex
100
AcDb2dVertex
 10
62.61954442789262
 20
42.45340476633669
 30
0.0
  0
VERTEX
  5
20D
330
202
100
AcDbEntity
  8
DIBUJOS
 62
     7
100
AcDbVertex
100
AcDb2dVertex
 10
62.63384853599292
 20
42.47894981076071
 30
0.0
  0
VERTEX
  5
20E
330
202
100
AcDbEntity
  8
DIBUJOS
 62
     7
100
AcDbVertex
100
AcDb2dVertex
 10
62.63875391839041
 20
42.50838915518531
 30
0.0
  0
VERTEX
  5
20F
330
202
100
AcDbEntity
  8
DIBUJOS
 62
     7
100
AcDbVertex
100
AcDb2dVertex
 10
62.7360342309352
 20
45.38313177304708
 30
0.0
  0
VERTEX
  5
210
330
202
100
AcDbEntity
  8
DIBUJOS
 62
     7
100
AcDbVertex
100
AcDb2dVertex
 10
62.7420926713469
 20
45.57073246845678
 30
0.0
  0
VERTEX
  5
211
330
202
100
AcDbEntity
  8
DIBUJOS
 62
     7
100
AcDbVertex
100
AcDb2dVertex
 10
62.76614891417481
 20
46.18180693587891
 30
0.0
  0
VERTEX
  5
212
330
202
100
AcDbEntity
  8
DIBUJOS
 62
     7
100
AcDbVertex
100
AcDb2dVertex
 10
62.76942242633272
 20
46.18807104202855
 30
0.0
  0
SEQEND
  5
213
330
202
100
AcDbEntity
  8
DIBUJOS
 62
     7
  0
POLYLINE
  5
214
330
52
100
AcDbEntity
  8
DIBUJOS
 62
     7
100
AcDb2dPolyline
 66
     1
 10
0.0
 20
0.0
 30
0.0
  0
VERTEX
  5
215
330
214
100
AcDbEntity
  8
DIBUJOS
 62
     7
100
AcDbVertex
100
AcDb2dVertex
 10
66.43632442910653
 20
46.16991718681668
 30
0.0
  0
VERTEX
  5
216
330
214
100
AcDbEntity
  8
DIBUJOS
 62
     7
100
AcDbVertex
100
AcDb2dVertex
 10
66.45761528703689
 20
45.57072269606061
 30
0.0
  0
VERTEX
  5
217
330
214
100
AcDbEntity
  8
DIBUJOS
 62
     7
100
AcDbVertex
100
AcDb2dVertex
 10
66.56126021923991
 20
42.49010988755134
 30
0.0
  0
VERTEX
  5
218
330
214
100
AcDbEntity
  8
DIBUJOS
 62
     7
100
AcDbVertex
100
AcDb2dVertex
 10
66.56944562824695
 20
42.46038714362884
 30
0.0
  0
VERTEX
  5
219
330
214
100
AcDbEntity
  8
DIBUJOS
 62
     7
100
AcDbVertex
100
AcDb2dVertex
 10
66.5997003722059
 20
42.43013017536423
 30
0.0
  0
VERTEX
  5
21A
330
214
100
AcDbEntity
  8
DIBUJOS
 62
     7
100
AcDbVertex
100
AcDb2dVertex
 10
66.70256845600157
 20
42.41802706231213
 30
0.0
  0
VERTEX
  5
21B
330
214
100
AcDbEntity
  8
DIBUJOS
 62
     7
100
AcDbVertex
100
AcDb2dVertex
 10
66.75097572061355
 20
42.41802706231213
 30
0.0
  0
VERTEX
  5
21C
330
214
100
AcDbEntity
  8
DIBUJOS
 62
     7
100
AcDbVertex
100
AcDb2dVertex
 10
66.78123046457122
 20
42.43013017536423
 30
0.0
  0
VERTEX
  5
21D
330
214
100
AcDbEntity
  8
DIBUJOS
 62
     7
100
AcDbVertex
100
AcDb2dVertex
 10
66.80059467330712
 20
42.45373051288669
 30
0.0
  0
VERTEX
  5
21E
330
214
100
AcDbEntity
  8
DIBUJOS
 62
     7
100
AcDbVertex
100
AcDb2dVertex
 10
66.81148520853017
 20
42.47854099884103
 30
0.0
  0
VERTEX
  5
21F
330
214
100
AcDbEntity
  8
DIBUJOS
 62
     7
100
AcDbVertex
100
AcDb2dVertex
 10
66.70549018774886
 20
45.8190327759287
 30
0.0
  0
VERTEX
  5
220
330
214
100
AcDbEntity
  8
DIBUJOS
 62
     7
100
AcDbVertex
100
AcDb2dVertex
 10
66.67836400938975
 20
46.70244438872079
 30
0.0
  0
SEQEND
  5
221
330
214
100
AcDbEntity
  8
DIBUJOS
 62
     7
  0
ENDBLK
  5
55
330
52
100
AcDbEntity
  8
0
100
AcDbBlockEnd
  0
BLOCK
  5
224
330
222
100
AcDbEntity
  8
0
100
AcDbBlockBegin
  2
BLOCK_3
 70
     0
 10
0.0
 20
0.0
 30
0.0
  3
BLOCK_3
  1

  0
POLYLINE
  5
226
330
222
100
AcDbEntity
  8
DIBUJOS
 62
     7
100
AcDb2dPolyline
 66
     1
 10
0.0
 20
0.0
 30
0.0
  0
VERTEX
  5
227
330
226
100
AcDbEntity
  8
DIBUJOS
 62
     7
100
AcDbVertex
100
AcDb2dVertex
 10
77.21314012057196
 20
49.8794472300042
 30
0.0
  0
VERTEX
  5
228
330
226
100
AcDbEntity
  8
DIBUJOS
 62
     7
100
AcDbVertex
100
AcDb2dVertex
 10
77.17199484138868
 20
50.00108424910957
 30
0.0
  0
VERTEX
  5
229
330
226
100
AcDbEntity
  8
DIBUJOS
 62
     7
100
AcDbVertex
100
AcDb2dVertex
 10
77.10282764669
 20
50.16898705066162
 30
0.0
  0
VERTEX
  5
22A
330
226
100
AcDbEntity
  8
DIBUJOS
 62
     7
100
AcDbVertex
100
AcDb2dVertex
 10
77.09351849470244
 20
50.18295180524529
 30
0.0
  0
VERTEX
  5
22B
330
226
100
AcDbEntity
  8
DIBUJOS
 62
     7
100
AcDbVertex
100
AcDb2dVertex
 10
77.05436338062226
 20
50.26565233927072
 30
0.0
  0
VERTEX
  5
22C
330
226
100
AcDbEntity
  8
DIBUJOS
 62
     7
100
AcDbVertex
100
AcDb2dVertex
 10
77.03766358277832
 20
50.28489418795882
 30
0.0
  0
SEQEND
  5
22D
330
226
100
AcDbEntity
  8
DIBUJOS
 62
     7
  0
POLYLINE
  5
22E
330
222
100
AcDbEntity
  8
DIBUJOS
 62
     7
100
AcDb2dPolyline
 66
     1
 10
0.0
 20
0.0
 30
0.0
  0
VERTEX
  5
22F
330
22E
100
AcDbEntity
  8
DIBUJOS
 62
     7
100
AcDbVertex
100
AcDb2dVertex
 10
77.25550034506264
 20
49.75841935694673
 30
0.0
  0
VERTEX
  5
4D6
330
22E
100
AcDbEntity
  8
0
100
AcDbVertex
100
AcDb2dVertex
 10
77.25550034506264
 20
49.75841935694673
 30
0.0
  0
SEQEND
  5
230
330
22E
100
AcDbEntity
  8
DIBUJOS
 62
     7
  0
POLYLINE
  5
231
330
222
100
AcDbEntity
  8
DIBUJOS
 62
     7
100
AcDb2dPolyline
 66
     1
 10
0.0
 20
0.0
 30
0.0
  0
VERTEX
  5
232
330
231
100
AcDbEntity
  8
DIBUJOS
 62
     7
100
AcDbVertex
100
AcDb2dVertex
 10
77.32811042767224
 20
47.96114208643522
 30
0.0
  0
VERTEX
  5
233
330
231
100
AcDbEntity
  8
DIBUJOS
 62
     7
100
AcDbVertex
100
AcDb2dVertex
 10
77.32205850171349
 20
47.96114208643522
 30
0.0
  0
SEQEND
  5
234
330
231
100
AcDbEntity
  8
DIBUJOS
 62
     7
  0
POLYLINE
  5
235
330
222
100
AcDbEntity
  8
DIBUJOS
 62
     7
100
AcDb2dPolyline
 66
     1
 10
0.0
 20
0.0
 30
0.0
  0
VERTEX
  5
236
330
235
100
AcDbEntity
  8
DIBUJOS
 62
     7
100
AcDbVertex
100
AcDb2dVertex
 10
77.32811042767224
 20
47.96114208643522
 30
0.0
  0
VERTEX
  5
237
330
235
100
AcDbEntity
  8
DIBUJOS
 62
     7
100
AcDbVertex
100
AcDb2dVertex
 10
77.32811042767224
 20
47.96719445732788
 30
0.0
  0
SEQEND
  5
238
330
235
100
AcDbEntity
  8
DIBUJOS
 62
     7
  0
POLYLINE
  5
239
330
222
100
AcDbEntity
  8
DIBUJOS
 62
     7
100
AcDb2dPolyline
 66
     1
 10
0.0
 20
0.0
 30
0.0
  0
VERTEX
  5
23A
330
239
100
AcDbEntity
  8
DIBUJOS
 62
     7
100
AcDbVertex
100
AcDb2dVertex
 10
77.3341623536323
 20
47.96114208643522
 30
0.0
  0
VERTEX
  5
23B
330
239
100
AcDbEntity
  8
DIBUJOS
 62
     7
100
AcDbVertex
100
AcDb2dVertex
 10
77.32811042767224
 20
47.96114208643522
 30
0.0
  0
SEQEND
  5
23C
330
239
100
AcDbEntity
  8
DIBUJOS
 62
     7
  0
POLYLINE
  5
23D
330
222
100
AcDbEntity
  8
DIBUJOS
 62
     7
100
AcDb2dPolyline
 66
     1
 10
0.0
 20
0.0
 30
0.0
  0
VERTEX
  5
23E
330
23D
100
AcDbEntity
  8
DIBUJOS
 62
     7
100
AcDbVertex
100
AcDb2dVertex
 10
77.99976997794987
 20
47.0050173288298
 30
0.0
  0
VERTEX
  5
23F
330
23D
100
AcDbEntity
  8
DIBUJOS
 62
     7
100
AcDbVertex
100
AcDb2dVertex
 10
77.9968710467859
 20
47.15013415923391
 30
0.0
  0
VERTEX
  5
240
330
23D
100
AcDbEntity
  8
DIBUJOS
 62
     7
100
AcDbVertex
100
AcDb2dVertex
 10
77.99111227116781
 20
47.198334876186
 30
0.0
  0
VERTEX
  5
241
330
23D
100
AcDbEntity
  8
DIBUJOS
 62
     7
100
AcDbVertex
100
AcDb2dVertex
 10
77.8038120028953
 20
48.09986125460433
 30
0.0
  0
VERTEX
  5
242
330
23D
100
AcDbEntity
  8
DIBUJOS
 62
     7
100
AcDbVertex
100
AcDb2dVertex
 10
77.79776007693525
 20
48.13011659413603
 30
0.0
  0
VERTEX
  5
243
330
23D
100
AcDbEntity
  8
DIBUJOS
 62
     7
100
AcDbVertex
100
AcDb2dVertex
 10
77.54986237564124
 20
49.21325644638132
 30
0.0
  0
VERTEX
  5
244
330
23D
100
AcDbEntity
  8
DIBUJOS
 62
     7
100
AcDbVertex
100
AcDb2dVertex
 10
77.51355733433643
 20
49.35849054554364
 30
0.0
  0
VERTEX
  5
245
330
23D
100
AcDbEntity
  8
DIBUJOS
 62
     7
100
AcDbVertex
100
AcDb2dVertex
 10
77.38438552175437
 20
49.83164392384304
 30
0.0
  0
VERTEX
  5
246
330
23D
100
AcDbEntity
  8
DIBUJOS
 62
     7
100
AcDbVertex
100
AcDb2dVertex
 10
77.34807722322246
 20
49.94661942600784
 30
0.0
  0
VERTEX
  5
247
330
23D
100
AcDbEntity
  8
DIBUJOS
 62
     7
100
AcDbVertex
100
AcDb2dVertex
 10
77.26015492105643
 20
50.17503942155429
 30
0.0
  0
VERTEX
  5
248
330
23D
100
AcDbEntity
  8
DIBUJOS
 62
     7
100
AcDbVertex
100
AcDb2dVertex
 10
77.23874191714876
 20
50.21321040224248
 30
0.0
  0
VERTEX
  5
249
330
23D
100
AcDbEntity
  8
DIBUJOS
 62
     7
100
AcDbVertex
100
AcDb2dVertex
 10
77.18141148183479
 20
50.31397032498069
 30
0.0
  0
VERTEX
  5
24A
330
23D
100
AcDbEntity
  8
DIBUJOS
 62
     7
100
AcDbVertex
100
AcDb2dVertex
 10
77.16015808200396
 20
50.34053821357037
 30
0.0
  0
VERTEX
  5
24B
330
23D
100
AcDbEntity
  8
DIBUJOS
 62
     7
100
AcDbVertex
100
AcDb2dVertex
 10
77.11632559134797
 20
50.3877682058041
 30
0.0
  0
VERTEX
  5
24C
330
23D
100
AcDbEntity
  8
DIBUJOS
 62
     7
100
AcDbVertex
100
AcDb2dVertex
 10
77.09151530069474
 20
50.39866117042432
 30
0.0
  0
VERTEX
  5
24D
330
23D
100
AcDbEntity
  8
DIBUJOS
 62
     7
100
AcDbVertex
100
AcDb2dVertex
 10
77.08667506281755
 20
50.40108146728841
 30
0.0
  0
VERTEX
  5
24E
330
23D
100
AcDbEntity
  8
DIBUJOS
 62
     7
100
AcDbVertex
100
AcDb2dVertex
 10
77.06186802939013
 20
50.41197443190863
 30
0.0
  0
VERTEX
  5
24F
330
23D
100
AcDbEntity
  8
DIBUJOS
 62
     7
100
AcDbVertex
100
AcDb2dVertex
 10
76.98320276359465
 20
50.41197443190863
 30
0.0
  0
VERTEX
  5
250
330
23D
100
AcDbEntity
  8
DIBUJOS
 62
     7
100
AcDbVertex
100
AcDb2dVertex
 10
76.84456545217529
 20
50.37352982411871
 30
0.0
  0
VERTEX
  5
251
330
23D
100
AcDbEntity
  8
DIBUJOS
 62
     7
100
AcDbVertex
100
AcDb2dVertex
 10
76.8373734971069
 20
50.37143201633911
 30
0.0
  0
VERTEX
  5
252
330
23D
100
AcDbEntity
  8
DIBUJOS
 62
     7
100
AcDbVertex
100
AcDb2dVertex
 10
76.82587874645405
 20
50.36961435059224
 30
0.0
  0
VERTEX
  5
253
330
23D
100
AcDbEntity
  8
DIBUJOS
 62
     7
100
AcDbVertex
100
AcDb2dVertex
 10
76.81377489453523
 20
50.3575128662724
 30
0.0
  0
VERTEX
  5
254
330
23D
100
AcDbEntity
  8
DIBUJOS
 62
     7
100
AcDbVertex
100
AcDb2dVertex
 10
76.81377489453523
 20
50.33330664016788
 30
0.0
  0
VERTEX
  5
255
330
23D
100
AcDbEntity
  8
DIBUJOS
 62
     7
100
AcDbVertex
100
AcDb2dVertex
 10
77.19126459056932
 20
48.6091138655363
 30
0.0
  0
VERTEX
  5
256
330
23D
100
AcDbEntity
  8
DIBUJOS
 62
     7
100
AcDbVertex
100
AcDb2dVertex
 10
77.32629615277507
 20
47.97869331053082
 30
0.0
  0
VERTEX
  5
257
330
23D
100
AcDbEntity
  8
DIBUJOS
 62
     7
100
AcDbVertex
100
AcDb2dVertex
 10
77.32811042767224
 20
47.96719445732788
 30
0.0
  0
SEQEND
  5
258
330
23D
100
AcDbEntity
  8
DIBUJOS
 62
     7
  0
POLYLINE
  5
259
330
222
100
AcDbEntity
  8
DIBUJOS
 62
     7
100
AcDb2dPolyline
 66
     1
 10
0.0
 20
0.0
 30
0.0
  0
VERTEX
  5
25A
330
259
100
AcDbEntity
  8
DIBUJOS
 62
     7
100
AcDbVertex
100
AcDb2dVertex
 10
77.99976997794987
 20
46.99896495793745
 30
0.0
  0
VERTEX
  5
25B
330
259
100
AcDbEntity
  8
DIBUJOS
 62
     7
100
AcDbVertex
100
AcDb2dVertex
 10
77.99976997794987
 20
47.0050173288298
 30
0.0
  0
SEQEND
  5
25C
330
259
100
AcDbEntity
  8
DIBUJOS
 62
     7
  0
POLYLINE
  5
25D
330
222
100
AcDbEntity
  8
DIBUJOS
 62
     7
100
AcDb2dPolyline
 66
     1
 10
0.0
 20
0.0
 30
0.0
  0
VERTEX
  5
25E
330
25D
100
AcDbEntity
  8
DIBUJOS
 62
     7
100
AcDbVertex
100
AcDb2dVertex
 10
78.00582190390992
 20
46.99896495793745
 30
0.0
  0
VERTEX
  5
25F
330
25D
100
AcDbEntity
  8
DIBUJOS
 62
     7
100
AcDbVertex
100
AcDb2dVertex
 10
77.99976997794987
 20
46.99896495793745
 30
0.0
  0
SEQEND
  5
260
330
25D
100
AcDbEntity
  8
DIBUJOS
 62
     7
  0
POLYLINE
  5
261
330
222
100
AcDbEntity
  8
DIBUJOS
 62
     7
100
AcDb2dPolyline
 66
     1
 10
0.0
 20
0.0
 30
0.0
  0
VERTEX
  5
262
330
261
100
AcDbEntity
  8
DIBUJOS
 62
     7
100
AcDbVertex
100
AcDb2dVertex
 10
80.61379809644946
 20
46.99896495793745
 30
0.0
  0
VERTEX
  5
263
330
261
100
AcDbEntity
  8
DIBUJOS
 62
     7
100
AcDbVertex
100
AcDb2dVertex
 10
81.2007469694232
 20
47.0050173288298
 30
0.0
  0
SEQEND
  5
264
330
261
100
AcDbEntity
  8
DIBUJOS
 62
     7
  0
POLYLINE
  5
265
330
222
100
AcDbEntity
  8
DIBUJOS
 62
     7
100
AcDb2dPolyline
 66
     1
 10
0.0
 20
0.0
 30
0.0
  0
VERTEX
  5
266
330
265
100
AcDbEntity
  8
DIBUJOS
 62
     7
100
AcDbVertex
100
AcDb2dVertex
 10
81.37017483848261
 20
46.99896495793745
 30
0.0
  0
VERTEX
  5
267
330
265
100
AcDbEntity
  8
DIBUJOS
 62
     7
100
AcDbVertex
100
AcDb2dVertex
 10
81.24310393668804
 20
47.0050173288298
 30
0.0
  0
SEQEND
  5
268
330
265
100
AcDbEntity
  8
DIBUJOS
 62
     7
  0
POLYLINE
  5
269
330
222
100
AcDbEntity
  8
DIBUJOS
 62
     7
100
AcDb2dPolyline
 66
     1
 10
0.0
 20
0.0
 30
0.0
  0
VERTEX
  5
26A
330
269
100
AcDbEntity
  8
DIBUJOS
 62
     7
100
AcDbVertex
100
AcDb2dVertex
 10
77.99976997794987
 20
46.99291258704511
 30
0.0
  0
VERTEX
  5
26B
330
269
100
AcDbEntity
  8
DIBUJOS
 62
     7
100
AcDbVertex
100
AcDb2dVertex
 10
77.99976997794987
 20
46.99896495793745
 30
0.0
  0
SEQEND
  5
26C
330
269
100
AcDbEntity
  8
DIBUJOS
 62
     7
  0
POLYLINE
  5
26D
330
222
100
AcDbEntity
  8
DIBUJOS
 62
     7
100
AcDb2dPolyline
 66
     1
 10
0.0
 20
0.0
 30
0.0
  0
VERTEX
  5
26E
330
26D
100
AcDbEntity
  8
DIBUJOS
 62
     7
100
AcDbVertex
100
AcDb2dVertex
 10
80.55934053449161
 20
46.99896495793745
 30
0.0
  0
VERTEX
  5
4D7
330
26D
100
AcDbEntity
  8
0
100
AcDbVertex
100
AcDb2dVertex
 10
80.55934053449161
 20
46.99896495793745
 30
0.0
  0
SEQEND
  5
26F
330
26D
100
AcDbEntity
  8
DIBUJOS
 62
     7
  0
POLYLINE
  5
270
330
222
100
AcDbEntity
  8
DIBUJOS
 62
     7
100
AcDb2dPolyline
 66
     1
 10
0.0
 20
0.0
 30
0.0
  0
VERTEX
  5
271
330
270
100
AcDbEntity
  8
DIBUJOS
 62
     7
100
AcDbVertex
100
AcDb2dVertex
 10
81.87078997669177
 20
46.94450176356864
 30
0.0
  0
VERTEX
  5
272
330
270
100
AcDbEntity
  8
DIBUJOS
 62
     7
100
AcDbVertex
100
AcDb2dVertex
 10
81.41858047448169
 20
46.99291258704511
 30
0.0
  0
SEQEND
  5
273
330
270
100
AcDbEntity
  8
DIBUJOS
 62
     7
  0
POLYLINE
  5
274
330
222
100
AcDbEntity
  8
DIBUJOS
 62
     7
100
AcDb2dPolyline
 66
     1
 10
0.0
 20
0.0
 30
0.0
  0
VERTEX
  5
275
330
274
100
AcDbEntity
  8
DIBUJOS
 62
     7
100
AcDbVertex
100
AcDb2dVertex
 10
79.89978157890698
 20
46.96870636094026
 30
0.0
  0
VERTEX
  5
276
330
274
100
AcDbEntity
  8
DIBUJOS
 62
     7
100
AcDbVertex
100
AcDb2dVertex
 10
79.88162905825521
 20
46.96870636094026
 30
0.0
  0
SEQEND
  5
277
330
274
100
AcDbEntity
  8
DIBUJOS
 62
     7
  0
POLYLINE
  5
278
330
222
100
AcDbEntity
  8
DIBUJOS
 62
     7
100
AcDb2dPolyline
 66
     1
 10
0.0
 20
0.0
 30
0.0
  0
VERTEX
  5
279
330
278
100
AcDbEntity
  8
DIBUJOS
 62
     7
100
AcDbVertex
100
AcDb2dVertex
 10
79.9118854308258
 20
46.96870636094026
 30
0.0
  0
VERTEX
  5
27A
330
278
100
AcDbEntity
  8
DIBUJOS
 62
     7
100
AcDbVertex
100
AcDb2dVertex
 10
80.59321111938003
 20
46.99896495793745
 30
0.0
  0
SEQEND
  5
27B
330
278
100
AcDbEntity
  8
DIBUJOS
 62
     7
  0
POLYLINE
  5
27C
330
222
100
AcDbEntity
  8
DIBUJOS
 62
     7
100
AcDb2dPolyline
 66
     1
 10
0.0
 20
0.0
 30
0.0
  0
VERTEX
  5
27D
330
27C
100
AcDbEntity
  8
DIBUJOS
 62
     7
100
AcDbVertex
100
AcDb2dVertex
 10
77.84244596081055
 20
46.87188471398732
 30
0.0
  0
VERTEX
  5
27E
330
27C
100
AcDbEntity
  8
DIBUJOS
 62
     7
100
AcDbVertex
100
AcDb2dVertex
 10
77.84426023570772
 20
46.88338356719026
 30
0.0
  0
VERTEX
  5
27F
330
27C
100
AcDbEntity
  8
DIBUJOS
 62
     7
100
AcDbVertex
100
AcDb2dVertex
 10
77.8484946295435
 20
46.8900385691995
 30
0.0
  0
VERTEX
  5
280
330
27C
100
AcDbEntity
  8
DIBUJOS
 62
     7
100
AcDbVertex
100
AcDb2dVertex
 10
77.8484946295435
 20
47.02317118404198
 30
0.0
  0
VERTEX
  5
281
330
27C
100
AcDbEntity
  8
DIBUJOS
 62
     7
100
AcDbVertex
100
AcDb2dVertex
 10
77.8159125975883
 20
47.216351917847
 30
0.0
  0
VERTEX
  5
282
330
27C
100
AcDbEntity
  8
DIBUJOS
 62
     7
100
AcDbVertex
100
AcDb2dVertex
 10
77.80986392885407
 20
47.24660725737903
 30
0.0
  0
VERTEX
  5
283
330
27C
100
AcDbEntity
  8
DIBUJOS
 62
     7
100
AcDbVertex
100
AcDb2dVertex
 10
77.6022190268116
 20
48.30062862555098
 30
0.0
  0
VERTEX
  5
284
330
27C
100
AcDbEntity
  8
DIBUJOS
 62
     7
100
AcDbVertex
100
AcDb2dVertex
 10
77.21314012057196
 20
49.85174053883046
 30
0.0
  0
SEQEND
  5
285
330
27C
100
AcDbEntity
  8
DIBUJOS
 62
     7
  0
POLYLINE
  5
286
330
222
100
AcDbEntity
  8
DIBUJOS
 62
     7
100
AcDb2dPolyline
 66
     1
 10
0.0
 20
0.0
 30
0.0
  0
VERTEX
  5
287
330
286
100
AcDbEntity
  8
DIBUJOS
 62
     7
100
AcDbVertex
100
AcDb2dVertex
 10
77.8969035227684
 20
46.87188471398732
 30
0.0
  0
VERTEX
  5
288
330
286
100
AcDbEntity
  8
DIBUJOS
 62
     7
100
AcDbVertex
100
AcDb2dVertex
 10
77.8969035227684
 20
46.87793708487999
 30
0.0
  0
VERTEX
  5
289
330
286
100
AcDbEntity
  8
DIBUJOS
 62
     7
100
AcDbVertex
100
AcDb2dVertex
 10
77.93926049003197
 20
46.90819242441169
 30
0.0
  0
VERTEX
  5
28A
330
286
100
AcDbEntity
  8
DIBUJOS
 62
     7
100
AcDbVertex
100
AcDb2dVertex
 10
77.97696288130433
 20
46.94962087059632
 30
0.0
  0
VERTEX
  5
28B
330
286
100
AcDbEntity
  8
DIBUJOS
 62
     7
100
AcDbVertex
100
AcDb2dVertex
 10
77.99976997794987
 20
46.99291258704511
 30
0.0
  0
SEQEND
  5
28C
330
286
100
AcDbEntity
  8
DIBUJOS
 62
     7
  0
POLYLINE
  5
28D
330
222
100
AcDbEntity
  8
DIBUJOS
 62
     7
100
AcDb2dPolyline
 66
     1
 10
0.0
 20
0.0
 30
0.0
  0
VERTEX
  5
28E
330
28D
100
AcDbEntity
  8
DIBUJOS
 62
     7
100
AcDbVertex
100
AcDb2dVertex
 10
77.84244596081055
 20
46.86583234309497
 30
0.0
  0
VERTEX
  5
28F
330
28D
100
AcDbEntity
  8
DIBUJOS
 62
     7
100
AcDbVertex
100
AcDb2dVertex
 10
77.8363940348505
 20
46.86583234309497
 30
0.0
  0
SEQEND
  5
290
330
28D
100
AcDbEntity
  8
DIBUJOS
 62
     7
  0
POLYLINE
  5
291
330
222
100
AcDbEntity
  8
DIBUJOS
 62
     7
100
AcDb2dPolyline
 66
     1
 10
0.0
 20
0.0
 30
0.0
  0
VERTEX
  5
292
330
291
100
AcDbEntity
  8
DIBUJOS
 62
     7
100
AcDbVertex
100
AcDb2dVertex
 10
77.84244596081055
 20
46.86583234309497
 30
0.0
  0
VERTEX
  5
293
330
291
100
AcDbEntity
  8
DIBUJOS
 62
     7
100
AcDbVertex
100
AcDb2dVertex
 10
77.84244596081055
 20
46.87188471398732
 30
0.0
  0
SEQEND
  5
294
330
291
100
AcDbEntity
  8
DIBUJOS
 62
     7
  0
POLYLINE
  5
295
330
222
100
AcDbEntity
  8
DIBUJOS
 62
     7
100
AcDb2dPolyline
 66
     1
 10
0.0
 20
0.0
 30
0.0
  0
VERTEX
  5
296
330
295
100
AcDbEntity
  8
DIBUJOS
 62
     7
100
AcDbVertex
100
AcDb2dVertex
 10
77.8484946295435
 20
46.86583234309497
 30
0.0
  0
VERTEX
  5
297
330
295
100
AcDbEntity
  8
DIBUJOS
 62
     7
100
AcDbVertex
100
AcDb2dVertex
 10
77.84244596081055
 20
46.86583234309497
 30
0.0
  0
SEQEND
  5
298
330
295
100
AcDbEntity
  8
DIBUJOS
 62
     7
  0
POLYLINE
  5
299
330
222
100
AcDbEntity
  8
DIBUJOS
 62
     7
100
AcDb2dPolyline
 66
     1
 10
0.0
 20
0.0
 30
0.0
  0
VERTEX
  5
29A
330
299
100
AcDbEntity
  8
DIBUJOS
 62
     7
100
AcDbVertex
100
AcDb2dVertex
 10
77.89085159680835
 20
46.86583234309497
 30
0.0
  0
VERTEX
  5
29B
330
299
100
AcDbEntity
  8
DIBUJOS
 62
     7
100
AcDbVertex
100
AcDb2dVertex
 10
77.8484946295435
 20
46.86583234309497
 30
0.0
  0
SEQEND
  5
29C
330
299
100
AcDbEntity
  8
DIBUJOS
 62
     7
  0
POLYLINE
  5
29D
330
222
100
AcDbEntity
  8
DIBUJOS
 62
     7
100
AcDb2dPolyline
 66
     1
 10
0.0
 20
0.0
 30
0.0
  0
VERTEX
  5
29E
330
29D
100
AcDbEntity
  8
DIBUJOS
 62
     7
100
AcDbVertex
100
AcDb2dVertex
 10
77.8969035227684
 20
46.86583234309497
 30
0.0
  0
VERTEX
  5
29F
330
29D
100
AcDbEntity
  8
DIBUJOS
 62
     7
100
AcDbVertex
100
AcDb2dVertex
 10
77.89085159680835
 20
46.86583234309497
 30
0.0
  0
SEQEND
  5
2A0
330
29D
100
AcDbEntity
  8
DIBUJOS
 62
     7
  0
POLYLINE
  5
2A1
330
222
100
AcDbEntity
  8
DIBUJOS
 62
     7
100
AcDb2dPolyline
 66
     1
 10
0.0
 20
0.0
 30
0.0
  0
VERTEX
  5
2A2
330
2A1
100
AcDbEntity
  8
DIBUJOS
 62
     7
100
AcDbVertex
100
AcDb2dVertex
 10
77.8969035227684
 20
46.86583234309497
 30
0.0
  0
VERTEX
  5
2A3
330
2A1
100
AcDbEntity
  8
DIBUJOS
 62
     7
100
AcDbVertex
100
AcDb2dVertex
 10
77.8969035227684
 20
46.87188471398732
 30
0.0
  0
SEQEND
  5
2A4
330
2A1
100
AcDbEntity
  8
DIBUJOS
 62
     7
  0
POLYLINE
  5
2A5
330
222
100
AcDbEntity
  8
DIBUJOS
 62
     7
100
AcDb2dPolyline
 66
     1
 10
0.0
 20
0.0
 30
0.0
  0
VERTEX
  5
2A6
330
2A5
100
AcDbEntity
  8
DIBUJOS
 62
     7
100
AcDbVertex
100
AcDb2dVertex
 10
77.90295544872717
 20
46.86583234309497
 30
0.0
  0
VERTEX
  5
2A7
330
2A5
100
AcDbEntity
  8
DIBUJOS
 62
     7
100
AcDbVertex
100
AcDb2dVertex
 10
77.8969035227684
 20
46.86583234309497
 30
0.0
  0
SEQEND
  5
2A8
330
2A5
100
AcDbEntity
  8
DIBUJOS
 62
     7
  0
POLYLINE
  5
2A9
330
222
100
AcDbEntity
  8
DIBUJOS
 62
     7
100
AcDb2dPolyline
 66
     1
 10
0.0
 20
0.0
 30
0.0
  0
VERTEX
  5
2AA
330
2A9
100
AcDbEntity
  8
DIBUJOS
 62
     7
100
AcDbVertex
100
AcDb2dVertex
 10
77.90295544872717
 20
46.86583234309497
 30
0.0
  0
VERTEX
  5
2AB
330
2A9
100
AcDbEntity
  8
DIBUJOS
 62
     7
100
AcDbVertex
100
AcDb2dVertex
 10
79.86952846356223
 20
46.96870636094026
 30
0.0
  0
SEQEND
  5
2AC
330
2A9
100
AcDbEntity
  8
DIBUJOS
 62
     7
  0
POLYLINE
  5
2AD
330
222
100
AcDbEntity
  8
DIBUJOS
 62
     7
100
AcDb2dPolyline
 66
     1
 10
0.0
 20
0.0
 30
0.0
  0
VERTEX
  5
2AE
330
2AD
100
AcDbEntity
  8
DIBUJOS
 62
     7
100
AcDbVertex
100
AcDb2dVertex
 10
77.65486557109809
 20
46.84162611699045
 30
0.0
  0
VERTEX
  5
2AF
330
2AD
100
AcDbEntity
  8
DIBUJOS
 62
     7
100
AcDbVertex
100
AcDb2dVertex
 10
77.64881364513803
 20
46.84767848788279
 30
0.0
  0
VERTEX
  5
2B0
330
2AD
100
AcDbEntity
  8
DIBUJOS
 62
     7
100
AcDbVertex
100
AcDb2dVertex
 10
77.66370893976357
 20
47.08348641517558
 30
0.0
  0
VERTEX
  5
2B1
330
2AD
100
AcDbEntity
  8
DIBUJOS
 62
     7
100
AcDbVertex
100
AcDb2dVertex
 10
77.66696616579108
 20
47.12604520188759
 30
0.0
  0
VERTEX
  5
2B2
330
2AD
100
AcDbEntity
  8
DIBUJOS
 62
     7
100
AcDbVertex
100
AcDb2dVertex
 10
77.50359022269171
 20
47.92483437601117
 30
0.0
  0
VERTEX
  5
2B3
330
2AD
100
AcDbEntity
  8
DIBUJOS
 62
     7
100
AcDbVertex
100
AcDb2dVertex
 10
77.48636601145702
 20
47.9383333130288
 30
0.0
  0
VERTEX
  5
2B4
330
2AD
100
AcDbEntity
  8
DIBUJOS
 62
     7
100
AcDbVertex
100
AcDb2dVertex
 10
77.45477091898755
 20
47.95263684402381
 30
0.0
  0
VERTEX
  5
2B5
330
2AD
100
AcDbEntity
  8
DIBUJOS
 62
     7
100
AcDbVertex
100
AcDb2dVertex
 10
77.42533536737422
 20
47.9575458445271
 30
0.0
  0
VERTEX
  5
2B6
330
2AD
100
AcDbEntity
  8
DIBUJOS
 62
     7
100
AcDbVertex
100
AcDb2dVertex
 10
77.3341623536323
 20
47.96114208643522
 30
0.0
  0
SEQEND
  5
2B7
330
2AD
100
AcDbEntity
  8
DIBUJOS
 62
     7
  0
POLYLINE
  5
2B8
330
222
100
AcDbEntity
  8
DIBUJOS
 62
     7
100
AcDb2dPolyline
 66
     1
 10
0.0
 20
0.0
 30
0.0
  0
VERTEX
  5
2B9
330
2B8
100
AcDbEntity
  8
DIBUJOS
 62
     7
100
AcDbVertex
100
AcDb2dVertex
 10
77.66091423983232
 20
46.84162611699045
 30
0.0
  0
VERTEX
  5
2BA
330
2B8
100
AcDbEntity
  8
DIBUJOS
 62
     7
100
AcDbVertex
100
AcDb2dVertex
 10
77.65486557109809
 20
46.84162611699045
 30
0.0
  0
SEQEND
  5
2BB
330
2B8
100
AcDbEntity
  8
DIBUJOS
 62
     7
  0
POLYLINE
  5
2BC
330
222
100
AcDbEntity
  8
DIBUJOS
 62
     7
100
AcDb2dPolyline
 66
     1
 10
0.0
 20
0.0
 30
0.0
  0
VERTEX
  5
2BD
330
2BC
100
AcDbEntity
  8
DIBUJOS
 62
     7
100
AcDbVertex
100
AcDb2dVertex
 10
77.66091423983232
 20
46.84162611699045
 30
0.0
  0
VERTEX
  5
2BE
330
2BC
100
AcDbEntity
  8
DIBUJOS
 62
     7
100
AcDbVertex
100
AcDb2dVertex
 10
77.66750035085929
 20
46.84554159051724
 30
0.0
  0
VERTEX
  5
2BF
330
2BC
100
AcDbEntity
  8
DIBUJOS
 62
     7
100
AcDbVertex
100
AcDb2dVertex
 10
77.8363940348505
 20
46.86583234309497
 30
0.0
  0
SEQEND
  5
2C0
330
2BC
100
AcDbEntity
  8
DIBUJOS
 62
     7
  0
POLYLINE
  5
2C1
330
222
100
AcDbEntity
  8
DIBUJOS
 62
     7
100
AcDb2dPolyline
 66
     1
 10
0.0
 20
0.0
 30
0.0
  0
VERTEX
  5
2C2
330
2C1
100
AcDbEntity
  8
DIBUJOS
 62
     7
100
AcDbVertex
100
AcDb2dVertex
 10
77.65486557109809
 20
46.83557700356327
 30
0.0
  0
VERTEX
  5
2C3
330
2C1
100
AcDbEntity
  8
DIBUJOS
 62
     7
100
AcDbVertex
100
AcDb2dVertex
 10
77.65486557109809
 20
46.84162611699045
 30
0.0
  0
SEQEND
  5
2C4
330
2C1
100
AcDbEntity
  8
DIBUJOS
 62
     7
  0
POLYLINE
  5
2C5
330
222
100
AcDbEntity
  8
DIBUJOS
 62
     7
100
AcDb2dPolyline
 66
     1
 10
0.0
 20
0.0
 30
0.0
  0
VERTEX
  5
2C6
330
2C5
100
AcDbEntity
  8
DIBUJOS
 62
     7
100
AcDbVertex
100
AcDb2dVertex
 10
77.1889389311847
 20
46.75690595435702
 30
0.0
  0
VERTEX
  5
2C7
330
2C5
100
AcDbEntity
  8
DIBUJOS
 62
     7
100
AcDbVertex
100
AcDb2dVertex
 10
77.18288700522592
 20
46.75690595435702
 30
0.0
  0
SEQEND
  5
2C8
330
2C5
100
AcDbEntity
  8
DIBUJOS
 62
     7
  0
POLYLINE
  5
2C9
330
222
100
AcDbEntity
  8
DIBUJOS
 62
     7
100
AcDb2dPolyline
 66
     1
 10
0.0
 20
0.0
 30
0.0
  0
VERTEX
  5
2CA
330
2C9
100
AcDbEntity
  8
DIBUJOS
 62
     7
100
AcDbVertex
100
AcDb2dVertex
 10
77.1889389311847
 20
46.75690595435702
 30
0.0
  0
VERTEX
  5
2CB
330
2C9
100
AcDbEntity
  8
DIBUJOS
 62
     7
100
AcDbVertex
100
AcDb2dVertex
 10
77.19238181909562
 20
46.76328407179936
 30
0.0
  0
VERTEX
  5
2CC
330
2C9
100
AcDbEntity
  8
DIBUJOS
 62
     7
100
AcDbVertex
100
AcDb2dVertex
 10
77.20429675190648
 20
46.90234201637982
 30
0.0
  0
VERTEX
  5
2CD
330
2C9
100
AcDbEntity
  8
DIBUJOS
 62
     7
100
AcDbVertex
100
AcDb2dVertex
 10
77.20988615176898
 20
46.9806091398648
 30
0.0
  0
VERTEX
  5
2CE
330
2C9
100
AcDbEntity
  8
DIBUJOS
 62
     7
100
AcDbVertex
100
AcDb2dVertex
 10
77.27788725955017
 20
47.9072864093817
 30
0.0
  0
VERTEX
  5
2CF
330
2C9
100
AcDbEntity
  8
DIBUJOS
 62
     7
100
AcDbVertex
100
AcDb2dVertex
 10
77.28454502955165
 20
47.92544026459357
 30
0.0
  0
VERTEX
  5
2D0
330
2C9
100
AcDbEntity
  8
DIBUJOS
 62
     7
100
AcDbVertex
100
AcDb2dVertex
 10
77.30995790702049
 20
47.95509297300836
 30
0.0
  0
VERTEX
  5
2D1
330
2C9
100
AcDbEntity
  8
DIBUJOS
 62
     7
100
AcDbVertex
100
AcDb2dVertex
 10
77.32205850171349
 20
47.96114208643522
 30
0.0
  0
SEQEND
  5
2D2
330
2C9
100
AcDbEntity
  8
DIBUJOS
 62
     7
  0
POLYLINE
  5
2D3
330
222
100
AcDbEntity
  8
DIBUJOS
 62
     7
100
AcDb2dPolyline
 66
     1
 10
0.0
 20
0.0
 30
0.0
  0
VERTEX
  5
2D4
330
2D3
100
AcDbEntity
  8
DIBUJOS
 62
     7
100
AcDbVertex
100
AcDb2dVertex
 10
77.1889389311847
 20
46.75085684093017
 30
0.0
  0
VERTEX
  5
2D5
330
2D3
100
AcDbEntity
  8
DIBUJOS
 62
     7
100
AcDbVertex
100
AcDb2dVertex
 10
77.1889389311847
 20
46.75690595435702
 30
0.0
  0
SEQEND
  5
2D6
330
2D3
100
AcDbEntity
  8
DIBUJOS
 62
     7
  0
POLYLINE
  5
2D7
330
222
100
AcDbEntity
  8
DIBUJOS
 62
     7
100
AcDb2dPolyline
 66
     1
 10
0.0
 20
0.0
 30
0.0
  0
VERTEX
  5
2D8
330
2D7
100
AcDbEntity
  8
DIBUJOS
 62
     7
100
AcDbVertex
100
AcDb2dVertex
 10
81.09788051424172
 20
46.72665061482532
 30
0.0
  0
VERTEX
  5
2D9
330
2D7
100
AcDbEntity
  8
DIBUJOS
 62
     7
100
AcDbVertex
100
AcDb2dVertex
 10
81.09467540382992
 20
46.74496408584685
 30
0.0
  0
VERTEX
  5
2DA
330
2D7
100
AcDbEntity
  8
DIBUJOS
 62
     7
100
AcDbVertex
100
AcDb2dVertex
 10
81.08577666232162
 20
46.87793708487999
 30
0.0
  0
VERTEX
  5
2DB
330
2D7
100
AcDbEntity
  8
DIBUJOS
 62
     7
100
AcDbVertex
100
AcDb2dVertex
 10
81.07427865444423
 20
46.88519797547163
 30
0.0
  0
VERTEX
  5
2DC
330
2D7
100
AcDbEntity
  8
DIBUJOS
 62
     7
100
AcDbVertex
100
AcDb2dVertex
 10
81.06762414166987
 20
46.8900385691995
 30
0.0
  0
VERTEX
  5
2DD
330
2D7
100
AcDbEntity
  8
DIBUJOS
 62
     7
100
AcDbVertex
100
AcDb2dVertex
 10
80.98291020714015
 20
46.8900385691995
 30
0.0
  0
VERTEX
  5
2DE
330
2D7
100
AcDbEntity
  8
DIBUJOS
 62
     7
100
AcDbVertex
100
AcDb2dVertex
 10
80.74086899824403
 20
46.87188471398732
 30
0.0
  0
SEQEND
  5
2DF
330
2D7
100
AcDbEntity
  8
DIBUJOS
 62
     7
  0
POLYLINE
  5
2E0
330
222
100
AcDbEntity
  8
DIBUJOS
 62
     7
100
AcDb2dPolyline
 66
     1
 10
0.0
 20
0.0
 30
0.0
  0
VERTEX
  5
2E1
330
2E0
100
AcDbEntity
  8
DIBUJOS
 62
     7
100
AcDbVertex
100
AcDb2dVertex
 10
81.09788051424172
 20
46.72059824393298
 30
0.0
  0
VERTEX
  5
2E2
330
2E0
100
AcDbEntity
  8
DIBUJOS
 62
     7
100
AcDbVertex
100
AcDb2dVertex
 10
81.09788051424172
 20
46.72665061482532
 30
0.0
  0
SEQEND
  5
2E3
330
2E0
100
AcDbEntity
  8
DIBUJOS
 62
     7
  0
POLYLINE
  5
2E4
330
222
100
AcDbEntity
  8
DIBUJOS
 62
     7
100
AcDb2dPolyline
 66
     1
 10
0.0
 20
0.0
 30
0.0
  0
VERTEX
  5
2E5
330
2E4
100
AcDbEntity
  8
DIBUJOS
 62
     7
100
AcDbVertex
100
AcDb2dVertex
 10
81.10392918297467
 20
46.72059824393298
 30
0.0
  0
VERTEX
  5
2E6
330
2E4
100
AcDbEntity
  8
DIBUJOS
 62
     7
100
AcDbVertex
100
AcDb2dVertex
 10
81.09788051424172
 20
46.72059824393298
 30
0.0
  0
SEQEND
  5
2E7
330
2E4
100
AcDbEntity
  8
DIBUJOS
 62
     7
  0
POLYLINE
  5
2E8
330
222
100
AcDbEntity
  8
DIBUJOS
 62
     7
100
AcDb2dPolyline
 66
     1
 10
0.0
 20
0.0
 30
0.0
  0
VERTEX
  5
2E9
330
2E8
100
AcDbEntity
  8
DIBUJOS
 62
     7
100
AcDbVertex
100
AcDb2dVertex
 10
81.10392918297467
 20
46.72059824393298
 30
0.0
  0
VERTEX
  5
2EA
330
2E8
100
AcDbEntity
  8
DIBUJOS
 62
     7
100
AcDbVertex
100
AcDb2dVertex
 10
81.63051514320277
 20
46.74799678622401
 30
0.0
  0
VERTEX
  5
2EB
330
2E8
100
AcDbEntity
  8
DIBUJOS
 62
     7
100
AcDbVertex
100
AcDb2dVertex
 10
81.98132490084362
 20
46.76901069614203
 30
0.0
  0
VERTEX
  5
2EC
330
2E8
100
AcDbEntity
  8
DIBUJOS
 62
     7
100
AcDbVertex
100
AcDb2dVertex
 10
81.99342549553661
 20
46.78111218046155
 30
0.0
  0
VERTEX
  5
2ED
330
2E8
100
AcDbEntity
  8
DIBUJOS
 62
     7
100
AcDbVertex
100
AcDb2dVertex
 10
81.99021387067317
 20
46.85994936040814
 30
0.0
  0
VERTEX
  5
2EE
330
2E8
100
AcDbEntity
  8
DIBUJOS
 62
     7
100
AcDbVertex
100
AcDb2dVertex
 10
81.98453652570706
 20
46.9564387458804
 30
0.0
  0
VERTEX
  5
2EF
330
2E8
100
AcDbEntity
  8
DIBUJOS
 62
     7
100
AcDbVertex
100
AcDb2dVertex
 10
81.9734586999864
 20
47.0044114402474
 30
0.0
  0
VERTEX
  5
2F0
330
2E8
100
AcDbEntity
  8
DIBUJOS
 62
     7
100
AcDbVertex
100
AcDb2dVertex
 10
81.9710385810478
 20
47.01167233083937
 30
0.0
  0
VERTEX
  5
2F1
330
2E8
100
AcDbEntity
  8
DIBUJOS
 62
     7
100
AcDbVertex
100
AcDb2dVertex
 10
81.96922104892352
 20
47.02317118404198
 30
0.0
  0
VERTEX
  5
2F2
330
2E8
100
AcDbEntity
  8
DIBUJOS
 62
     7
100
AcDbVertex
100
AcDb2dVertex
 10
81.91476348696567
 20
47.07763274967821
 30
0.0
  0
VERTEX
  5
2F3
330
2E8
100
AcDbEntity
  8
DIBUJOS
 62
     7
100
AcDbVertex
100
AcDb2dVertex
 10
81.90205704823252
 20
47.08187071228918
 30
0.0
  0
VERTEX
  5
2F4
330
2E8
100
AcDbEntity
  8
DIBUJOS
 62
     7
100
AcDbVertex
100
AcDb2dVertex
 10
81.82460347051861
 20
47.1097057549571
 30
0.0
  0
VERTEX
  5
2F5
330
2E8
100
AcDbEntity
  8
DIBUJOS
 62
     7
100
AcDbVertex
100
AcDb2dVertex
 10
81.66102883663126
 20
47.14059955772585
 30
0.0
  0
VERTEX
  5
2F6
330
2E8
100
AcDbEntity
  8
DIBUJOS
 62
     7
100
AcDbVertex
100
AcDb2dVertex
 10
81.62472379532517
 20
47.1466519286182
 30
0.0
  0
VERTEX
  5
2F7
330
2E8
100
AcDbEntity
  8
DIBUJOS
 62
     7
100
AcDbVertex
100
AcDb2dVertex
 10
81.4429510396207
 20
47.15914105133215
 30
0.0
  0
VERTEX
  5
2F8
330
2E8
100
AcDbEntity
  8
DIBUJOS
 62
     7
100
AcDbVertex
100
AcDb2dVertex
 10
81.24319188179166
 20
47.1652846312584
 30
0.0
  0
VERTEX
  5
2F9
330
2E8
100
AcDbEntity
  8
DIBUJOS
 62
     7
100
AcDbVertex
100
AcDb2dVertex
 10
80.98291020714015
 20
47.16840528320398
 30
0.0
  0
VERTEX
  5
2FA
330
2E8
100
AcDbEntity
  8
DIBUJOS
 62
     7
100
AcDbVertex
100
AcDb2dVertex
 10
79.94199522822667
 20
47.12891177152442
 30
0.0
  0
VERTEX
  5
2FB
330
2E8
100
AcDbEntity
  8
DIBUJOS
 62
     7
100
AcDbVertex
100
AcDb2dVertex
 10
79.82731481424253
 20
47.12317863225044
 30
0.0
  0
VERTEX
  5
2FC
330
2E8
100
AcDbEntity
  8
DIBUJOS
 62
     7
100
AcDbVertex
100
AcDb2dVertex
 10
78.27786867897292
 20
47.04405153787464
 30
0.0
  0
VERTEX
  5
2FD
330
2E8
100
AcDbEntity
  8
DIBUJOS
 62
     7
100
AcDbVertex
100
AcDb2dVertex
 10
78.21119326218478
 20
47.03781349144898
 30
0.0
  0
VERTEX
  5
2FE
330
2E8
100
AcDbEntity
  8
DIBUJOS
 62
     7
100
AcDbVertex
100
AcDb2dVertex
 10
78.018388281925
 20
47.00268824099994
 30
0.0
  0
VERTEX
  5
2FF
330
2E8
100
AcDbEntity
  8
DIBUJOS
 62
     7
100
AcDbVertex
100
AcDb2dVertex
 10
78.00582190390992
 20
46.99896495793745
 30
0.0
  0
SEQEND
  5
300
330
2E8
100
AcDbEntity
  8
DIBUJOS
 62
     7
  0
POLYLINE
  5
301
330
222
100
AcDbEntity
  8
DIBUJOS
 62
     7
100
AcDb2dPolyline
 66
     1
 10
0.0
 20
0.0
 30
0.0
  0
VERTEX
  5
302
330
301
100
AcDbEntity
  8
DIBUJOS
 62
     7
100
AcDbVertex
100
AcDb2dVertex
 10
81.09788051424172
 20
46.71454587304031
 30
0.0
  0
VERTEX
  5
303
330
301
100
AcDbEntity
  8
DIBUJOS
 62
     7
100
AcDbVertex
100
AcDb2dVertex
 10
81.09788051424172
 20
46.72059824393298
 30
0.0
  0
SEQEND
  5
304
330
301
100
AcDbEntity
  8
DIBUJOS
 62
     7
  0
POLYLINE
  5
305
330
222
100
AcDbEntity
  8
DIBUJOS
 62
     7
100
AcDb2dPolyline
 66
     1
 10
0.0
 20
0.0
 30
0.0
  0
VERTEX
  5
306
330
305
100
AcDbEntity
  8
DIBUJOS
 62
     7
100
AcDbVertex
100
AcDb2dVertex
 10
77.1889389311847
 20
46.66008430740408
 30
0.0
  0
VERTEX
  5
307
330
305
100
AcDbEntity
  8
DIBUJOS
 62
     7
100
AcDbVertex
100
AcDb2dVertex
 10
77.19498759991892
 20
46.7448044700375
 30
0.0
  0
VERTEX
  5
308
330
305
100
AcDbEntity
  8
DIBUJOS
 62
     7
100
AcDbVertex
100
AcDb2dVertex
 10
77.1889389311847
 20
46.75085684093017
 30
0.0
  0
SEQEND
  5
309
330
305
100
AcDbEntity
  8
DIBUJOS
 62
     7
  0
POLYLINE
  5
30A
330
222
100
AcDbEntity
  8
DIBUJOS
 62
     7
100
AcDb2dPolyline
 66
     1
 10
0.0
 20
0.0
 30
0.0
  0
VERTEX
  5
30B
330
30A
100
AcDbEntity
  8
DIBUJOS
 62
     7
100
AcDbVertex
100
AcDb2dVertex
 10
77.63066112448628
 20
46.62982571040688
 30
0.0
  0
VERTEX
  5
30C
330
30A
100
AcDbEntity
  8
DIBUJOS
 62
     7
100
AcDbVertex
100
AcDb2dVertex
 10
77.65126633633743
 20
46.82911419201834
 30
0.0
  0
VERTEX
  5
30D
330
30A
100
AcDbEntity
  8
DIBUJOS
 62
     7
100
AcDbVertex
100
AcDb2dVertex
 10
77.65486557109809
 20
46.83557700356327
 30
0.0
  0
SEQEND
  5
30E
330
30A
100
AcDbEntity
  8
DIBUJOS
 62
     7
  0
POLYLINE
  5
30F
330
222
100
AcDbEntity
  8
DIBUJOS
 62
     7
100
AcDb2dPolyline
 66
     1
 10
0.0
 20
0.0
 30
0.0
  0
VERTEX
  5
310
330
30F
100
AcDbEntity
  8
DIBUJOS
 62
     7
100
AcDbVertex
100
AcDb2dVertex
 10
77.63066112448628
 20
46.62377659698004
 30
0.0
  0
VERTEX
  5
311
330
30F
100
AcDbEntity
  8
DIBUJOS
 62
     7
100
AcDbVertex
100
AcDb2dVertex
 10
77.63066112448628
 20
46.62982571040688
 30
0.0
  0
SEQEND
  5
312
330
30F
100
AcDbEntity
  8
DIBUJOS
 62
     7
  0
POLYLINE
  5
313
330
222
100
AcDbEntity
  8
DIBUJOS
 62
     7
100
AcDb2dPolyline
 66
     1
 10
0.0
 20
0.0
 30
0.0
  0
VERTEX
  5
314
330
313
100
AcDbEntity
  8
DIBUJOS
 62
     7
100
AcDbVertex
100
AcDb2dVertex
 10
77.63670979321923
 20
46.62377659698004
 30
0.0
  0
VERTEX
  5
315
330
313
100
AcDbEntity
  8
DIBUJOS
 62
     7
100
AcDbVertex
100
AcDb2dVertex
 10
77.63066112448628
 20
46.62377659698004
 30
0.0
  0
SEQEND
  5
316
330
313
100
AcDbEntity
  8
DIBUJOS
 62
     7
  0
POLYLINE
  5
317
330
222
100
AcDbEntity
  8
DIBUJOS
 62
     7
100
AcDb2dPolyline
 66
     1
 10
0.0
 20
0.0
 30
0.0
  0
VERTEX
  5
318
330
317
100
AcDbEntity
  8
DIBUJOS
 62
     7
100
AcDbVertex
100
AcDb2dVertex
 10
77.63066112448628
 20
46.61772422608769
 30
0.0
  0
VERTEX
  5
319
330
317
100
AcDbEntity
  8
DIBUJOS
 62
     7
100
AcDbVertex
100
AcDb2dVertex
 10
77.63066112448628
 20
46.62377659698004
 30
0.0
  0
SEQEND
  5
31A
330
317
100
AcDbEntity
  8
DIBUJOS
 62
     7
  0
POLYLINE
  5
31B
330
222
100
AcDbEntity
  8
DIBUJOS
 62
     7
100
AcDb2dPolyline
 66
     1
 10
0.0
 20
0.0
 30
0.0
  0
VERTEX
  5
31C
330
31B
100
AcDbEntity
  8
DIBUJOS
 62
     7
100
AcDbVertex
100
AcDb2dVertex
 10
80.65010639498136
 20
46.57536414477098
 30
0.0
  0
VERTEX
  5
31D
330
31B
100
AcDbEntity
  8
DIBUJOS
 62
     7
100
AcDbVertex
100
AcDb2dVertex
 10
80.64405446902131
 20
46.78716455135422
 30
0.0
  0
VERTEX
  5
31E
330
31B
100
AcDbEntity
  8
DIBUJOS
 62
     7
100
AcDbVertex
100
AcDb2dVertex
 10
80.62590194836827
 20
46.80531840656608
 30
0.0
  0
VERTEX
  5
31F
330
31B
100
AcDbEntity
  8
DIBUJOS
 62
     7
100
AcDbVertex
100
AcDb2dVertex
 10
77.75755287884907
 20
46.63265319045808
 30
0.0
  0
VERTEX
  5
320
330
31B
100
AcDbEntity
  8
DIBUJOS
 62
     7
100
AcDbVertex
100
AcDb2dVertex
 10
77.63670979321923
 20
46.62377659698004
 30
0.0
  0
SEQEND
  5
321
330
31B
100
AcDbEntity
  8
DIBUJOS
 62
     7
  0
POLYLINE
  5
322
330
222
100
AcDbEntity
  8
DIBUJOS
 62
     7
100
AcDb2dPolyline
 66
     1
 10
0.0
 20
0.0
 30
0.0
  0
VERTEX
  5
323
330
322
100
AcDbEntity
  8
DIBUJOS
 62
     7
100
AcDbVertex
100
AcDb2dVertex
 10
80.65010639498136
 20
46.56931177387831
 30
0.0
  0
VERTEX
  5
324
330
322
100
AcDbEntity
  8
DIBUJOS
 62
     7
100
AcDbVertex
100
AcDb2dVertex
 10
80.64405446902131
 20
46.56931177387831
 30
0.0
  0
SEQEND
  5
325
330
322
100
AcDbEntity
  8
DIBUJOS
 62
     7
  0
POLYLINE
  5
326
330
222
100
AcDbEntity
  8
DIBUJOS
 62
     7
100
AcDb2dPolyline
 66
     1
 10
0.0
 20
0.0
 30
0.0
  0
VERTEX
  5
327
330
326
100
AcDbEntity
  8
DIBUJOS
 62
     7
100
AcDbVertex
100
AcDb2dVertex
 10
80.65010639498136
 20
46.56931177387831
 30
0.0
  0
VERTEX
  5
328
330
326
100
AcDbEntity
  8
DIBUJOS
 62
     7
100
AcDbVertex
100
AcDb2dVertex
 10
80.65010639498136
 20
46.57536414477098
 30
0.0
  0
SEQEND
  5
329
330
326
100
AcDbEntity
  8
DIBUJOS
 62
     7
  0
POLYLINE
  5
32A
330
222
100
AcDbEntity
  8
DIBUJOS
 62
     7
100
AcDb2dPolyline
 66
     1
 10
0.0
 20
0.0
 30
0.0
  0
VERTEX
  5
32B
330
32A
100
AcDbEntity
  8
DIBUJOS
 62
     7
100
AcDbVertex
100
AcDb2dVertex
 10
80.65010639498136
 20
46.56326266045146
 30
0.0
  0
VERTEX
  5
32C
330
32A
100
AcDbEntity
  8
DIBUJOS
 62
     7
100
AcDbVertex
100
AcDb2dVertex
 10
80.65010639498136
 20
46.56931177387831
 30
0.0
  0
SEQEND
  5
32D
330
32A
100
AcDbEntity
  8
DIBUJOS
 62
     7
  0
POLYLINE
  5
32E
330
222
100
AcDbEntity
  8
DIBUJOS
 62
     7
100
AcDb2dPolyline
 66
     1
 10
0.0
 20
0.0
 30
0.0
  0
VERTEX
  5
32F
330
32E
100
AcDbEntity
  8
DIBUJOS
 62
     7
100
AcDbVertex
100
AcDb2dVertex
 10
77.61855727256746
 20
46.39987144861178
 30
0.0
  0
VERTEX
  5
330
330
32E
100
AcDbEntity
  8
DIBUJOS
 62
     7
100
AcDbVertex
100
AcDb2dVertex
 10
77.63066112448628
 20
46.61772422608769
 30
0.0
  0
SEQEND
  5
331
330
32E
100
AcDbEntity
  8
DIBUJOS
 62
     7
  0
POLYLINE
  5
332
330
222
100
AcDbEntity
  8
DIBUJOS
 62
     7
100
AcDb2dPolyline
 66
     1
 10
0.0
 20
0.0
 30
0.0
  0
VERTEX
  5
333
330
332
100
AcDbEntity
  8
DIBUJOS
 62
     7
100
AcDbVertex
100
AcDb2dVertex
 10
77.61855727256746
 20
46.39382233518462
 30
0.0
  0
VERTEX
  5
334
330
332
100
AcDbEntity
  8
DIBUJOS
 62
     7
100
AcDbVertex
100
AcDb2dVertex
 10
77.61855727256746
 20
46.39987144861178
 30
0.0
  0
SEQEND
  5
335
330
332
100
AcDbEntity
  8
DIBUJOS
 62
     7
  0
POLYLINE
  5
336
330
222
100
AcDbEntity
  8
DIBUJOS
 62
     7
100
AcDb2dPolyline
 66
     1
 10
0.0
 20
0.0
 30
0.0
  0
VERTEX
  5
337
330
336
100
AcDbEntity
  8
DIBUJOS
 62
     7
100
AcDbVertex
100
AcDb2dVertex
 10
77.62460919852623
 20
46.39382233518462
 30
0.0
  0
VERTEX
  5
338
330
336
100
AcDbEntity
  8
DIBUJOS
 62
     7
100
AcDbVertex
100
AcDb2dVertex
 10
77.61855727256746
 20
46.39382233518462
 30
0.0
  0
SEQEND
  5
339
330
336
100
AcDbEntity
  8
DIBUJOS
 62
     7
  0
POLYLINE
  5
33A
330
222
100
AcDbEntity
  8
DIBUJOS
 62
     7
100
AcDb2dPolyline
 66
     1
 10
0.0
 20
0.0
 30
0.0
  0
VERTEX
  5
33B
330
33A
100
AcDbEntity
  8
DIBUJOS
 62
     7
100
AcDbVertex
100
AcDb2dVertex
 10
77.62460919852623
 20
46.39382233518462
 30
0.0
  0
VERTEX
  5
33C
330
33A
100
AcDbEntity
  8
DIBUJOS
 62
     7
100
AcDbVertex
100
AcDb2dVertex
 10
80.64405446902131
 20
46.56931177387831
 30
0.0
  0
SEQEND
  5
33D
330
33A
100
AcDbEntity
  8
DIBUJOS
 62
     7
  0
POLYLINE
  5
33E
330
222
100
AcDbEntity
  8
DIBUJOS
 62
     7
100
AcDb2dPolyline
 66
     1
 10
0.0
 20
0.0
 30
0.0
  0
VERTEX
  5
33F
330
33E
100
AcDbEntity
  8
DIBUJOS
 62
     7
100
AcDbVertex
100
AcDb2dVertex
 10
77.61855727256746
 20
46.38776996429227
 30
0.0
  0
VERTEX
  5
340
330
33E
100
AcDbEntity
  8
DIBUJOS
 62
     7
100
AcDbVertex
100
AcDb2dVertex
 10
77.61855727256746
 20
46.39382233518462
 30
0.0
  0
SEQEND
  5
341
330
33E
100
AcDbEntity
  8
DIBUJOS
 62
     7
  0
POLYLINE
  5
342
330
222
100
AcDbEntity
  8
DIBUJOS
 62
     7
100
AcDb2dPolyline
 66
     1
 10
0.0
 20
0.0
 30
0.0
  0
VERTEX
  5
343
330
342
100
AcDbEntity
  8
DIBUJOS
 62
     7
100
AcDbVertex
100
AcDb2dVertex
 10
80.65010639498136
 20
46.56326266045146
 30
0.0
  0
VERTEX
  5
344
330
342
100
AcDbEntity
  8
DIBUJOS
 62
     7
100
AcDbVertex
100
AcDb2dVertex
 10
80.67109595950392
 20
46.2427019958706
 30
0.0
  0
VERTEX
  5
345
330
342
100
AcDbEntity
  8
DIBUJOS
 62
     7
100
AcDbVertex
100
AcDb2dVertex
 10
80.87790701168329
 20
42.48405914539158
 30
0.0
  0
VERTEX
  5
346
330
342
100
AcDbEntity
  8
DIBUJOS
 62
     7
100
AcDbVertex
100
AcDb2dVertex
 10
80.8800437519574
 20
42.4664378857886
 30
0.0
  0
VERTEX
  5
347
330
342
100
AcDbEntity
  8
DIBUJOS
 62
     7
100
AcDbVertex
100
AcDb2dVertex
 10
80.91029686730344
 20
42.43618091752399
 30
0.0
  0
VERTEX
  5
348
330
342
100
AcDbEntity
  8
DIBUJOS
 62
     7
100
AcDbVertex
100
AcDb2dVertex
 10
80.92300656326368
 20
42.43194458364593
 30
0.0
  0
VERTEX
  5
349
330
342
100
AcDbEntity
  8
DIBUJOS
 62
     7
100
AcDbVertex
100
AcDb2dVertex
 10
80.9405532398753
 20
42.42407780447157
 30
0.0
  0
VERTEX
  5
34A
330
342
100
AcDbEntity
  8
DIBUJOS
 62
     7
100
AcDbVertex
100
AcDb2dVertex
 10
81.27335705203409
 20
42.42407780447157
 30
0.0
  0
VERTEX
  5
34B
330
342
100
AcDbEntity
  8
DIBUJOS
 62
     7
100
AcDbVertex
100
AcDb2dVertex
 10
81.29756149864589
 20
42.43618091752399
 30
0.0
  0
VERTEX
  5
34C
330
342
100
AcDbEntity
  8
DIBUJOS
 62
     7
100
AcDbVertex
100
AcDb2dVertex
 10
81.31105944330515
 20
42.45340476633669
 30
0.0
  0
VERTEX
  5
34D
330
342
100
AcDbEntity
  8
DIBUJOS
 62
     7
100
AcDbVertex
100
AcDb2dVertex
 10
81.32176594525899
 20
42.4664378857886
 30
0.0
  0
VERTEX
  5
34E
330
342
100
AcDbEntity
  8
DIBUJOS
 62
     7
100
AcDbVertex
100
AcDb2dVertex
 10
81.31855106316972
 20
42.59973663137141
 30
0.0
  0
VERTEX
  5
34F
330
342
100
AcDbEntity
  8
DIBUJOS
 62
     7
100
AcDbVertex
100
AcDb2dVertex
 10
81.12493177640178
 20
46.18217828694554
 30
0.0
  0
VERTEX
  5
350
330
342
100
AcDbEntity
  8
DIBUJOS
 62
     7
100
AcDbVertex
100
AcDb2dVertex
 10
81.09788051424172
 20
46.71454587304031
 30
0.0
  0
SEQEND
  5
351
330
342
100
AcDbEntity
  8
DIBUJOS
 62
     7
  0
POLYLINE
  5
352
330
222
100
AcDbEntity
  8
DIBUJOS
 62
     7
100
AcDb2dPolyline
 66
     1
 10
0.0
 20
0.0
 30
0.0
  0
VERTEX
  5
353
330
352
100
AcDbEntity
  8
DIBUJOS
 62
     7
100
AcDbVertex
100
AcDb2dVertex
 10
77.18288700522592
 20
46.75690595435702
 30
0.0
  0
VERTEX
  5
354
330
352
100
AcDbEntity
  8
DIBUJOS
 62
     7
100
AcDbVertex
100
AcDb2dVertex
 10
77.16473448457288
 20
46.73270298571799
 30
0.0
  0
VERTEX
  5
355
330
352
100
AcDbEntity
  8
DIBUJOS
 62
     7
100
AcDbVertex
100
AcDb2dVertex
 10
77.16473448457288
 20
46.54510554777378
 30
0.0
  0
VERTEX
  5
356
330
352
100
AcDbEntity
  8
DIBUJOS
 62
     7
100
AcDbVertex
100
AcDb2dVertex
 10
77.17683507926587
 20
46.52090257913475
 30
0.0
  0
VERTEX
  5
357
330
352
100
AcDbEntity
  8
DIBUJOS
 62
     7
100
AcDbVertex
100
AcDb2dVertex
 10
76.90733545495624
 20
42.65383336087169
 30
0.0
  0
VERTEX
  5
358
330
352
100
AcDbEntity
  8
DIBUJOS
 62
     7
100
AcDbVertex
100
AcDb2dVertex
 10
76.90174605509246
 20
42.57556460865445
 30
0.0
  0
VERTEX
  5
359
330
352
100
AcDbEntity
  8
DIBUJOS
 62
     7
100
AcDbVertex
100
AcDb2dVertex
 10
76.89848882906493
 20
42.47854099884103
 30
0.0
  0
VERTEX
  5
35A
330
352
100
AcDbEntity
  8
DIBUJOS
 62
     7
100
AcDbVertex
100
AcDb2dVertex
 10
76.90575244310655
 20
42.467043774371
 30
0.0
  0
VERTEX
  5
35B
330
352
100
AcDbEntity
  8
DIBUJOS
 62
     7
100
AcDbVertex
100
AcDb2dVertex
 10
76.91059268098375
 20
42.45433477273617
 30
0.0
  0
VERTEX
  5
35C
330
352
100
AcDbEntity
  8
DIBUJOS
 62
     7
100
AcDbVertex
100
AcDb2dVertex
 10
76.92176170903386
 20
42.4468865778783
 30
0.0
  0
VERTEX
  5
35D
330
352
100
AcDbEntity
  8
DIBUJOS
 62
     7
100
AcDbVertex
100
AcDb2dVertex
 10
76.9524154631804
 20
42.43404564889134
 30
0.0
  0
VERTEX
  5
35E
330
352
100
AcDbEntity
  8
DIBUJOS
 62
     7
100
AcDbVertex
100
AcDb2dVertex
 10
77.04352658962785
 20
42.42731735390794
 30
0.0
  0
VERTEX
  5
35F
330
352
100
AcDbEntity
  8
DIBUJOS
 62
     7
100
AcDbVertex
100
AcDb2dVertex
 10
77.04989120928607
 20
42.4269671763672
 30
0.0
  0
VERTEX
  5
360
330
352
100
AcDbEntity
  8
DIBUJOS
 62
     7
100
AcDbVertex
100
AcDb2dVertex
 10
77.28575346040739
 20
42.41802706231213
 30
0.0
  0
VERTEX
  5
361
330
352
100
AcDbEntity
  8
DIBUJOS
 62
     7
100
AcDbVertex
100
AcDb2dVertex
 10
77.30390598106044
 20
42.42407780447157
 30
0.0
  0
VERTEX
  5
362
330
352
100
AcDbEntity
  8
DIBUJOS
 62
     7
100
AcDbVertex
100
AcDb2dVertex
 10
77.3414227104481
 20
42.46583362593879
 30
0.0
  0
VERTEX
  5
363
330
352
100
AcDbEntity
  8
DIBUJOS
 62
     7
100
AcDbVertex
100
AcDb2dVertex
 10
77.34807722322246
 20
42.48398748115098
 30
0.0
  0
VERTEX
  5
364
330
352
100
AcDbEntity
  8
DIBUJOS
 62
     7
100
AcDbVertex
100
AcDb2dVertex
 10
77.57899500523386
 20
45.87925028309706
 30
0.0
  0
VERTEX
  5
365
330
352
100
AcDbEntity
  8
DIBUJOS
 62
     7
100
AcDbVertex
100
AcDb2dVertex
 10
77.57945753133012
 20
45.88570006478034
 30
0.0
  0
VERTEX
  5
366
330
352
100
AcDbEntity
  8
DIBUJOS
 62
     7
100
AcDbVertex
100
AcDb2dVertex
 10
77.61526095982623
 20
46.38148957081483
 30
0.0
  0
VERTEX
  5
367
330
352
100
AcDbEntity
  8
DIBUJOS
 62
     7
100
AcDbVertex
100
AcDb2dVertex
 10
77.61855727256746
 20
46.38776996429227
 30
0.0
  0
SEQEND
  5
368
330
352
100
AcDbEntity
  8
DIBUJOS
 62
     7
  0
ENDBLK
  5
225
330
222
100
AcDbEntity
  8
0
100
AcDbBlockEnd
  0
BLOCK
  5
36B
330
369
100
AcDbEntity
  8
0
100
AcDbBlockBegin
  2
BLOCK_4
 70
     0
 10
0.0
 20
0.0
 30
0.0
  3
BLOCK_4
  1

  0
POLYLINE
  5
36D
330
369
100
AcDbEntity
  8
DIBUJOS
 62
     7
100
AcDb2dPolyline
 66
     1
 10
0.0
 20
0.0
 30
0.0
  0
VERTEX
  5
36E
330
36D
100
AcDbEntity
  8
DIBUJOS
 62
     7
100
AcDbVertex
100
AcDb2dVertex
 10
66.5149864376762
 20
33.48469899990017
 30
0.0
  0
VERTEX
  5
36F
330
36D
100
AcDbEntity
  8
DIBUJOS
 62
     7
100
AcDbVertex
100
AcDb2dVertex
 10
66.43692864453504
 20
33.5107196342864
 30
0.0
  0
VERTEX
  5
370
330
36D
100
AcDbEntity
  8
DIBUJOS
 62
     7
100
AcDbVertex
100
AcDb2dVertex
 10
66.27348104246246
 20
33.55945131811414
 30
0.0
  0
VERTEX
  5
371
330
36D
100
AcDbEntity
  8
DIBUJOS
 62
     7
100
AcDbVertex
100
AcDb2dVertex
 10
66.17666488462685
 20
33.58365754421834
 30
0.0
  0
VERTEX
  5
372
330
36D
100
AcDbEntity
  8
DIBUJOS
 62
     7
100
AcDbVertex
100
AcDb2dVertex
 10
66.02526576163025
 20
33.61423211536904
 30
0.0
  0
VERTEX
  5
373
330
36D
100
AcDbEntity
  8
DIBUJOS
 62
     7
100
AcDbVertex
100
AcDb2dVertex
 10
65.85589489402656
 20
33.64436367121154
 30
0.0
  0
VERTEX
  5
374
330
36D
100
AcDbEntity
  8
DIBUJOS
 62
     7
100
AcDbVertex
100
AcDb2dVertex
 10
65.45022530701445
 20
33.68717328276681
 30
0.0
  0
VERTEX
  5
375
330
36D
100
AcDbEntity
  8
DIBUJOS
 62
     7
100
AcDbVertex
100
AcDb2dVertex
 10
64.98408531879686
 20
33.71465326169559
 30
0.0
  0
VERTEX
  5
376
330
36D
100
AcDbEntity
  8
DIBUJOS
 62
     7
100
AcDbVertex
100
AcDb2dVertex
 10
64.50599782550891
 20
33.71761592656409
 30
0.0
  0
VERTEX
  5
377
330
36D
100
AcDbEntity
  8
DIBUJOS
 62
     7
100
AcDbVertex
100
AcDb2dVertex
 10
64.21566986936519
 20
33.71169059682644
 30
0.0
  0
VERTEX
  5
378
330
36D
100
AcDbEntity
  8
DIBUJOS
 62
     7
100
AcDbVertex
100
AcDb2dVertex
 10
63.75591078693495
 20
33.68762281300536
 30
0.0
  0
VERTEX
  5
379
330
36D
100
AcDbEntity
  8
DIBUJOS
 62
     7
100
AcDbVertex
100
AcDb2dVertex
 10
63.35064346733753
 20
33.64548098187662
 30
0.0
  0
VERTEX
  5
37A
330
36D
100
AcDbEntity
  8
DIBUJOS
 62
     7
100
AcDbVertex
100
AcDb2dVertex
 10
63.21155340150067
 20
33.62142785665107
 30
0.0
  0
VERTEX
  5
37B
330
36D
100
AcDbEntity
  8
DIBUJOS
 62
     7
100
AcDbVertex
100
AcDb2dVertex
 10
62.9927753008947
 20
33.5776068020589
 30
0.0
  0
VERTEX
  5
37C
330
36D
100
AcDbEntity
  8
DIBUJOS
 62
     7
100
AcDbVertex
100
AcDb2dVertex
 10
62.86072084327778
 20
33.54307766779577
 30
0.0
  0
VERTEX
  5
37D
330
36D
100
AcDbEntity
  8
DIBUJOS
 62
     7
100
AcDbVertex
100
AcDb2dVertex
 10
62.77002827037415
 20
33.51374581973256
 30
0.0
  0
VERTEX
  5
37E
330
36D
100
AcDbEntity
  8
DIBUJOS
 62
     7
100
AcDbVertex
100
AcDb2dVertex
 10
62.67865819445716
 20
33.48469899990017
 30
0.0
  0
SEQEND
  5
37F
330
36D
100
AcDbEntity
  8
DIBUJOS
 62
     7
  0
POLYLINE
  5
380
330
369
100
AcDbEntity
  8
DIBUJOS
 62
     7
100
AcDb2dPolyline
 66
     1
 10
0.0
 20
0.0
 30
0.0
  0
VERTEX
  5
381
330
380
100
AcDbEntity
  8
DIBUJOS
 62
     7
100
AcDbVertex
100
AcDb2dVertex
 10
66.75097572061355
 20
33.24264162505232
 30
0.0
  0
VERTEX
  5
382
330
380
100
AcDbEntity
  8
DIBUJOS
 62
     7
100
AcDbVertex
100
AcDb2dVertex
 10
66.43692864453504
 20
33.40031191311419
 30
0.0
  0
VERTEX
  5
383
330
380
100
AcDbEntity
  8
DIBUJOS
 62
     7
100
AcDbVertex
100
AcDb2dVertex
 10
66.27348104246246
 20
33.44904359694193
 30
0.0
  0
VERTEX
  5
384
330
380
100
AcDbEntity
  8
DIBUJOS
 62
     7
100
AcDbVertex
100
AcDb2dVertex
 10
66.17666488462685
 20
33.47324982304614
 30
0.0
  0
VERTEX
  5
385
330
380
100
AcDbEntity
  8
DIBUJOS
 62
     7
100
AcDbVertex
100
AcDb2dVertex
 10
66.02526576163025
 20
33.50382439419684
 30
0.0
  0
VERTEX
  5
386
330
380
100
AcDbEntity
  8
DIBUJOS
 62
     7
100
AcDbVertex
100
AcDb2dVertex
 10
65.85589489402656
 20
33.53395595003934
 30
0.0
  0
VERTEX
  5
387
330
380
100
AcDbEntity
  8
DIBUJOS
 62
     7
100
AcDbVertex
100
AcDb2dVertex
 10
65.45022530701445
 20
33.57676556159461
 30
0.0
  0
VERTEX
  5
388
330
380
100
AcDbEntity
  8
DIBUJOS
 62
     7
100
AcDbVertex
100
AcDb2dVertex
 10
64.98408531879686
 20
33.60424554052338
 30
0.0
  0
VERTEX
  5
389
330
380
100
AcDbEntity
  8
DIBUJOS
 62
     7
100
AcDbVertex
100
AcDb2dVertex
 10
64.50599782550891
 20
33.60720820539188
 30
0.0
  0
VERTEX
  5
38A
330
380
100
AcDbEntity
  8
DIBUJOS
 62
     7
100
AcDbVertex
100
AcDb2dVertex
 10
64.21566986936519
 20
33.60128287565423
 30
0.0
  0
VERTEX
  5
38B
330
380
100
AcDbEntity
  8
DIBUJOS
 62
     7
100
AcDbVertex
100
AcDb2dVertex
 10
63.75591078693495
 20
33.57721509183316
 30
0.0
  0
VERTEX
  5
38C
330
380
100
AcDbEntity
  8
DIBUJOS
 62
     7
100
AcDbVertex
100
AcDb2dVertex
 10
63.35064346733753
 20
33.53507326070441
 30
0.0
  0
VERTEX
  5
38D
330
380
100
AcDbEntity
  8
DIBUJOS
 62
     7
100
AcDbVertex
100
AcDb2dVertex
 10
63.21155340150067
 20
33.51102013547887
 30
0.0
  0
VERTEX
  5
38E
330
380
100
AcDbEntity
  8
DIBUJOS
 62
     7
100
AcDbVertex
100
AcDb2dVertex
 10
62.9927753008947
 20
33.4671990808867
 30
0.0
  0
VERTEX
  5
38F
330
380
100
AcDbEntity
  8
DIBUJOS
 62
     7
100
AcDbVertex
100
AcDb2dVertex
 10
62.86072084327778
 20
33.43266994662357
 30
0.0
  0
VERTEX
  5
390
330
380
100
AcDbEntity
  8
DIBUJOS
 62
     7
100
AcDbVertex
100
AcDb2dVertex
 10
62.77002827037415
 20
33.40333809856036
 30
0.0
  0
VERTEX
  5
391
330
380
100
AcDbEntity
  8
DIBUJOS
 62
     7
100
AcDbVertex
100
AcDb2dVertex
 10
62.40647909778342
 20
33.19422917284326
 30
0.0
  0
SEQEND
  5
392
330
380
100
AcDbEntity
  8
DIBUJOS
 62
     7
  0
POLYLINE
  5
393
330
369
100
AcDbEntity
  8
DIBUJOS
 62
     7
100
AcDb2dPolyline
 66
     1
 10
0.0
 20
0.0
 30
0.0
  0
VERTEX
  5
394
330
393
100
AcDbEntity
  8
DIBUJOS
 62
     7
100
AcDbVertex
100
AcDb2dVertex
 10
66.52103836363624
 20
33.48469899990017
 30
0.0
  0
VERTEX
  5
395
330
393
100
AcDbEntity
  8
DIBUJOS
 62
     7
100
AcDbVertex
100
AcDb2dVertex
 10
66.5149864376762
 20
33.48469899990017
 30
0.0
  0
SEQEND
  5
396
330
393
100
AcDbEntity
  8
DIBUJOS
 62
     7
  0
POLYLINE
  5
397
330
369
100
AcDbEntity
  8
DIBUJOS
 62
     7
100
AcDb2dPolyline
 66
     1
 10
0.0
 20
0.0
 30
0.0
  0
VERTEX
  5
398
330
397
100
AcDbEntity
  8
DIBUJOS
 62
     7
100
AcDbVertex
100
AcDb2dVertex
 10
66.52103836363624
 20
33.48469899990017
 30
0.0
  0
VERTEX
  5
399
330
397
100
AcDbEntity
  8
DIBUJOS
 62
     7
100
AcDbVertex
100
AcDb2dVertex
 10
66.52103836363624
 20
33.49074974205961
 30
0.0
  0
SEQEND
  5
39A
330
397
100
AcDbEntity
  8
DIBUJOS
 62
     7
  0
POLYLINE
  5
39B
330
369
100
AcDbEntity
  8
DIBUJOS
 62
     7
100
AcDb2dPolyline
 66
     1
 10
0.0
 20
0.0
 30
0.0
  0
VERTEX
  5
39C
330
39B
100
AcDbEntity
  8
DIBUJOS
 62
     7
100
AcDbVertex
100
AcDb2dVertex
 10
62.66050567380412
 20
33.47259588684774
 30
0.0
  0
VERTEX
  5
39D
330
39B
100
AcDbEntity
  8
DIBUJOS
 62
     7
100
AcDbVertex
100
AcDb2dVertex
 10
62.66655597115125
 20
33.47259588684774
 30
0.0
  0
VERTEX
  5
39E
330
39B
100
AcDbEntity
  8
DIBUJOS
 62
     7
100
AcDbVertex
100
AcDb2dVertex
 10
62.67865819445716
 20
33.48469899990017
 30
0.0
  0
SEQEND
  5
39F
330
39B
100
AcDbEntity
  8
DIBUJOS
 62
     7
  0
POLYLINE
  5
3A0
330
369
100
AcDbEntity
  8
DIBUJOS
 62
     7
100
AcDb2dPolyline
 66
     1
 10
0.0
 20
0.0
 30
0.0
  0
VERTEX
  5
3A1
330
3A0
100
AcDbEntity
  8
DIBUJOS
 62
     7
100
AcDbVertex
100
AcDb2dVertex
 10
66.53314058694215
 20
33.47259588684774
 30
0.0
  0
VERTEX
  5
3A2
330
3A0
100
AcDbEntity
  8
DIBUJOS
 62
     7
100
AcDbVertex
100
AcDb2dVertex
 10
66.52103836363624
 20
33.48469899990017
 30
0.0
  0
SEQEND
  5
3A3
330
3A0
100
AcDbEntity
  8
DIBUJOS
 62
     7
  0
POLYLINE
  5
3A4
330
369
100
AcDbEntity
  8
DIBUJOS
 62
     7
100
AcDb2dPolyline
 66
     1
 10
0.0
 20
0.0
 30
0.0
  0
VERTEX
  5
3A5
330
3A4
100
AcDbEntity
  8
DIBUJOS
 62
     7
100
AcDbVertex
100
AcDb2dVertex
 10
66.76307794391947
 20
33.23658925415997
 30
0.0
  0
VERTEX
  5
3A6
330
3A4
100
AcDbEntity
  8
DIBUJOS
 62
     7
100
AcDbVertex
100
AcDb2dVertex
 10
66.75097572061355
 20
33.24264162505232
 30
0.0
  0
SEQEND
  5
3A7
330
3A4
100
AcDbEntity
  8
DIBUJOS
 62
     7
  0
POLYLINE
  5
3A8
330
369
100
AcDbEntity
  8
DIBUJOS
 62
     7
100
AcDb2dPolyline
 66
     1
 10
0.0
 20
0.0
 30
0.0
  0
VERTEX
  5
3A9
330
3A8
100
AcDbEntity
  8
DIBUJOS
 62
     7
100
AcDbVertex
100
AcDb2dVertex
 10
62.38215942360318
 20
33.18817843068383
 30
0.0
  0
VERTEX
  5
3AA
330
3A8
100
AcDbEntity
  8
DIBUJOS
 62
     7
100
AcDbVertex
100
AcDb2dVertex
 10
62.38820972095032
 20
33.19422917284326
 30
0.0
  0
SEQEND
  5
3AB
330
3A8
100
AcDbEntity
  8
DIBUJOS
 62
     7
  0
POLYLINE
  5
3AC
330
369
100
AcDbEntity
  8
DIBUJOS
 62
     7
100
AcDb2dPolyline
 66
     1
 10
0.0
 20
0.0
 30
0.0
  0
VERTEX
  5
3AD
330
3AC
100
AcDbEntity
  8
DIBUJOS
 62
     7
100
AcDbVertex
100
AcDb2dVertex
 10
66.81753713449022
 20
33.18212605979148
 30
0.0
  0
VERTEX
  5
3AE
330
3AC
100
AcDbEntity
  8
DIBUJOS
 62
     7
100
AcDbVertex
100
AcDb2dVertex
 10
66.81148520853017
 20
33.19422917284326
 30
0.0
  0
SEQEND
  5
3AF
330
3AC
100
AcDbEntity
  8
DIBUJOS
 62
     7
  0
POLYLINE
  5
3B0
330
369
100
AcDbEntity
  8
DIBUJOS
 62
     7
100
AcDb2dPolyline
 66
     1
 10
0.0
 20
0.0
 30
0.0
  0
VERTEX
  5
3B1
330
3B0
100
AcDbEntity
  8
DIBUJOS
 62
     7
100
AcDbVertex
100
AcDb2dVertex
 10
66.85989410175507
 20
33.12161212326226
 30
0.0
  0
VERTEX
  5
3B2
330
3B0
100
AcDbEntity
  8
DIBUJOS
 62
     7
100
AcDbVertex
100
AcDb2dVertex
 10
66.85989410175507
 20
33.12766449415461
 30
0.0
  0
SEQEND
  5
3B3
330
3B0
100
AcDbEntity
  8
DIBUJOS
 62
     7
  0
POLYLINE
  5
3B4
330
369
100
AcDbEntity
  8
DIBUJOS
 62
     7
100
AcDb2dPolyline
 66
     1
 10
0.0
 20
0.0
 30
0.0
  0
VERTEX
  5
3B5
330
3B4
100
AcDbEntity
  8
DIBUJOS
 62
     7
100
AcDbVertex
100
AcDb2dVertex
 10
62.32770023303242
 20
33.09135515499798
 30
0.0
  0
VERTEX
  5
3B6
330
3B4
100
AcDbEntity
  8
DIBUJOS
 62
     7
100
AcDbVertex
100
AcDb2dVertex
 10
62.32770023303242
 20
33.09740752589032
 30
0.0
  0
SEQEND
  5
3B7
330
3B4
100
AcDbEntity
  8
DIBUJOS
 62
     7
  0
POLYLINE
  5
3B8
330
369
100
AcDbEntity
  8
DIBUJOS
 62
     7
100
AcDb2dPolyline
 66
     1
 10
0.0
 20
0.0
 30
0.0
  0
VERTEX
  5
3B9
330
3B8
100
AcDbEntity
  8
DIBUJOS
 62
     7
100
AcDbVertex
100
AcDb2dVertex
 10
66.87199632506098
 20
33.0853044128379
 30
0.0
  0
VERTEX
  5
3BA
330
3B8
100
AcDbEntity
  8
DIBUJOS
 62
     7
100
AcDbVertex
100
AcDb2dVertex
 10
66.87199632506098
 20
33.09135515499798
 30
0.0
  0
SEQEND
  5
3BB
330
3B8
100
AcDbEntity
  8
DIBUJOS
 62
     7
  0
POLYLINE
  5
3BC
330
369
100
AcDbEntity
  8
DIBUJOS
 62
     7
100
AcDb2dPolyline
 66
     1
 10
0.0
 20
0.0
 30
0.0
  0
VERTEX
  5
3BD
330
3BC
100
AcDbEntity
  8
DIBUJOS
 62
     7
100
AcDbVertex
100
AcDb2dVertex
 10
66.87804662240812
 20
33.06714892889313
 30
0.0
  0
VERTEX
  5
3BE
330
3BC
100
AcDbEntity
  8
DIBUJOS
 62
     7
100
AcDbVertex
100
AcDb2dVertex
 10
66.87804662240812
 20
33.07320129978547
 30
0.0
  0
SEQEND
  5
3BF
330
3BC
100
AcDbEntity
  8
DIBUJOS
 62
     7
  0
POLYLINE
  5
3C0
330
369
100
AcDbEntity
  8
DIBUJOS
 62
     7
100
AcDb2dPolyline
 66
     1
 10
0.0
 20
0.0
 30
0.0
  0
VERTEX
  5
3C1
330
3C0
100
AcDbEntity
  8
DIBUJOS
 62
     7
100
AcDbVertex
100
AcDb2dVertex
 10
62.31559800972651
 20
33.06109818673305
 30
0.0
  0
VERTEX
  5
3C2
330
3C0
100
AcDbEntity
  8
DIBUJOS
 62
     7
100
AcDbVertex
100
AcDb2dVertex
 10
62.32164993568528
 20
33.07320129978547
 30
0.0
  0
SEQEND
  5
3C3
330
3C0
100
AcDbEntity
  8
DIBUJOS
 62
     7
  0
POLYLINE
  5
3C4
330
369
100
AcDbEntity
  8
DIBUJOS
 62
     7
100
AcDb2dPolyline
 66
     1
 10
0.0
 20
0.0
 30
0.0
  0
VERTEX
  5
3C5
330
3C4
100
AcDbEntity
  8
DIBUJOS
 62
     7
100
AcDbVertex
100
AcDb2dVertex
 10
62.5152806227436
 20
32.52857098482894
 30
0.0
  0
VERTEX
  5
3C6
330
3C4
100
AcDbEntity
  8
DIBUJOS
 62
     7
100
AcDbVertex
100
AcDb2dVertex
 10
62.48461709691959
 20
32.53822122636262
 30
0.0
  0
VERTEX
  5
3C7
330
3C4
100
AcDbEntity
  8
DIBUJOS
 62
     7
100
AcDbVertex
100
AcDb2dVertex
 10
62.41302001160356
 20
32.55398735936567
 30
0.0
  0
VERTEX
  5
3C8
330
3C4
100
AcDbEntity
  8
DIBUJOS
 62
     7
100
AcDbVertex
100
AcDb2dVertex
 10
62.38215942360318
 20
32.57093106614629
 30
0.0
  0
SEQEND
  5
3C9
330
3C4
100
AcDbEntity
  8
DIBUJOS
 62
     7
  0
POLYLINE
  5
3CA
330
369
100
AcDbEntity
  8
DIBUJOS
 62
     7
100
AcDb2dPolyline
 66
     1
 10
0.0
 20
0.0
 30
0.0
  0
VERTEX
  5
3CB
330
3CA
100
AcDbEntity
  8
DIBUJOS
 62
     7
100
AcDbVertex
100
AcDb2dVertex
 10
62.52133254870365
 20
32.52857098482894
 30
0.0
  0
VERTEX
  5
3CC
330
3CA
100
AcDbEntity
  8
DIBUJOS
 62
     7
100
AcDbVertex
100
AcDb2dVertex
 10
62.5152806227436
 20
32.52857098482894
 30
0.0
  0
SEQEND
  5
3CD
330
3CA
100
AcDbEntity
  8
DIBUJOS
 62
     7
  0
POLYLINE
  5
3CE
330
369
100
AcDbEntity
  8
DIBUJOS
 62
     7
100
AcDb2dPolyline
 66
     1
 10
0.0
 20
0.0
 30
0.0
  0
VERTEX
  5
3CF
330
3CE
100
AcDbEntity
  8
DIBUJOS
 62
     7
100
AcDbVertex
100
AcDb2dVertex
 10
62.52738284605078
 20
32.52857098482894
 30
0.0
  0
VERTEX
  5
3D0
330
3CE
100
AcDbEntity
  8
DIBUJOS
 62
     7
100
AcDbVertex
100
AcDb2dVertex
 10
62.52133254870365
 20
32.52857098482894
 30
0.0
  0
SEQEND
  5
3D1
330
3CE
100
AcDbEntity
  8
DIBUJOS
 62
     7
  0
POLYLINE
  5
3D2
330
369
100
AcDbEntity
  8
DIBUJOS
 62
     7
100
AcDb2dPolyline
 66
     1
 10
0.0
 20
0.0
 30
0.0
  0
VERTEX
  5
3D3
330
3D2
100
AcDbEntity
  8
DIBUJOS
 62
     7
100
AcDbVertex
100
AcDb2dVertex
 10
66.67231371204262
 20
32.52857098482894
 30
0.0
  0
VERTEX
  5
3D4
330
3D2
100
AcDbEntity
  8
DIBUJOS
 62
     7
100
AcDbVertex
100
AcDb2dVertex
 10
66.66626178608257
 20
32.53462335572193
 30
0.0
  0
VERTEX
  5
3D5
330
3D2
100
AcDbEntity
  8
DIBUJOS
 62
     7
100
AcDbVertex
100
AcDb2dVertex
 10
66.65415956277666
 20
32.52857098482894
 30
0.0
  0
VERTEX
  5
3D6
330
3D2
100
AcDbEntity
  8
DIBUJOS
 62
     7
100
AcDbVertex
100
AcDb2dVertex
 10
65.25028048730199
 20
32.56795700014742
 30
0.0
  0
VERTEX
  5
3D7
330
3D2
100
AcDbEntity
  8
DIBUJOS
 62
     7
100
AcDbVertex
100
AcDb2dVertex
 10
64.88727078957416
 20
32.57698343703863
 30
0.0
  0
VERTEX
  5
3D8
330
3D2
100
AcDbEntity
  8
DIBUJOS
 62
     7
100
AcDbVertex
100
AcDb2dVertex
 10
64.3547827357841
 20
32.57698343703863
 30
0.0
  0
VERTEX
  5
3D9
330
3D2
100
AcDbEntity
  8
DIBUJOS
 62
     7
100
AcDbVertex
100
AcDb2dVertex
 10
62.52738284605078
 20
32.52857098482894
 30
0.0
  0
SEQEND
  5
3DA
330
3D2
100
AcDbEntity
  8
DIBUJOS
 62
     7
  0
POLYLINE
  5
3DB
330
369
100
AcDbEntity
  8
DIBUJOS
 62
     7
100
AcDb2dPolyline
 66
     1
 10
0.0
 20
0.0
 30
0.0
  0
VERTEX
  5
3DC
330
3DB
100
AcDbEntity
  8
DIBUJOS
 62
     7
100
AcDbVertex
100
AcDb2dVertex
 10
66.67836400938975
 20
32.52857098482894
 30
0.0
  0
VERTEX
  5
3DD
330
3DB
100
AcDbEntity
  8
DIBUJOS
 62
     7
100
AcDbVertex
100
AcDb2dVertex
 10
66.67231371204262
 20
32.52857098482894
 30
0.0
  0
SEQEND
  5
3DE
330
3DB
100
AcDbEntity
  8
DIBUJOS
 62
     7
  0
POLYLINE
  5
3DF
330
369
100
AcDbEntity
  8
DIBUJOS
 62
     7
100
AcDb2dPolyline
 66
     1
 10
0.0
 20
0.0
 30
0.0
  0
VERTEX
  5
3E0
330
3DF
100
AcDbEntity
  8
DIBUJOS
 62
     7
100
AcDbVertex
100
AcDb2dVertex
 10
66.6844143067356
 20
32.52857098482894
 30
0.0
  0
VERTEX
  5
3E1
330
3DF
100
AcDbEntity
  8
DIBUJOS
 62
     7
100
AcDbVertex
100
AcDb2dVertex
 10
66.67836400938975
 20
32.52857098482894
 30
0.0
  0
SEQEND
  5
3E2
330
3DF
100
AcDbEntity
  8
DIBUJOS
 62
     7
  0
POLYLINE
  5
3E3
330
369
100
AcDbEntity
  8
DIBUJOS
 62
     7
100
AcDb2dPolyline
 66
     1
 10
0.0
 20
0.0
 30
0.0
  0
VERTEX
  5
3E4
330
3E3
100
AcDbEntity
  8
DIBUJOS
 62
     7
100
AcDbVertex
100
AcDb2dVertex
 10
66.6844143067356
 20
32.52857098482894
 30
0.0
  0
VERTEX
  5
3E5
330
3E3
100
AcDbEntity
  8
DIBUJOS
 62
     7
100
AcDbVertex
100
AcDb2dVertex
 10
66.71507946117381
 20
32.53822122636262
 30
0.0
  0
VERTEX
  5
3E6
330
3E3
100
AcDbEntity
  8
DIBUJOS
 62
     7
100
AcDbVertex
100
AcDb2dVertex
 10
66.74451664140007
 20
32.54312696940075
 30
0.0
  0
VERTEX
  5
3E7
330
3E3
100
AcDbEntity
  8
DIBUJOS
 62
     7
100
AcDbVertex
100
AcDb2dVertex
 10
66.79393853191984
 20
32.55761780466133
 30
0.0
  0
VERTEX
  5
3E8
330
3E3
100
AcDbEntity
  8
DIBUJOS
 62
     7
100
AcDbVertex
100
AcDb2dVertex
 10
66.81753713449022
 20
32.57093106614629
 30
0.0
  0
SEQEND
  5
3E9
330
3E3
100
AcDbEntity
  8
DIBUJOS
 62
     7
  0
POLYLINE
  5
3EA
330
369
100
AcDbEntity
  8
DIBUJOS
 62
     7
100
AcDb2dPolyline
 66
     1
 10
0.0
 20
0.0
 30
0.0
  0
VERTEX
  5
3EB
330
3EA
100
AcDbEntity
  8
DIBUJOS
 62
     7
100
AcDbVertex
100
AcDb2dVertex
 10
62.52133254870365
 20
32.5225202426695
 30
0.0
  0
VERTEX
  5
3EC
330
3EA
100
AcDbEntity
  8
DIBUJOS
 62
     7
100
AcDbVertex
100
AcDb2dVertex
 10
62.52133254870365
 20
32.52857098482894
 30
0.0
  0
SEQEND
  5
3ED
330
3EA
100
AcDbEntity
  8
DIBUJOS
 62
     7
  0
POLYLINE
  5
3EE
330
369
100
AcDbEntity
  8
DIBUJOS
 62
     7
100
AcDb2dPolyline
 66
     1
 10
0.0
 20
0.0
 30
0.0
  0
VERTEX
  5
3EF
330
3EE
100
AcDbEntity
  8
DIBUJOS
 62
     7
100
AcDbVertex
100
AcDb2dVertex
 10
66.67836400938975
 20
32.5225202426695
 30
0.0
  0
VERTEX
  5
3F0
330
3EE
100
AcDbEntity
  8
DIBUJOS
 62
     7
100
AcDbVertex
100
AcDb2dVertex
 10
66.67836400938975
 20
32.52857098482894
 30
0.0
  0
SEQEND
  5
3F1
330
3EE
100
AcDbEntity
  8
DIBUJOS
 62
     7
  0
POLYLINE
  5
3F2
330
369
100
AcDbEntity
  8
DIBUJOS
 62
     7
100
AcDb2dPolyline
 66
     1
 10
0.0
 20
0.0
 30
0.0
  0
VERTEX
  5
3F3
330
3F2
100
AcDbEntity
  8
DIBUJOS
 62
     7
100
AcDbVertex
100
AcDb2dVertex
 10
62.38215942360318
 20
31.39695353106497
 30
0.0
  0
VERTEX
  5
3F4
330
3F2
100
AcDbEntity
  8
DIBUJOS
 62
     7
100
AcDbVertex
100
AcDb2dVertex
 10
62.38336948307312
 20
31.40239838464201
 30
0.0
  0
VERTEX
  5
3F5
330
3F2
100
AcDbEntity
  8
DIBUJOS
 62
     7
100
AcDbVertex
100
AcDb2dVertex
 10
62.39127965648151
 20
31.58459005859482
 30
0.0
  0
VERTEX
  5
3F6
330
3F2
100
AcDbEntity
  8
DIBUJOS
 62
     7
100
AcDbVertex
100
AcDb2dVertex
 10
62.39724200872503
 20
31.99600143587305
 30
0.0
  0
VERTEX
  5
3F7
330
3F2
100
AcDbEntity
  8
DIBUJOS
 62
     7
100
AcDbVertex
100
AcDb2dVertex
 10
62.40996147636274
 20
32.25061471147705
 30
0.0
  0
VERTEX
  5
3F8
330
3F2
100
AcDbEntity
  8
DIBUJOS
 62
     7
100
AcDbVertex
100
AcDb2dVertex
 10
62.42684367886429
 20
32.34051098678451
 30
0.0
  0
VERTEX
  5
3F9
330
3F2
100
AcDbEntity
  8
DIBUJOS
 62
     7
100
AcDbVertex
100
AcDb2dVertex
 10
62.44387897098974
 20
32.38878336797688
 30
0.0
  0
VERTEX
  5
3FA
330
3F2
100
AcDbEntity
  8
DIBUJOS
 62
     7
100
AcDbVertex
100
AcDb2dVertex
 10
62.45053511237702
 20
32.40693722318939
 30
0.0
  0
VERTEX
  5
3FB
330
3F2
100
AcDbEntity
  8
DIBUJOS
 62
     7
100
AcDbVertex
100
AcDb2dVertex
 10
62.49256472842621
 20
32.49102218005062
 30
0.0
  0
VERTEX
  5
3FC
330
3F2
100
AcDbEntity
  8
DIBUJOS
 62
     7
100
AcDbVertex
100
AcDb2dVertex
 10
62.52133254870365
 20
32.5225202426695
 30
0.0
  0
SEQEND
  5
3FD
330
3F2
100
AcDbEntity
  8
DIBUJOS
 62
     7
  0
POLYLINE
  5
3FE
330
369
100
AcDbEntity
  8
DIBUJOS
 62
     7
100
AcDb2dPolyline
 66
     1
 10
0.0
 20
0.0
 30
0.0
  0
VERTEX
  5
3FF
330
3FE
100
AcDbEntity
  8
DIBUJOS
 62
     7
100
AcDbVertex
100
AcDb2dVertex
 10
66.81148520853017
 20
31.39695353106497
 30
0.0
  0
VERTEX
  5
400
330
3FE
100
AcDbEntity
  8
DIBUJOS
 62
     7
100
AcDbVertex
100
AcDb2dVertex
 10
66.81445579866737
 20
31.44541810272134
 30
0.0
  0
VERTEX
  5
401
330
3FE
100
AcDbEntity
  8
DIBUJOS
 62
     7
100
AcDbVertex
100
AcDb2dVertex
 10
66.80851624700588
 20
31.77208814384154
 30
0.0
  0
VERTEX
  5
402
330
3FE
100
AcDbEntity
  8
DIBUJOS
 62
     7
100
AcDbVertex
100
AcDb2dVertex
 10
66.79614367394005
 20
32.16567304119049
 30
0.0
  0
VERTEX
  5
403
330
3FE
100
AcDbEntity
  8
DIBUJOS
 62
     7
100
AcDbVertex
100
AcDb2dVertex
 10
66.79052170181548
 20
32.25001859529146
 30
0.0
  0
VERTEX
  5
404
330
3FE
100
AcDbEntity
  8
DIBUJOS
 62
     7
100
AcDbVertex
100
AcDb2dVertex
 10
66.77890317657497
 20
32.31630638941257
 30
0.0
  0
VERTEX
  5
405
330
3FE
100
AcDbEntity
  8
DIBUJOS
 62
     7
100
AcDbVertex
100
AcDb2dVertex
 10
66.7491598171022
 20
32.41298959408174
 30
0.0
  0
VERTEX
  5
406
330
3FE
100
AcDbEntity
  8
DIBUJOS
 62
     7
100
AcDbVertex
100
AcDb2dVertex
 10
66.74613548273636
 20
32.4202504846737
 30
0.0
  0
VERTEX
  5
407
330
3FE
100
AcDbEntity
  8
DIBUJOS
 62
     7
100
AcDbVertex
100
AcDb2dVertex
 10
66.707130201053
 20
32.49102218005062
 30
0.0
  0
VERTEX
  5
408
330
3FE
100
AcDbEntity
  8
DIBUJOS
 62
     7
100
AcDbVertex
100
AcDb2dVertex
 10
66.67836400938975
 20
32.5225202426695
 30
0.0
  0
SEQEND
  5
409
330
3FE
100
AcDbEntity
  8
DIBUJOS
 62
     7
  0
POLYLINE
  5
40A
330
369
100
AcDbEntity
  8
DIBUJOS
 62
     7
100
AcDb2dPolyline
 66
     1
 10
0.0
 20
0.0
 30
0.0
  0
VERTEX
  5
40B
330
40A
100
AcDbEntity
  8
DIBUJOS
 62
     7
100
AcDbVertex
100
AcDb2dVertex
 10
66.81753713449022
 20
31.33643796580349
 30
0.0
  0
VERTEX
  5
40C
330
40A
100
AcDbEntity
  8
DIBUJOS
 62
     7
100
AcDbVertex
100
AcDb2dVertex
 10
66.81753713449022
 20
31.35459344974762
 30
0.0
  0
SEQEND
  5
40D
330
40A
100
AcDbEntity
  8
DIBUJOS
 62
     7
  0
POLYLINE
  5
40E
330
369
100
AcDbEntity
  8
DIBUJOS
 62
     7
100
AcDb2dPolyline
 66
     1
 10
0.0
 20
0.0
 30
0.0
  0
VERTEX
  5
40F
330
40E
100
AcDbEntity
  8
DIBUJOS
 62
     7
100
AcDbVertex
100
AcDb2dVertex
 10
62.38820972095032
 20
31.31223336843155
 30
0.0
  0
VERTEX
  5
410
330
40E
100
AcDbEntity
  8
DIBUJOS
 62
     7
100
AcDbVertex
100
AcDb2dVertex
 10
62.38820972095032
 20
31.33038722364341
 30
0.0
  0
SEQEND
  5
411
330
40E
100
AcDbEntity
  8
DIBUJOS
 62
     7
  0
POLYLINE
  5
412
330
369
100
AcDbEntity
  8
DIBUJOS
 62
     7
100
AcDb2dPolyline
 66
     1
 10
0.0
 20
0.0
 30
0.0
  0
VERTEX
  5
413
330
412
100
AcDbEntity
  8
DIBUJOS
 62
     7
100
AcDbVertex
100
AcDb2dVertex
 10
66.77518016722537
 20
29.92645379803376
 30
0.0
  0
VERTEX
  5
414
330
412
100
AcDbEntity
  8
DIBUJOS
 62
     7
100
AcDbVertex
100
AcDb2dVertex
 10
66.77518016722537
 20
29.93855691108618
 30
0.0
  0
SEQEND
  5
415
330
412
100
AcDbEntity
  8
DIBUJOS
 62
     7
  0
POLYLINE
  5
416
330
369
100
AcDbEntity
  8
DIBUJOS
 62
     7
100
AcDb2dPolyline
 66
     1
 10
0.0
 20
0.0
 30
0.0
  0
VERTEX
  5
417
330
416
100
AcDbEntity
  8
DIBUJOS
 62
     7
100
AcDbVertex
100
AcDb2dVertex
 10
62.42451639086804
 20
29.89619682976947
 30
0.0
  0
VERTEX
  5
418
330
416
100
AcDbEntity
  8
DIBUJOS
 62
     7
100
AcDbVertex
100
AcDb2dVertex
 10
62.42451639086804
 20
29.9082999428219
 30
0.0
  0
SEQEND
  5
419
330
416
100
AcDbEntity
  8
DIBUJOS
 62
     7
  0
POLYLINE
  5
41A
330
369
100
AcDbEntity
  8
DIBUJOS
 62
     7
100
AcDb2dPolyline
 66
     1
 10
0.0
 20
0.0
 30
0.0
  0
VERTEX
  5
41B
330
41A
100
AcDbEntity
  8
DIBUJOS
 62
     7
100
AcDbVertex
100
AcDb2dVertex
 10
62.53948506935669
 20
29.4181328222345
 30
0.0
  0
VERTEX
  5
41C
330
41A
100
AcDbEntity
  8
DIBUJOS
 62
     7
100
AcDbVertex
100
AcDb2dVertex
 10
62.50741442188766
 20
29.52040258022966
 30
0.0
  0
VERTEX
  5
41D
330
41A
100
AcDbEntity
  8
DIBUJOS
 62
     7
100
AcDbVertex
100
AcDb2dVertex
 10
62.46336369708747
 20
29.66660414664451
 30
0.0
  0
VERTEX
  5
41E
330
41A
100
AcDbEntity
  8
DIBUJOS
 62
     7
100
AcDbVertex
100
AcDb2dVertex
 10
62.43056668821517
 20
29.88409371671769
 30
0.0
  0
SEQEND
  5
41F
330
41A
100
AcDbEntity
  8
DIBUJOS
 62
     7
  0
POLYLINE
  5
420
330
369
100
AcDbEntity
  8
DIBUJOS
 62
     7
100
AcDb2dPolyline
 66
     1
 10
0.0
 20
0.0
 30
0.0
  0
VERTEX
  5
421
330
420
100
AcDbEntity
  8
DIBUJOS
 62
     7
100
AcDbVertex
100
AcDb2dVertex
 10
62.56368951596851
 20
29.35761888570593
 30
0.0
  0
VERTEX
  5
422
330
420
100
AcDbEntity
  8
DIBUJOS
 62
     7
100
AcDbVertex
100
AcDb2dVertex
 10
62.55763759000845
 20
29.38182348307723
 30
0.0
  0
SEQEND
  5
423
330
420
100
AcDbEntity
  8
DIBUJOS
 62
     7
  0
POLYLINE
  5
424
330
369
100
AcDbEntity
  8
DIBUJOS
 62
     7
100
AcDb2dPolyline
 66
     1
 10
0.0
 20
0.0
 30
0.0
  0
VERTEX
  5
425
330
424
100
AcDbEntity
  8
DIBUJOS
 62
     7
100
AcDbVertex
100
AcDb2dVertex
 10
66.61785452147186
 20
29.31525880438857
 30
0.0
  0
VERTEX
  5
426
330
424
100
AcDbEntity
  8
DIBUJOS
 62
     7
100
AcDbVertex
100
AcDb2dVertex
 10
66.65597546628803
 20
29.42357930454445
 30
0.0
  0
VERTEX
  5
427
330
424
100
AcDbEntity
  8
DIBUJOS
 62
     7
100
AcDbVertex
100
AcDb2dVertex
 10
66.73037050876113
 20
29.65454826684195
 30
0.0
  0
VERTEX
  5
428
330
424
100
AcDbEntity
  8
DIBUJOS
 62
     7
100
AcDbVertex
100
AcDb2dVertex
 10
66.76912824126532
 20
29.9082999428219
 30
0.0
  0
SEQEND
  5
429
330
424
100
AcDbEntity
  8
DIBUJOS
 62
     7
  0
POLYLINE
  5
42A
330
369
100
AcDbEntity
  8
DIBUJOS
 62
     7
100
AcDb2dPolyline
 66
     1
 10
0.0
 20
0.0
 30
0.0
  0
VERTEX
  5
42B
330
42A
100
AcDbEntity
  8
DIBUJOS
 62
     7
100
AcDbVertex
100
AcDb2dVertex
 10
66.56944562824695
 20
29.23658938391523
 30
0.0
  0
VERTEX
  5
42C
330
42A
100
AcDbEntity
  8
DIBUJOS
 62
     7
100
AcDbVertex
100
AcDb2dVertex
 10
66.58578387400283
 20
29.26140149860248
 30
0.0
  0
VERTEX
  5
42D
330
42A
100
AcDbEntity
  8
DIBUJOS
 62
     7
100
AcDbVertex
100
AcDb2dVertex
 10
66.5875997775129
 20
29.2728987230725
 30
0.0
  0
SEQEND
  5
42E
330
42A
100
AcDbEntity
  8
DIBUJOS
 62
     7
  0
POLYLINE
  5
42F
330
369
100
AcDbEntity
  8
DIBUJOS
 62
     7
100
AcDb2dPolyline
 66
     1
 10
0.0
 20
0.0
 30
0.0
  0
VERTEX
  5
430
330
42F
100
AcDbEntity
  8
DIBUJOS
 62
     7
100
AcDbVertex
100
AcDb2dVertex
 10
62.60604648323336
 20
29.22448627086344
 30
0.0
  0
VERTEX
  5
431
330
42F
100
AcDbEntity
  8
DIBUJOS
 62
     7
100
AcDbVertex
100
AcDb2dVertex
 10
62.55763759000845
 20
29.30920643349687
 30
0.0
  0
SEQEND
  5
432
330
42F
100
AcDbEntity
  8
DIBUJOS
 62
     7
  0
POLYLINE
  5
433
330
369
100
AcDbEntity
  8
DIBUJOS
 62
     7
100
AcDb2dPolyline
 66
     1
 10
0.0
 20
0.0
 30
0.0
  0
VERTEX
  5
434
330
433
100
AcDbEntity
  8
DIBUJOS
 62
     7
100
AcDbVertex
100
AcDb2dVertex
 10
66.59365007486005
 20
29.22448627086344
 30
0.0
  0
VERTEX
  5
435
330
433
100
AcDbEntity
  8
DIBUJOS
 62
     7
100
AcDbVertex
100
AcDb2dVertex
 10
66.6360070421249
 20
29.29710494917671
 30
0.0
  0
SEQEND
  5
436
330
433
100
AcDbEntity
  8
DIBUJOS
 62
     7
  0
POLYLINE
  5
437
330
369
100
AcDbEntity
  8
DIBUJOS
 62
     7
100
AcDb2dPolyline
 66
     1
 10
0.0
 20
0.0
 30
0.0
  0
VERTEX
  5
438
330
437
100
AcDbEntity
  8
DIBUJOS
 62
     7
100
AcDbVertex
100
AcDb2dVertex
 10
62.60604648323336
 20
29.21843552870337
 30
0.0
  0
VERTEX
  5
439
330
437
100
AcDbEntity
  8
DIBUJOS
 62
     7
100
AcDbVertex
100
AcDb2dVertex
 10
62.59999455727331
 20
29.21843552870337
 30
0.0
  0
SEQEND
  5
43A
330
437
100
AcDbEntity
  8
DIBUJOS
 62
     7
  0
POLYLINE
  5
43B
330
369
100
AcDbEntity
  8
DIBUJOS
 62
     7
100
AcDb2dPolyline
 66
     1
 10
0.0
 20
0.0
 30
0.0
  0
VERTEX
  5
43C
330
43B
100
AcDbEntity
  8
DIBUJOS
 62
     7
100
AcDbVertex
100
AcDb2dVertex
 10
62.60604648323336
 20
29.21843552870337
 30
0.0
  0
VERTEX
  5
43D
330
43B
100
AcDbEntity
  8
DIBUJOS
 62
     7
100
AcDbVertex
100
AcDb2dVertex
 10
62.60604648323336
 20
29.22448627086344
 30
0.0
  0
SEQEND
  5
43E
330
43B
100
AcDbEntity
  8
DIBUJOS
 62
     7
  0
POLYLINE
  5
43F
330
369
100
AcDbEntity
  8
DIBUJOS
 62
     7
100
AcDb2dPolyline
 66
     1
 10
0.0
 20
0.0
 30
0.0
  0
VERTEX
  5
440
330
43F
100
AcDbEntity
  8
DIBUJOS
 62
     7
100
AcDbVertex
100
AcDb2dVertex
 10
66.59365007486005
 20
29.21843552870337
 30
0.0
  0
VERTEX
  5
441
330
43F
100
AcDbEntity
  8
DIBUJOS
 62
     7
100
AcDbVertex
100
AcDb2dVertex
 10
66.59365007486005
 20
29.22448627086344
 30
0.0
  0
SEQEND
  5
442
330
43F
100
AcDbEntity
  8
DIBUJOS
 62
     7
  0
POLYLINE
  5
443
330
369
100
AcDbEntity
  8
DIBUJOS
 62
     7
100
AcDb2dPolyline
 66
     1
 10
0.0
 20
0.0
 30
0.0
  0
VERTEX
  5
444
330
443
100
AcDbEntity
  8
DIBUJOS
 62
     7
100
AcDbVertex
100
AcDb2dVertex
 10
66.5997003722059
 20
29.21843552870337
 30
0.0
  0
VERTEX
  5
445
330
443
100
AcDbEntity
  8
DIBUJOS
 62
     7
100
AcDbVertex
100
AcDb2dVertex
 10
66.59365007486005
 20
29.21843552870337
 30
0.0
  0
SEQEND
  5
446
330
443
100
AcDbEntity
  8
DIBUJOS
 62
     7
  0
POLYLINE
  5
447
330
369
100
AcDbEntity
  8
DIBUJOS
 62
     7
100
AcDb2dPolyline
 66
     1
 10
0.0
 20
0.0
 30
0.0
  0
VERTEX
  5
448
330
447
100
AcDbEntity
  8
DIBUJOS
 62
     7
100
AcDbVertex
100
AcDb2dVertex
 10
62.60604648323336
 20
29.21238315781102
 30
0.0
  0
VERTEX
  5
449
330
447
100
AcDbEntity
  8
DIBUJOS
 62
     7
100
AcDbVertex
100
AcDb2dVertex
 10
62.60604648323336
 20
29.21843552870337
 30
0.0
  0
SEQEND
  5
44A
330
447
100
AcDbEntity
  8
DIBUJOS
 62
     7
  0
POLYLINE
  5
44B
330
369
100
AcDbEntity
  8
DIBUJOS
 62
     7
100
AcDb2dPolyline
 66
     1
 10
0.0
 20
0.0
 30
0.0
  0
VERTEX
  5
44C
330
44B
100
AcDbEntity
  8
DIBUJOS
 62
     7
100
AcDbVertex
100
AcDb2dVertex
 10
62.67865819445716
 20
33.48469899990017
 30
0.0
  0
VERTEX
  5
44D
330
44B
100
AcDbEntity
  8
DIBUJOS
 62
     7
100
AcDbVertex
100
AcDb2dVertex
 10
62.6435615840081
 20
33.563972680223
 30
0.0
  0
VERTEX
  5
44E
330
44B
100
AcDbEntity
  8
DIBUJOS
 62
     7
100
AcDbVertex
100
AcDb2dVertex
 10
62.6241990038864
 20
33.60572687295731
 30
0.0
  0
VERTEX
  5
44F
330
44B
100
AcDbEntity
  8
DIBUJOS
 62
     7
100
AcDbVertex
100
AcDb2dVertex
 10
62.60604648323336
 20
33.62388235690209
 30
0.0
  0
VERTEX
  5
450
330
44B
100
AcDbEntity
  8
DIBUJOS
 62
     7
100
AcDbVertex
100
AcDb2dVertex
 10
62.56368951596851
 20
33.6359838412216
 30
0.0
  0
VERTEX
  5
451
330
44B
100
AcDbEntity
  8
DIBUJOS
 62
     7
100
AcDbVertex
100
AcDb2dVertex
 10
62.46687335813289
 20
33.6359838412216
 30
0.0
  0
VERTEX
  5
452
330
44B
100
AcDbEntity
  8
DIBUJOS
 62
     7
100
AcDbVertex
100
AcDb2dVertex
 10
62.4604142789194
 20
33.63238597058091
 30
0.0
  0
VERTEX
  5
453
330
44B
100
AcDbEntity
  8
DIBUJOS
 62
     7
100
AcDbVertex
100
AcDb2dVertex
 10
62.41241416756213
 20
33.61782998600974
 30
0.0
  0
VERTEX
  5
454
330
44B
100
AcDbEntity
  8
DIBUJOS
 62
     7
100
AcDbVertex
100
AcDb2dVertex
 10
62.39910188478628
 20
33.60028039064736
 30
0.0
  0
VERTEX
  5
455
330
44B
100
AcDbEntity
  8
DIBUJOS
 62
     7
100
AcDbVertex
100
AcDb2dVertex
 10
62.39116402495712
 20
33.56935075575784
 30
0.0
  0
VERTEX
  5
456
330
44B
100
AcDbEntity
  8
DIBUJOS
 62
     7
100
AcDbVertex
100
AcDb2dVertex
 10
62.3797767627641
 20
33.31582058743167
 30
0.0
  0
VERTEX
  5
457
330
44B
100
AcDbEntity
  8
DIBUJOS
 62
     7
100
AcDbVertex
100
AcDb2dVertex
 10
62.36858167690614
 20
33.2922332797712
 30
0.0
  0
VERTEX
  5
458
330
44B
100
AcDbEntity
  8
DIBUJOS
 62
     7
100
AcDbVertex
100
AcDb2dVertex
 10
62.32346421058374
 20
33.2299326234175
 30
0.0
  0
VERTEX
  5
459
330
44B
100
AcDbEntity
  8
DIBUJOS
 62
     7
100
AcDbVertex
100
AcDb2dVertex
 10
62.31378373482934
 20
33.20088580358509
 30
0.0
  0
VERTEX
  5
45A
330
44B
100
AcDbEntity
  8
DIBUJOS
 62
     7
100
AcDbVertex
100
AcDb2dVertex
 10
62.29409054626488
 20
33.13949723757112
 30
0.0
  0
VERTEX
  5
45B
330
44B
100
AcDbEntity
  8
DIBUJOS
 62
     7
100
AcDbVertex
100
AcDb2dVertex
 10
62.27929296842043
 20
33.00663499236455
 30
0.0
  0
VERTEX
  5
45C
330
44B
100
AcDbEntity
  8
DIBUJOS
 62
     7
100
AcDbVertex
100
AcDb2dVertex
 10
62.28894087191532
 20
32.82468274212624
 30
0.0
  0
VERTEX
  5
45D
330
44B
100
AcDbEntity
  8
DIBUJOS
 62
     7
100
AcDbVertex
100
AcDb2dVertex
 10
62.30005126989548
 20
32.74674950885452
 30
0.0
  0
VERTEX
  5
45E
330
44B
100
AcDbEntity
  8
DIBUJOS
 62
     7
100
AcDbVertex
100
AcDb2dVertex
 10
62.31951319541118
 20
32.65511863317051
 30
0.0
  0
VERTEX
  5
45F
330
44B
100
AcDbEntity
  8
DIBUJOS
 62
     7
100
AcDbVertex
100
AcDb2dVertex
 10
62.33235480902621
 20
32.62446425411562
 30
0.0
  0
VERTEX
  5
460
330
44B
100
AcDbEntity
  8
DIBUJOS
 62
     7
100
AcDbVertex
100
AcDb2dVertex
 10
62.36400690295014
 20
32.58303417919807
 30
0.0
  0
VERTEX
  5
461
330
44B
100
AcDbEntity
  8
DIBUJOS
 62
     7
100
AcDbVertex
100
AcDb2dVertex
 10
62.36702146563978
 20
30.94310552203038
 30
0.0
  0
VERTEX
  5
462
330
44B
100
AcDbEntity
  8
DIBUJOS
 62
     7
100
AcDbVertex
100
AcDb2dVertex
 10
62.37926537827794
 20
30.39834490845333
 30
0.0
  0
VERTEX
  5
463
330
44B
100
AcDbEntity
  8
DIBUJOS
 62
     7
100
AcDbVertex
100
AcDb2dVertex
 10
62.38505346892843
 20
30.25940260389817
 30
0.0
  0
VERTEX
  5
464
330
44B
100
AcDbEntity
  8
DIBUJOS
 62
     7
100
AcDbVertex
100
AcDb2dVertex
 10
62.40303987105427
 20
29.98116455978065
 30
0.0
  0
VERTEX
  5
465
330
44B
100
AcDbEntity
  8
DIBUJOS
 62
     7
100
AcDbVertex
100
AcDb2dVertex
 10
62.40358708502705
 20
29.97465125752003
 30
0.0
  0
VERTEX
  5
466
330
44B
100
AcDbEntity
  8
DIBUJOS
 62
     7
100
AcDbVertex
100
AcDb2dVertex
 10
62.43661861417394
 20
29.68439642318656
 30
0.0
  0
VERTEX
  5
467
330
44B
100
AcDbEntity
  8
DIBUJOS
 62
     7
100
AcDbVertex
100
AcDb2dVertex
 10
62.43177674768383
 20
29.67773979244408
 30
0.0
  0
VERTEX
  5
468
330
44B
100
AcDbEntity
  8
DIBUJOS
 62
     7
100
AcDbVertex
100
AcDb2dVertex
 10
62.38820972095032
 20
29.59362388966014
 30
0.0
  0
VERTEX
  5
469
330
44B
100
AcDbEntity
  8
DIBUJOS
 62
     7
100
AcDbVertex
100
AcDb2dVertex
 10
62.38820972095032
 20
29.27894946523194
 30
0.0
  0
VERTEX
  5
46A
330
44B
100
AcDbEntity
  8
DIBUJOS
 62
     7
100
AcDbVertex
100
AcDb2dVertex
 10
62.39789182531762
 20
29.24990264539954
 30
0.0
  0
VERTEX
  5
46B
330
44B
100
AcDbEntity
  8
DIBUJOS
 62
     7
100
AcDbVertex
100
AcDb2dVertex
 10
62.41241416756213
 20
29.22448627086344
 30
0.0
  0
VERTEX
  5
46C
330
44B
100
AcDbEntity
  8
DIBUJOS
 62
     7
100
AcDbVertex
100
AcDb2dVertex
 10
62.417534526878
 20
29.22309044689792
 30
0.0
  0
VERTEX
  5
46D
330
44B
100
AcDbEntity
  8
DIBUJOS
 62
     7
100
AcDbVertex
100
AcDb2dVertex
 10
62.46687335813289
 20
29.20633241565094
 30
0.0
  0
VERTEX
  5
46E
330
44B
100
AcDbEntity
  8
DIBUJOS
 62
     7
100
AcDbVertex
100
AcDb2dVertex
 10
62.56368951596851
 20
29.20633241565094
 30
0.0
  0
VERTEX
  5
46F
330
44B
100
AcDbEntity
  8
DIBUJOS
 62
     7
100
AcDbVertex
100
AcDb2dVertex
 10
62.59347847660536
 20
29.21471224564089
 30
0.0
  0
VERTEX
  5
470
330
44B
100
AcDbEntity
  8
DIBUJOS
 62
     7
100
AcDbVertex
100
AcDb2dVertex
 10
62.59999455727331
 20
29.21843552870337
 30
0.0
  0
SEQEND
  5
471
330
44B
100
AcDbEntity
  8
DIBUJOS
 62
     7
  0
POLYLINE
  5
472
330
369
100
AcDbEntity
  8
DIBUJOS
 62
     7
100
AcDb2dPolyline
 66
     1
 10
0.0
 20
0.0
 30
0.0
  0
VERTEX
  5
473
330
472
100
AcDbEntity
  8
DIBUJOS
 62
     7
100
AcDbVertex
100
AcDb2dVertex
 10
66.5997003722059
 20
29.21843552870337
 30
0.0
  0
VERTEX
  5
474
330
472
100
AcDbEntity
  8
DIBUJOS
 62
     7
100
AcDbVertex
100
AcDb2dVertex
 10
66.62949096145567
 20
29.21005732744633
 30
0.0
  0
VERTEX
  5
475
330
472
100
AcDbEntity
  8
DIBUJOS
 62
     7
100
AcDbVertex
100
AcDb2dVertex
 10
66.6360070421249
 20
29.20633241565094
 30
0.0
  0
VERTEX
  5
476
330
472
100
AcDbEntity
  8
DIBUJOS
 62
     7
100
AcDbVertex
100
AcDb2dVertex
 10
66.73282319996052
 20
29.20633241565094
 30
0.0
  0
VERTEX
  5
477
330
472
100
AcDbEntity
  8
DIBUJOS
 62
     7
100
AcDbVertex
100
AcDb2dVertex
 10
66.73933928062846
 20
29.21005732744633
 30
0.0
  0
VERTEX
  5
478
330
472
100
AcDbEntity
  8
DIBUJOS
 62
     7
100
AcDbVertex
100
AcDb2dVertex
 10
66.77518016722537
 20
29.21843552870337
 30
0.0
  0
VERTEX
  5
479
330
472
100
AcDbEntity
  8
DIBUJOS
 62
     7
100
AcDbVertex
100
AcDb2dVertex
 10
66.79938298522427
 20
29.24264175480758
 30
0.0
  0
VERTEX
  5
47A
330
472
100
AcDbEntity
  8
DIBUJOS
 62
     7
100
AcDbVertex
100
AcDb2dVertex
 10
66.81148520853017
 20
29.27894946523194
 30
0.0
  0
VERTEX
  5
47B
330
472
100
AcDbEntity
  8
DIBUJOS
 62
     7
100
AcDbVertex
100
AcDb2dVertex
 10
66.81148520853017
 20
29.59362388966014
 30
0.0
  0
VERTEX
  5
47C
330
472
100
AcDbEntity
  8
DIBUJOS
 62
     7
100
AcDbVertex
100
AcDb2dVertex
 10
66.80230471697156
 20
29.61657762028197
 30
0.0
  0
VERTEX
  5
47D
330
472
100
AcDbEntity
  8
DIBUJOS
 62
     7
100
AcDbVertex
100
AcDb2dVertex
 10
66.785885040565
 20
29.64715707763012
 30
0.0
  0
VERTEX
  5
47E
330
472
100
AcDbEntity
  8
DIBUJOS
 62
     7
100
AcDbVertex
100
AcDb2dVertex
 10
66.76307794391947
 20
29.68439642318656
 30
0.0
  0
VERTEX
  5
47F
330
472
100
AcDbEntity
  8
DIBUJOS
 62
     7
100
AcDbVertex
100
AcDb2dVertex
 10
66.76307794391947
 20
29.72675650450262
 30
0.0
  0
VERTEX
  5
480
330
472
100
AcDbEntity
  8
DIBUJOS
 62
     7
100
AcDbVertex
100
AcDb2dVertex
 10
66.77763285842347
 20
29.80501548432402
 30
0.0
  0
VERTEX
  5
481
330
472
100
AcDbEntity
  8
DIBUJOS
 62
     7
100
AcDbVertex
100
AcDb2dVertex
 10
66.80213859844437
 20
30.05330439066686
 30
0.0
  0
VERTEX
  5
482
330
472
100
AcDbEntity
  8
DIBUJOS
 62
     7
100
AcDbVertex
100
AcDb2dVertex
 10
66.80826055476345
 20
30.15017978580001
 30
0.0
  0
VERTEX
  5
483
330
472
100
AcDbEntity
  8
DIBUJOS
 62
     7
100
AcDbVertex
100
AcDb2dVertex
 10
66.82666713904602
 20
30.67083189723711
 30
0.0
  0
VERTEX
  5
484
330
472
100
AcDbEntity
  8
DIBUJOS
 62
     7
100
AcDbVertex
100
AcDb2dVertex
 10
66.83267672106781
 20
31.02177494250372
 30
0.0
  0
VERTEX
  5
485
330
472
100
AcDbEntity
  8
DIBUJOS
 62
     7
100
AcDbVertex
100
AcDb2dVertex
 10
66.83568965514327
 20
32.58303417919807
 30
0.0
  0
VERTEX
  5
486
330
472
100
AcDbEntity
  8
DIBUJOS
 62
     7
100
AcDbVertex
100
AcDb2dVertex
 10
66.86473433963228
 20
32.61994777820484
 30
0.0
  0
VERTEX
  5
487
330
472
100
AcDbEntity
  8
DIBUJOS
 62
     7
100
AcDbVertex
100
AcDb2dVertex
 10
66.88623366002808
 20
32.67932323054245
 30
0.0
  0
VERTEX
  5
488
330
472
100
AcDbEntity
  8
DIBUJOS
 62
     7
100
AcDbVertex
100
AcDb2dVertex
 10
66.89880655249608
 20
32.75214875791524
 30
0.0
  0
VERTEX
  5
489
330
472
100
AcDbEntity
  8
DIBUJOS
 62
     7
100
AcDbVertex
100
AcDb2dVertex
 10
66.91435329232584
 20
32.83719466709834
 30
0.0
  0
VERTEX
  5
48A
330
472
100
AcDbEntity
  8
DIBUJOS
 62
     7
100
AcDbVertex
100
AcDb2dVertex
 10
66.91435329232584
 20
33.06714892889313
 30
0.0
  0
VERTEX
  5
48B
330
472
100
AcDbEntity
  8
DIBUJOS
 62
     7
100
AcDbVertex
100
AcDb2dVertex
 10
66.90557343956775
 20
33.13346766893693
 30
0.0
  0
VERTEX
  5
48C
330
472
100
AcDbEntity
  8
DIBUJOS
 62
     7
100
AcDbVertex
100
AcDb2dVertex
 10
66.88833294220395
 20
33.18757254210143
 30
0.0
  0
VERTEX
  5
48D
330
472
100
AcDbEntity
  8
DIBUJOS
 62
     7
100
AcDbVertex
100
AcDb2dVertex
 10
66.8798625259182
 20
33.21904128753051
 30
0.0
  0
VERTEX
  5
48E
330
472
100
AcDbEntity
  8
DIBUJOS
 62
     7
100
AcDbVertex
100
AcDb2dVertex
 10
66.81429782320602
 20
33.31544597889987
 30
0.0
  0
VERTEX
  5
48F
330
472
100
AcDbEntity
  8
DIBUJOS
 62
     7
100
AcDbVertex
100
AcDb2dVertex
 10
66.80867422246853
 20
33.39979153300084
 30
0.0
  0
VERTEX
  5
490
330
472
100
AcDbEntity
  8
DIBUJOS
 62
     7
100
AcDbVertex
100
AcDb2dVertex
 10
66.80846087416434
 20
33.50890522600502
 30
0.0
  0
VERTEX
  5
491
330
472
100
AcDbEntity
  8
DIBUJOS
 62
     7
100
AcDbVertex
100
AcDb2dVertex
 10
66.80277864335821
 20
33.58727821711783
 30
0.0
  0
VERTEX
  5
492
330
472
100
AcDbEntity
  8
DIBUJOS
 62
     7
100
AcDbVertex
100
AcDb2dVertex
 10
66.80059467330712
 20
33.59422964848729
 30
0.0
  0
VERTEX
  5
493
330
472
100
AcDbEntity
  8
DIBUJOS
 62
     7
100
AcDbVertex
100
AcDb2dVertex
 10
66.77518016722537
 20
33.62388235690209
 30
0.0
  0
VERTEX
  5
494
330
472
100
AcDbEntity
  8
DIBUJOS
 62
     7
100
AcDbVertex
100
AcDb2dVertex
 10
66.76973408530675
 20
33.62509250533461
 30
0.0
  0
VERTEX
  5
495
330
472
100
AcDbEntity
  8
DIBUJOS
 62
     7
100
AcDbVertex
100
AcDb2dVertex
 10
66.73282319996052
 20
33.6359838412216
 30
0.0
  0
VERTEX
  5
496
330
472
100
AcDbEntity
  8
DIBUJOS
 62
     7
100
AcDbVertex
100
AcDb2dVertex
 10
66.62995674477776
 20
33.6359838412216
 30
0.0
  0
VERTEX
  5
497
330
472
100
AcDbEntity
  8
DIBUJOS
 62
     7
100
AcDbVertex
100
AcDb2dVertex
 10
66.58154785155413
 20
33.61782998600974
 30
0.0
  0
VERTEX
  5
498
330
472
100
AcDbEntity
  8
DIBUJOS
 62
     7
100
AcDbVertex
100
AcDb2dVertex
 10
66.55915930845241
 20
33.58091638700362
 30
0.0
  0
VERTEX
  5
499
330
472
100
AcDbEntity
  8
DIBUJOS
 62
     7
100
AcDbVertex
100
AcDb2dVertex
 10
66.52103836363624
 20
33.49074974205961
 30
0.0
  0
SEQEND
  5
49A
330
472
100
AcDbEntity
  8
DIBUJOS
 62
     7
  0
POLYLINE
  5
49B
330
369
100
AcDbEntity
  8
DIBUJOS
 62
     7
100
AcDb2dPolyline
 66
     1
 10
0.0
 20
0.0
 30
0.0
  0
VERTEX
  5
49C
330
49B
100
AcDbEntity
  8
DIBUJOS
 62
     7
100
AcDbVertex
100
AcDb2dVertex
 10
66.53919088428928
 20
29.18212618954609
 30
0.0
  0
VERTEX
  5
49D
330
49B
100
AcDbEntity
  8
DIBUJOS
 62
     7
100
AcDbVertex
100
AcDb2dVertex
 10
66.55129310759519
 20
29.20028167349086
 30
0.0
  0
SEQEND
  5
49E
330
49B
100
AcDbEntity
  8
DIBUJOS
 62
     7
  0
POLYLINE
  5
49F
330
369
100
AcDbEntity
  8
DIBUJOS
 62
     7
100
AcDb2dPolyline
 66
     1
 10
0.0
 20
0.0
 30
0.0
  0
VERTEX
  5
4A0
330
49F
100
AcDbEntity
  8
DIBUJOS
 62
     7
100
AcDbVertex
100
AcDb2dVertex
 10
66.52103836363624
 20
29.14581847912237
 30
0.0
  0
VERTEX
  5
4A1
330
49F
100
AcDbEntity
  8
DIBUJOS
 62
     7
100
AcDbVertex
100
AcDb2dVertex
 10
66.5270886609821
 20
29.15792159217479
 30
0.0
  0
SEQEND
  5
4A2
330
49F
100
AcDbEntity
  8
DIBUJOS
 62
     7
  0
POLYLINE
  5
4A3
330
369
100
AcDbEntity
  8
DIBUJOS
 62
     7
100
AcDb2dPolyline
 66
     1
 10
0.0
 20
0.0
 30
0.0
  0
VERTEX
  5
4A4
330
4A3
100
AcDbEntity
  8
DIBUJOS
 62
     7
100
AcDbVertex
100
AcDb2dVertex
 10
62.60604648323336
 20
29.21238315781102
 30
0.0
  0
VERTEX
  5
4A5
330
4A3
100
AcDbEntity
  8
DIBUJOS
 62
     7
100
AcDbVertex
100
AcDb2dVertex
 10
62.64700610053195
 20
29.15698995704272
 30
0.0
  0
VERTEX
  5
4A6
330
4A3
100
AcDbEntity
  8
DIBUJOS
 62
     7
100
AcDbVertex
100
AcDb2dVertex
 10
62.698310667695
 20
29.08056493029568
 30
0.0
  0
VERTEX
  5
4A7
330
4A3
100
AcDbEntity
  8
DIBUJOS
 62
     7
100
AcDbVertex
100
AcDb2dVertex
 10
62.79834170761988
 20
28.96882409136948
 30
0.0
  0
VERTEX
  5
4A8
330
4A3
100
AcDbEntity
  8
DIBUJOS
 62
     7
100
AcDbVertex
100
AcDb2dVertex
 10
62.93186843140211
 20
28.84184971504751
 30
0.0
  0
VERTEX
  5
4A9
330
4A3
100
AcDbEntity
  8
DIBUJOS
 62
     7
100
AcDbVertex
100
AcDb2dVertex
 10
63.08951979975837
 20
28.74521374362821
 30
0.0
  0
VERTEX
  5
4AA
330
4A3
100
AcDbEntity
  8
DIBUJOS
 62
     7
100
AcDbVertex
100
AcDb2dVertex
 10
63.17609198173642
 20
28.69509112203367
 30
0.0
  0
VERTEX
  5
4AB
330
4A3
100
AcDbEntity
  8
DIBUJOS
 62
     7
100
AcDbVertex
100
AcDb2dVertex
 10
63.34978355966529
 20
28.64141297684958
 30
0.0
  0
VERTEX
  5
4AC
330
4A3
100
AcDbEntity
  8
DIBUJOS
 62
     7
100
AcDbVertex
100
AcDb2dVertex
 10
63.47166407178496
 20
28.60379576529551
 30
0.0
  0
VERTEX
  5
4AD
330
4A3
100
AcDbEntity
  8
DIBUJOS
 62
     7
100
AcDbVertex
100
AcDb2dVertex
 10
63.55568910300964
 20
28.59259497018537
 30
0.0
  0
VERTEX
  5
4AE
330
4A3
100
AcDbEntity
  8
DIBUJOS
 62
     7
100
AcDbVertex
100
AcDb2dVertex
 10
63.79219954211064
 20
28.56167836515847
 30
0.0
  0
VERTEX
  5
4AF
330
4A3
100
AcDbEntity
  8
DIBUJOS
 62
     7
100
AcDbVertex
100
AcDb2dVertex
 10
64.02789893193058
 20
28.54989448372472
 30
0.0
  0
VERTEX
  5
4B0
330
4A3
100
AcDbEntity
  8
DIBUJOS
 62
     7
100
AcDbVertex
100
AcDb2dVertex
 10
64.18535486672468
 20
28.54067422763726
 30
0.0
  0
VERTEX
  5
4B1
330
4A3
100
AcDbEntity
  8
DIBUJOS
 62
     7
100
AcDbVertex
100
AcDb2dVertex
 10
65.00828976540868
 20
28.54067422763726
 30
0.0
  0
VERTEX
  5
4B2
330
4A3
100
AcDbEntity
  8
DIBUJOS
 62
     7
100
AcDbVertex
100
AcDb2dVertex
 10
65.40748887291693
 20
28.56166696402939
 30
0.0
  0
VERTEX
  5
4B3
330
4A3
100
AcDbEntity
  8
DIBUJOS
 62
     7
100
AcDbVertex
100
AcDb2dVertex
 10
65.58885936120798
 20
28.58564191008365
 30
0.0
  0
VERTEX
  5
4B4
330
4A3
100
AcDbEntity
  8
DIBUJOS
 62
     7
100
AcDbVertex
100
AcDb2dVertex
 10
65.71589280490302
 20
28.60373061598558
 30
0.0
  0
VERTEX
  5
4B5
330
4A3
100
AcDbEntity
  8
DIBUJOS
 62
     7
100
AcDbVertex
100
AcDb2dVertex
 10
65.80036407609357
 20
28.62721042728433
 30
0.0
  0
VERTEX
  5
4B6
330
4A3
100
AcDbEntity
  8
DIBUJOS
 62
     7
100
AcDbVertex
100
AcDb2dVertex
 10
66.00730867453936
 20
28.69014466067732
 30
0.0
  0
VERTEX
  5
4B7
330
4A3
100
AcDbEntity
  8
DIBUJOS
 62
     7
100
AcDbVertex
100
AcDb2dVertex
 10
66.04394106706111
 20
28.70871872893794
 30
0.0
  0
VERTEX
  5
4B8
330
4A3
100
AcDbEntity
  8
DIBUJOS
 62
     7
100
AcDbVertex
100
AcDb2dVertex
 10
66.19488906425183
 20
28.79967530926444
 30
0.0
  0
VERTEX
  5
4B9
330
4A3
100
AcDbEntity
  8
DIBUJOS
 62
     7
100
AcDbVertex
100
AcDb2dVertex
 10
66.2654747808859
 20
28.84475700300354
 30
0.0
  0
VERTEX
  5
4BA
330
4A3
100
AcDbEntity
  8
DIBUJOS
 62
     7
100
AcDbVertex
100
AcDb2dVertex
 10
66.36513286843103
 20
28.9385589794413
 30
0.0
  0
VERTEX
  5
4BB
330
4A3
100
AcDbEntity
  8
DIBUJOS
 62
     7
100
AcDbVertex
100
AcDb2dVertex
 10
66.44387467903847
 20
29.01742547657735
 30
0.0
  0
VERTEX
  5
4BC
330
4A3
100
AcDbEntity
  8
DIBUJOS
 62
     7
100
AcDbVertex
100
AcDb2dVertex
 10
66.48323336974535
 20
29.06240944635155
 30
0.0
  0
VERTEX
  5
4BD
330
4A3
100
AcDbEntity
  8
DIBUJOS
 62
     7
100
AcDbVertex
100
AcDb2dVertex
 10
66.57410020424074
 20
29.18910856683824
 30
0.0
  0
VERTEX
  5
4BE
330
4A3
100
AcDbEntity
  8
DIBUJOS
 62
     7
100
AcDbVertex
100
AcDb2dVertex
 10
66.59365007486005
 20
29.21843552870337
 30
0.0
  0
SEQEND
  5
4BF
330
4A3
100
AcDbEntity
  8
DIBUJOS
 62
     7
  0
ENDBLK
  5
36C
330
369
100
AcDbEntity
  8
0
100
AcDbBlockEnd
  0
ENDSEC
  0
SECTION
  2
ENTITIES
  0
MTEXT
  5
41
330
1F
100
AcDbEntity
  8
REFERENCIAS
 62
   255
100
AcDbMText
 10
61.49114058334819
 20
54.85563098807646
 30
0.0
 40
1.49859999962535
 41
0.0
 71
     7
 72
     1
  1
\fMyriad Pro|b0|i0|c0|p34;\W1;PAUL_2327__CHAIR
  0
MTEXT
  5
43
330
1F
100
AcDbEntity
  8
M_U_00C1RGENES
 62
   255
100
AcDbMText
 10
90.1412840299956
 20
23.7555119243149
 30
0.0
 40
1.748366666229575
 41
0.0
 71
     7
 72
     1
  1
\fMyriad Pro|b0|i0|c0|p34;\W1;400
  0
MTEXT
  5
44
330
1F
100
AcDbEntity
  8
M_U_00C1RGENES
 62
   255
100
AcDbMText
 10
84.21176870148125
 20
20.50332059082737
 30
0.0
 40
1.748366666229575
 41
0.0
 71
     7
 72
     1
  1
\fMyriad Pro|b0|i0|c0|p34;\W1;400
  0
POLYLINE
  5
45
330
1F
100
AcDbEntity
  8
M_U_00C1RGENES
 62
   255
100
AcDb2dPolyline
 66
     1
 10
0.0
 20
0.0
 30
0.0
  0
VERTEX
  5
46
330
45
100
AcDbEntity
  8
M_U_00C1RGENES
 62
   255
100
AcDbVertex
100
AcDb2dVertex
 10
84.41666477502221
 20
24.76314475783758
 30
0.0
  0
VERTEX
  5
47
330
45
100
AcDbEntity
  8
M_U_00C1RGENES
 62
   255
100
AcDbVertex
100
AcDb2dVertex
 10
94.99999810570971
 20
19.74726776251925
 30
0.0
  0
SEQEND
  5
48
330
45
100
AcDbEntity
  8
M_U_00C1RGENES
 62
   255
  0
POLYLINE
  5
49
330
1F
100
AcDbEntity
  8
M_U_00C1RGENES
 62
   254
100
AcDb2dPolyline
 66
     1
 10
0.0
 20
0.0
 30
0.0
  0
VERTEX
  5
4A
330
49
100
AcDbEntity
  8
M_U_00C1RGENES
 62
   254
100
AcDbVertex
100
AcDb2dVertex
 10
54.99999767595828
 20
20.88258920325216
 30
0.0
  0
VERTEX
  5
4B
330
49
100
AcDbEntity
  8
M_U_00C1RGENES
 62
   254
100
AcDbVertex
100
AcDb2dVertex
 10
54.99999767595828
 20
19.74726776251925
 30
0.0
  0
SEQEND
  5
4C
330
49
100
AcDbEntity
  8
M_U_00C1RGENES
 62
   254
  0
POLYLINE
  5
4D
330
1F
100
AcDbEntity
  8
M_U_00C1RGENES
 62
   255
100
AcDb2dPolyline
 66
     1
 10
0.0
 20
0.0
 30
0.0
  0
VERTEX
  5
4E
330
4D
100
AcDbEntity
  8
M_U_00C1RGENES
 62
   255
100
AcDbVertex
100
AcDb2dVertex
 10
94.99999797321169
 20
59.74726768656564
 30
0.0
  0
VERTEX
  5
4F
330
4D
100
AcDbEntity
  8
M_U_00C1RGENES
 62
   255
100
AcDbVertex
100
AcDb2dVertex
 10
93.86467653247878
 20
59.74726768651462
 30
0.0
  0
SEQEND
  5
50
330
4D
100
AcDbEntity
  8
M_U_00C1RGENES
 62
   255
  0
INSERT
  5
53
330
1F
100
AcDbEntity
  8
DIBUJOS
100
AcDbBlockReference
  2
BLOCK_2
 10
0.0
 20
0.0
 30
0.0
  0
INSERT
  5
223
330
1F
100
AcDbEntity
  8
DIBUJOS
100
AcDbBlockReference
  2
BLOCK_3
 10
0.0
 20
0.0
 30
0.0
  0
INSERT
  5
36A
330
1F
100
AcDbEntity
  8
DIBUJOS
100
AcDbBlockReference
  2
BLOCK_4
 10
0.0
 20
0.0
 30
0.0
  0
POLYLINE
  5
4C1
330
1F
100
AcDbEntity
  8
COTAS_LINEA
 62
     7
100
AcDb2dPolyline
 66
     1
 10
0.0
 20
0.0
 30
0.0
  0
VERTEX
  5
4C2
330
4C1
100
AcDbEntity
  8
COTAS_LINEA
 62
     7
100
AcDbVertex
100
AcDb2dVertex
 10
85.03985403249483
 20
45.949318484247
 30
0.0
  0
VERTEX
  5
4C3
330
4C1
100
AcDbEntity
  8
COTAS_LINEA
 62
     7
100
AcDbVertex
100
AcDb2dVertex
 10
85.03985403380133
 20
42.33143791450131
 30
0.0
  0
SEQEND
  5
4C4
330
4C1
100
AcDbEntity
  8
COTAS_LINEA
 62
     7
  0
POLYLINE
  5
4C5
330
1F
100
AcDbEntity
  8
COTAS_LINEA
 62
     7
100
AcDb2dPolyline
 66
     1
 10
0.0
 20
0.0
 30
0.0
  0
VERTEX
  5
4C6
330
4C5
100
AcDbEntity
  8
COTAS_LINEA
 62
     7
100
AcDbVertex
100
AcDb2dVertex
 10
69.50282335947664
 20
50.41009516099765
 30
0.0
  0
VERTEX
  5
4C7
330
4C5
100
AcDbEntity
  8
COTAS_LINEA
 62
     7
100
AcDbVertex
100
AcDb2dVertex
 10
69.50282336078313
 20
42.33145573149524
 30
0.0
  0
SEQEND
  5
4C8
330
4C5
100
AcDbEntity
  8
COTAS_LINEA
 62
     7
  0
POLYLINE
  5
4C9
330
1F
100
AcDbEntity
  8
COTAS_LINEA
 62
     7
100
AcDb2dPolyline
 66
     1
 10
0.0
 20
0.0
 30
0.0
  0
VERTEX
  5
4CA
330
4C9
100
AcDbEntity
  8
COTAS_LINEA
 62
     7
100
AcDbVertex
100
AcDb2dVertex
 10
75.74015951016474
 20
38.66119575631178
 30
0.0
  0
VERTEX
  5
4CB
330
4C9
100
AcDbEntity
  8
COTAS_LINEA
 62
     7
100
AcDbVertex
100
AcDb2dVertex
 10
83.73114551263535
 20
38.66119575631178
 30
0.0
  0
SEQEND
  5
4CC
330
4C9
100
AcDbEntity
  8
COTAS_LINEA
 62
     7
  0
POLYLINE
  5
4CD
330
1F
100
AcDbEntity
  8
COTAS_LINEA
 62
     7
100
AcDb2dPolyline
 66
     1
 10
0.0
 20
0.0
 30
0.0
  0
VERTEX
  5
4CE
330
4CD
100
AcDbEntity
  8
COTAS_LINEA
 62
     7
100
AcDbVertex
100
AcDb2dVertex
 10
61.6045679580543
 20
38.66119575631178
 30
0.0
  0
VERTEX
  5
4CF
330
4CD
100
AcDbEntity
  8
COTAS_LINEA
 62
     7
100
AcDbVertex
100
AcDb2dVertex
 10
67.80351820943964
 20
38.66119575631178
 30
0.0
  0
SEQEND
  5
4D0
330
4CD
100
AcDbEntity
  8
COTAS_LINEA
 62
     7
  0
MTEXT
  5
4D2
330
1F
100
AcDbEntity
  8
COTAS_N_U_00DAMERO
 62
     7
100
AcDbMText
 10
85.79840742721305
 20
43.35631136340137
 30
0.0
 40
1.998533025814148
 41
0.0
 71
     7
 72
     1
  1
\fMyriad Pro|b0|i0|c0|p34;\W1;47
  0
MTEXT
  5
4D3
330
1F
100
AcDbEntity
  8
COTAS_N_U_00DAMERO
 62
     7
100
AcDbMText
 10
70.26136322384227
 20
44.06186691878055
 30
0.0
 40
1.998533025814148
 41
0.0
 71
     7
 72
     1
  1
\fMyriad Pro|b0|i0|c0|p34;\W1;80
  0
MTEXT
  5
4D4
330
1F
100
AcDbEntity
  8
COTAS_N_U_00DAMERO
 62
     7
100
AcDbMText
 10
78.15890818867155
 20
39.21634011877664
 30
0.0
 40
1.998533025814148
 41
0.0
 71
     7
 72
     1
  1
\fMyriad Pro|b0|i0|c0|p34;\W1;51
  0
MTEXT
  5
4D5
330
1F
100
AcDbEntity
  8
COTAS_N_U_00DAMERO
 62
     7
100
AcDbMText
 10
63.19843032104664
 20
39.21616786400239
 30
0.0
 40
1.998533025814148
 41
0.0
 71
     7
 72
     1
  1
\fMyriad Pro|b0|i0|c0|p34;\W1;46
  0
ENDSEC
  0
SECTION
  2
OBJECTS
  0
DICTIONARY
  5
C
330
0
100
AcDbDictionary
  3
ACAD_GROUP
350
D
  3
ACAD_LAYOUT
350
1A
  3
ACAD_MATERIAL
350
3B
  3
ACAD_MLEADERSTYLE
350
4FA
  3
ACAD_MLINESTYLE
350
17
  3
ACAD_PLOTSETTINGS
350
19
  3
ACAD_VISUALSTYLE
350
2A
  3
ACDBHEADERROUNDTRIPXREC
350
4D8
  3
ACDBVARIABLEDICTIONARY
350
4F8
  0
DICTIONARY
  5
D
102
{ACAD_REACTORS
330
C
102
}
330
C
100
AcDbDictionary
  0
DICTIONARY
  5
1A
102
{ACAD_REACTORS
330
C
102
}
330
C
100
AcDbDictionary
  0
DICTIONARY
  5
3B
102
{ACAD_REACTORS
330
C
102
}
330
C
100
AcDbDictionary
  3
BYBLOCK
350
3D
  3
BYLAYER
350
3C
  3
GLOBAL
350
3E
  0
DICTIONARY
  5
4FA
102
{ACAD_REACTORS
330
C
102
}
330
C
100
AcDbDictionary
  0
DICTIONARY
  5
17
102
{ACAD_REACTORS
330
C
102
}
330
C
100
AcDbDictionary
  3
STANDARD
350
18
  0
DICTIONARY
  5
19
102
{ACAD_REACTORS
330
C
102
}
330
C
100
AcDbDictionary
  0
DICTIONARY
  5
2A
102
{ACAD_REACTORS
330
C
102
}
330
C
100
AcDbDictionary
  3
2DWIREFRAME
350
2F
  3
3D_HIDDEN
350
31
  3
3DWIREFRAME
350
30
  3
BASIC
350
32
  3
BRIGHTEN
350
36
  3
COLORCHANGE
350
3A
  3
CONCEPTUAL
350
34
  3
DIM
350
35
  3
FACEPATTERN
350
39
  3
FLAT
350
2B
  3
FLATWITHEDGES
350
2C
  3
GOURAUD
350
2D
  3
GOURAUDWITHEDGES
350
2E
  3
LINEPATTERN
350
38
  3
REALISTIC
350
33
  3
THICKEN
350
37
  0
DICTIONARY
  5
4D8
102
{ACAD_REACTORS
330
C
102
}
330
C
100
AcDbDictionary
  3
CEPSNTYPE
350
4E1
  3
DIMSTYLEDATA
350
4F7
  3
FINGERPRINTGUID
350
4E2
  3
HYPERLINKBASE
350
4DB
  3
INSUNITS
350
4E0
  3
LAYOUTDICT
350
4DD
  3
LWETCUNION
350
4DF
  3
PLOTSETDICT
350
4DE
  3
PSVPSCALE
350
4E4
  3
PUCSBASE
350
4E7
  3
PUCSORGBACK
350
4ED
  3
PUCSORGBOTTOM
350
4E9
  3
PUCSORGFRONT
350
4EC
  3
PUCSORGLEFT
350
4EA
  3
PUCSORGRIGHT
350
4EB
  3
PUCSORGTOP
350
4E8
  3
PUCSORTHOREF
350
4E5
  3
PUCSORTHOVIEW
350
4E6
  3
STYLESHEET
350
4DC
  3
TSTACKALIGN
350
4D9
  3
TSTACKSIZE
350
4DA
  3
UCSBASE
350
4F0
  3
UCSORGBACK
350
4F6
  3
UCSORGBOTTOM
350
4F2
  3
UCSORGFRONT
350
4F5
  3
UCSORGLEFT
350
4F3
  3
UCSORGRIGHT
350
4F4
  3
UCSORGTOP
350
4F1
  3
UCSORTHOREF
350
4EE
  3
UCSORTHOVIEW
350
4EF
  3
VERSIONGUID
350
4E3
  0
DICTIONARY
  5
4F8
102
{ACAD_REACTORS
330
C
102
}
330
C
100
AcDbDictionary
  3
DIMASSOC
350
4FB
  3
HIDETEXT
350
4FC
  0
MATERIAL
  5
3D
102
{ACAD_REACTORS
330
3B
102
}
102
{ACAD_XDICTIONARY
360
4FF
102
}
330
3B
100
AcDbMaterial
  1
ByBlock
  0
MATERIAL
  5
3C
102
{ACAD_REACTORS
330
3B
102
}
102
{ACAD_XDICTIONARY
360
4FD
102
}
330
3B
100
AcDbMaterial
  1
ByLayer
  0
MATERIAL
  5
3E
102
{ACAD_REACTORS
330
3B
102
}
102
{ACAD_XDICTIONARY
360
501
102
}
330
3B
100
AcDbMaterial
  1
Global
  0
MLINESTYLE
  5
18
102
{ACAD_REACTORS
330
17
102
}
330
17
100
AcDbMlineStyle
  2
Standard
 70
     0
  3

 62
   256
 51
90.0
 52
90.0
 71
     2
 49
0.5
 62
   256
  6
BYLAYER
 49
-0.5
 62
   256
  6
BYLAYER
  0
ACAD_PROXY_OBJECT
  5
2F
102
{ACAD_REACTORS
330
2A
102
}
330
2A
100
AcDbProxyObject
 90
      499
 91
      501
 93
      436
310
42CC9915DA5C99599C985B595049028333333333333E3BF0000000000000FB0107901411070040501600405405064090741402480A0340
1001
ACAD
1000
AcDbSavedByObjectVersion
1070
     0
  0
ACAD_PROXY_OBJECT
  5
31
102
{ACAD_REACTORS
330
2A
102
}
330
2A
100
AcDbProxyObject
 90
      499
 91
      501
 93
      500
310
424CD108121A5919195B90640502408333333333333E3BF0000000000000FB01079024090700405020000000000001110200405405064090740C02480A0340
1001
ACAD
1000
AcDbSavedByObjectVersion
1070
     0
  0
ACAD_PROXY_OBJECT
  5
30
102
{ACAD_REACTORS
330
2A
102
}
330
2A
100
AcDbProxyObject
 90
      499
 91
      501
 93
      436
310
42CCD915DA5C99599C985B595059028333333333333E3BF0000000000000FB0107901411070040501600405405064090741402480A0340
1001
ACAD
1000
AcDbSavedByObjectVersion
1070
     0
  0
ACAD_PROXY_OBJECT
  5
32
102
{ACAD_REACTORS
330
2A
102
}
330
2A
100
AcDbProxyObject
 90
      499
 91
      501
 93
      388
310
4150985CDA58D07406404333333333333E3BF0000000000000FB0107A41107004050150841D405064090741402480A0350
1001
ACAD
1000
AcDbSavedByObjectVersion
1070
     0
  0
ACAD_PROXY_OBJECT
  5
36
102
{ACAD_REACTORS
330
2A
102
}
330
2A
100
AcDbProxyObject
 90
      499
 91
      501
 93
      428
310
42109C9A59DA1D195B90C409028333333333333E3BF0000000000000FB010790141107004050150841D405064090741402480A029950
1001
ACAD
1000
AcDbSavedByObjectVersion
1070
     0
  0
ACAD_PROXY_OBJECT
  5
3A
102
{ACAD_REACTORS
330
2A
102
}
330
2A
100
AcDbProxyObject
 90
      499
 91
      501
 93
      452
310
42D0DBDB1BDC90DA185B99D95104090240C333333333333E3BF0000000000000FB0108901411070040501508421405064090741402480A0350
1001
ACAD
1000
AcDbSavedByObjectVersion
1070
     0
  0
ACAD_PROXY_OBJECT
  5
34
102
{ACAD_REACTORS
330
2A
102
}
330
2A
100
AcDbProxyObject
 90
      499
 91
      501
 93
      500
310
4290DBDB98D95C1D1D585B10940D028333333333333E3BF0000000000000FB0107902409070040501000000000000111010841D405064090740C02480A0340
1001
ACAD
1000
AcDbSavedByObjectVersion
1070
     0
  0
ACAD_PROXY_OBJECT
  5
35
102
{ACAD_REACTORS
330
2A
102
}
330
2A
100
AcDbProxyObject
 90
      499
 91
      501
 93
      412
310
40D11A5B50B409028333333333333E3BF0000000000000FB010790141107004050150841D405064090741402480A02677FFFFFD0
1001
ACAD
1000
AcDbSavedByObjectVersion
1070
     0
  0
ACAD_PROXY_OBJECT
  5
39
102
{ACAD_REACTORS
330
2A
102
}
330
2A
100
AcDbProxyObject
 90
      499
 91
      501
 93
      444
310
42D19858D95C185D1D195C9B90F409028333333333333E3BF0000000000000FB010790141107004050150841D405064090741402480A0350
1001
ACAD
1000
AcDbSavedByObjectVersion
1070
     0
  0
ACAD_PROXY_OBJECT
  5
2B
102
{ACAD_REACTORS
330
2A
102
}
330
2A
100
AcDbProxyObject
 90
      499
 91
      501
 93
      388
310
41119B185D240901404333333333333E3BF0000000000000F9010740A41107004050150841D405064090741402480A1B50
1001
ACAD
1000
AcDbSavedByObjectVersion
1070
     0
  0
ACAD_PROXY_OBJECT
  5
2C
102
{ACAD_REACTORS
330
2A
102
}
330
2A
100
AcDbProxyObject
 90
      499
 91
      501
 93
      476
310
43519B185D15DA5D1A115919D95CD0140901404333333333333E3BF0000000000000F9010740901411070040501600405405064090741402480A1B50
1001
ACAD
1000
AcDbSavedByObjectVersion
1070
     0
  0
ACAD_PROXY_OBJECT
  5
2D
102
{ACAD_REACTORS
330
2A
102
}
330
2A
100
AcDbProxyObject
 90
      499
 91
      501
 93
      412
310
41D1DBDD5C985D5910240902404333333333333E3BF0000000000000F9010740A411070040501641D405064090741402480A1B50
1001
ACAD
1000
AcDbSavedByObjectVersion
1070
     0
  0
ACAD_PROXY_OBJECT
  5
2E
102
{ACAD_REACTORS
330
2A
102
}
330
2A
100
AcDbProxyObject
 90
      499
 91
      501
 93
      500
310
4411DBDD5C985D5915DA5D1A115919D95CD0340902404333333333333E3BF0000000000000F9010740901411070040501600405405064090741402480A1B50
1001
ACAD
1000
AcDbSavedByObjectVersion
1070
     0
  0
ACAD_PROXY_OBJECT
  5
38
102
{ACAD_REACTORS
330
2A
102
}
330
2A
100
AcDbProxyObject
 90
      499
 91
      501
 93
      444
310
42D31A5B995C185D1D195C9B90E409028333333333333E3BF0000000000000FB010790141107004050750841D405064090741402483A0350
1001
ACAD
1000
AcDbSavedByObjectVersion
1070
     0
  0
ACAD_PROXY_OBJECT
  5
33
102
{ACAD_REACTORS
330
2A
102
}
330
2A
100
AcDbProxyObject
 90
      499
 91
      501
 93
      420
310
425499585B1A5CDD1A58D08409028333333333333E3BF0000000000000FB01079019070040501508421405064090741402480A1B40
1001
ACAD
1000
AcDbSavedByObjectVersion
1070
     0
  0
ACAD_PROXY_OBJECT
  5
37
102
{ACAD_REACTORS
330
2A
102
}
330
2A
100
AcDbProxyObject
 90
      499
 91
      501
 93
      412
310
41D51A1A58DAD95B90D409028333333333333E3BF0000000000000FB010790141107004050150C41D405064090741402480A0350
1001
ACAD
1000
AcDbSavedByObjectVersion
1070
     0
  0
XRECORD
  5
4E1
102
{ACAD_REACTORS
330
4D8
102
}
330
4D8
100
AcDbXrecord
 90
        0
  0
XRECORD
  5
4F7
102
{ACAD_REACTORS
330
4D8
102
}
330
4D8
100
AcDbXrecord
1000
DSTYLE
1002
{
1070
   340
340
11
1002
}
  0
XRECORD
  5
4E2
102
{ACAD_REACTORS
330
4D8
102
}
330
4D8
100
AcDbXrecord
  1
{36CC9E17-557F-4374-9EF2-5ADFAFC5D6EE}
  0
XRECORD
  5
4DB
102
{ACAD_REACTORS
330
4D8
102
}
330
4D8
100
AcDbXrecord
  1

  0
XRECORD
  5
4E0
102
{ACAD_REACTORS
330
4D8
102
}
330
4D8
100
AcDbXrecord
 90
        1
  0
XRECORD
  5
4DD
102
{ACAD_REACTORS
330
4D8
102
}
330
4D8
100
AcDbXrecord
340
1A
  0
XRECORD
  5
4DF
102
{ACAD_REACTORS
330
4D8
102
}
330
4D8
100
AcDbXrecord
 90
    10269
  0
XRECORD
  5
4DE
102
{ACAD_REACTORS
330
4D8
102
}
330
4D8
100
AcDbXrecord
340
19
  0
XRECORD
  5
4E4
102
{ACAD_REACTORS
330
4D8
102
}
330
4D8
100
AcDbXrecord
 40
0.0
  0
XRECORD
  5
4E7
102
{ACAD_REACTORS
330
4D8
102
}
330
4D8
100
AcDbXrecord
340
0
  0
XRECORD
  5
4ED
102
{ACAD_REACTORS
330
4D8
102
}
330
4D8
100
AcDbXrecord
 10
0.0
 20
0.0
 30
0.0
  0
XRECORD
  5
4E9
102
{ACAD_REACTORS
330
4D8
102
}
330
4D8
100
AcDbXrecord
 10
0.0
 20
0.0
 30
0.0
  0
XRECORD
  5
4EC
102
{ACAD_REACTORS
330
4D8
102
}
330
4D8
100
AcDbXrecord
 10
0.0
 20
0.0
 30
0.0
  0
XRECORD
  5
4EA
102
{ACAD_REACTORS
330
4D8
102
}
330
4D8
100
AcDbXrecord
 10
0.0
 20
0.0
 30
0.0
  0
XRECORD
  5
4EB
102
{ACAD_REACTORS
330
4D8
102
}
330
4D8
100
AcDbXrecord
 10
0.0
 20
0.0
 30
0.0
  0
XRECORD
  5
4E8
102
{ACAD_REACTORS
330
4D8
102
}
330
4D8
100
AcDbXrecord
 10
0.0
 20
0.0
 30
0.0
  0
XRECORD
  5
4E5
102
{ACAD_REACTORS
330
4D8
102
}
330
4D8
100
AcDbXrecord
340
0
  0
XRECORD
  5
4E6
102
{ACAD_REACTORS
330
4D8
102
}
330
4D8
100
AcDbXrecord
 70
     0
  0
XRECORD
  5
4DC
102
{ACAD_REACTORS
330
4D8
102
}
330
4D8
100
AcDbXrecord
  1

  0
XRECORD
  5
4D9
102
{ACAD_REACTORS
330
4D8
102
}
330
4D8
100
AcDbXrecord
 90
        1
  0
XRECORD
  5
4DA
102
{ACAD_REACTORS
330
4D8
102
}
330
4D8
100
AcDbXrecord
 90
       70
  0
XRECORD
  5
4F0
102
{ACAD_REACTORS
330
4D8
102
}
330
4D8
100
AcDbXrecord
340
0
  0
XRECORD
  5
4F6
102
{ACAD_REACTORS
330
4D8
102
}
330
4D8
100
AcDbXrecord
 10
0.0
 20
0.0
 30
0.0
  0
XRECORD
  5
4F2
102
{ACAD_REACTORS
330
4D8
102
}
330
4D8
100
AcDbXrecord
 10
0.0
 20
0.0
 30
0.0
  0
XRECORD
  5
4F5
102
{ACAD_REACTORS
330
4D8
102
}
330
4D8
100
AcDbXrecord
 10
0.0
 20
0.0
 30
0.0
  0
XRECORD
  5
4F3
102
{ACAD_REACTORS
330
4D8
102
}
330
4D8
100
AcDbXrecord
 10
0.0
 20
0.0
 30
0.0
  0
XRECORD
  5
4F4
102
{ACAD_REACTORS
330
4D8
102
}
330
4D8
100
AcDbXrecord
 10
0.0
 20
0.0
 30
0.0
  0
XRECORD
  5
4F1
102
{ACAD_REACTORS
330
4D8
102
}
330
4D8
100
AcDbXrecord
 10
0.0
 20
0.0
 30
0.0
  0
XRECORD
  5
4EE
102
{ACAD_REACTORS
330
4D8
102
}
330
4D8
100
AcDbXrecord
340
0
  0
XRECORD
  5
4EF
102
{ACAD_REACTORS
330
4D8
102
}
330
4D8
100
AcDbXrecord
 70
     0
  0
XRECORD
  5
4E3
102
{ACAD_REACTORS
330
4D8
102
}
330
4D8
100
AcDbXrecord
  1
{FAEB1C32-E019-11D5-929B-00C0DF256EC4}
  0
DICTIONARYVAR
  5
4FB
102
{ACAD_REACTORS
330
4F8
102
}
330
4F8
100
DictionaryVariables
280
     0
  1
2
  0
DICTIONARYVAR
  5
4FC
102
{ACAD_REACTORS
330
4F8
102
}
330
4F8
100
DictionaryVariables
280
     0
  1
1
  0
DICTIONARY
  5
4FF
330
3D
100
AcDbDictionary
280
     1
  3
ACAD_XREC_ROUNDTRIP
360
500
  0
DICTIONARY
  5
4FD
330
3C
100
AcDbDictionary
280
     1
  3
ACAD_XREC_ROUNDTRIP
360
4FE
  0
DICTIONARY
  5
501
330
3E
100
AcDbDictionary
280
     1
  3
ACAD_XREC_ROUNDTRIP
360
502
  0
XRECORD
  5
500
102
{ACAD_REACTORS
330
4FF
102
}
330
4FF
100
AcDbXrecord
102
MATERIAL
148
0.0
149
0.0
149
0.0
 93
        0
 94
      127
282
     0
 72
     1
 77
     1
171
     1
175
     1
179
     1
273
     0
  0
XRECORD
  5
4FE
102
{ACAD_REACTORS
330
4FD
102
}
330
4FD
100
AcDbXrecord
102
MATERIAL
148
0.0
149
0.0
149
0.0
 93
        0
 94
      127
282
     0
 72
     1
 77
     1
171
     1
175
     1
179
     1
273
     0
  0
XRECORD
  5
502
102
{ACAD_REACTORS
330
501
102
}
330
501
100
AcDbXrecord
102
MATERIAL
148
0.0
149
0.0
149
0.0
 93
        0
 94
      127
282
     0
 72
     1
 77
     1
171
     1
175
     1
179
     1
273
     0
  0
ENDSEC
  0
EOF
