  0
SECTION
  2
HEADER
  9
$ACADVER
  1
AC1014
  9
$ACADMAINTVER
 70
     9
  9
$DWGCODEPAGE
  3
ANSI_1252
  9
$INSBASE
 10
0.0
 20
0.0
 30
0.0
  9
$EXTMIN
 10
1.000000000000000E+20
 20
1.000000000000000E+20
 30
1.000000000000000E+20
  9
$EXTMAX
 10
-1.000000000000000E+20
 20
-1.000000000000000E+20
 30
-1.000000000000000E+20
  9
$LIMMIN
 10
0.0
 20
0.0
  9
$LIMMAX
 10
12.0
 20
9.0
  9
$ORTHOMODE
 70
     0
  9
$REGENMODE
 70
     1
  9
$FILLMODE
 70
     1
  9
$QTEXTMODE
 70
     0
  9
$MIRRTEXT
 70
     1
  9
$DRAGMODE
 70
     2
  9
$LTSCALE
 40
1.0
  9
$OSMODE
 70
    37
  9
$ATTMODE
 70
     1
  9
$TEXTSIZE
 40
0.2
  9
$TRACEWID
 40
0.05
  9
$TEXTSTYLE
  7
STANDARD
  9
$CLAYER
  8
0
  9
$CELTYPE
  6
BYLAYER
  9
$CECOLOR
 62
   256
  9
$CELTSCALE
 40
1.0
  9
$DELOBJ
 70
     1
  9
$DISPSILH
 70
     0
  9
$DIMSCALE
 40
1.0
  9
$DIMASZ
 40
0.18
  9
$DIMEXO
 40
0.0625
  9
$DIMDLI
 40
0.38
  9
$DIMRND
 40
0.0
  9
$DIMDLE
 40
0.0
  9
$DIMEXE
 40
0.18
  9
$DIMTP
 40
0.0
  9
$DIMTM
 40
0.0
  9
$DIMTXT
 40
0.18
  9
$DIMCEN
 40
0.09
  9
$DIMTSZ
 40
0.0
  9
$DIMTOL
 70
     0
  9
$DIMLIM
 70
     0
  9
$DIMTIH
 70
     1
  9
$DIMTOH
 70
     1
  9
$DIMSE1
 70
     0
  9
$DIMSE2
 70
     0
  9
$DIMTAD
 70
     0
  9
$DIMZIN
 70
     0
  9
$DIMBLK
  1

  9
$DIMASO
 70
     1
  9
$DIMSHO
 70
     1
  9
$DIMPOST
  1

  9
$DIMAPOST
  1

  9
$DIMALT
 70
     0
  9
$DIMALTD
 70
     2
  9
$DIMALTF
 40
25.4
  9
$DIMLFAC
 40
1.0
  9
$DIMTOFL
 70
     0
  9
$DIMTVP
 40
0.0
  9
$DIMTIX
 70
     0
  9
$DIMSOXD
 70
     0
  9
$DIMSAH
 70
     0
  9
$DIMBLK1
  1

  9
$DIMBLK2
  1

  9
$DIMSTYLE
  2
STANDARD
  9
$DIMCLRD
 70
     0
  9
$DIMCLRE
 70
     0
  9
$DIMCLRT
 70
     0
  9
$DIMTFAC
 40
1.0
  9
$DIMGAP
 40
0.09
  9
$DIMJUST
 70
     0
  9
$DIMSD1
 70
     0
  9
$DIMSD2
 70
     0
  9
$DIMTOLJ
 70
     1
  9
$DIMTZIN
 70
     0
  9
$DIMALTZ
 70
     0
  9
$DIMALTTZ
 70
     0
  9
$DIMFIT
 70
     3
  9
$DIMUPT
 70
     0
  9
$DIMUNIT
 70
     2
  9
$DIMDEC
 70
     4
  9
$DIMTDEC
 70
     4
  9
$DIMALTU
 70
     2
  9
$DIMALTTD
 70
     2
  9
$DIMTXSTY
  7
STANDARD
  9
$DIMAUNIT
 70
     0
  9
$LUNITS
 70
     2
  9
$LUPREC
 70
     4
  9
$SKETCHINC
 40
0.1
  9
$FILLETRAD
 40
0.5
  9
$AUNITS
 70
     0
  9
$AUPREC
 70
     0
  9
$MENU
  1
.
  9
$ELEVATION
 40
0.0
  9
$PELEVATION
 40
0.0
  9
$THICKNESS
 40
0.0
  9
$LIMCHECK
 70
     0
  9
$CHAMFERA
 40
0.5
  9
$CHAMFERB
 40
0.5
  9
$CHAMFERC
 40
1.0
  9
$CHAMFERD
 40
0.0
  9
$SKPOLY
 70
     0
  9
$TDCREATE
 40
2460493.519967836
  9
$TDUPDATE
 40
2460493.519967951
  9
$TDINDWG
 40
0.0000000116
  9
$TDUSRTIMER
 40
0.0000000116
  9
$USRTIMER
 70
     1
  9
$ANGBASE
 50
0.0
  9
$ANGDIR
 70
     0
  9
$PDMODE
 70
     0
  9
$PDSIZE
 40
0.0
  9
$PLINEWID
 40
0.0
  9
$COORDS
 70
     1
  9
$SPLFRAME
 70
     0
  9
$SPLINETYPE
 70
     6
  9
$SPLINESEGS
 70
     8
  9
$ATTDIA
 70
     0
  9
$ATTREQ
 70
     1
  9
$HANDLING
 70
     1
  9
$HANDSEED
  5
502
  9
$SURFTAB1
 70
     6
  9
$SURFTAB2
 70
     6
  9
$SURFTYPE
 70
     6
  9
$SURFU
 70
     6
  9
$SURFV
 70
     6
  9
$UCSNAME
  2

  9
$UCSORG
 10
0.0
 20
0.0
 30
0.0
  9
$UCSXDIR
 10
1.0
 20
0.0
 30
0.0
  9
$UCSYDIR
 10
0.0
 20
1.0
 30
0.0
  9
$PUCSNAME
  2

  9
$PUCSORG
 10
0.0
 20
0.0
 30
0.0
  9
$PUCSXDIR
 10
1.0
 20
0.0
 30
0.0
  9
$PUCSYDIR
 10
0.0
 20
1.0
 30
0.0
  9
$USERI1
 70
     0
  9
$USERI2
 70
     0
  9
$USERI3
 70
     0
  9
$USERI4
 70
     0
  9
$USERI5
 70
     0
  9
$USERR1
 40
0.0
  9
$USERR2
 40
0.0
  9
$USERR3
 40
0.0
  9
$USERR4
 40
0.0
  9
$USERR5
 40
0.0
  9
$WORLDVIEW
 70
     1
  9
$SHADEDGE
 70
     3
  9
$SHADEDIF
 70
    70
  9
$TILEMODE
 70
     1
  9
$MAXACTVP
 70
    64
  9
$PINSBASE
 10
0.0
 20
0.0
 30
0.0
  9
$PLIMCHECK
 70
     0
  9
$PEXTMIN
 10
1.000000000000000E+20
 20
1.000000000000000E+20
 30
1.000000000000000E+20
  9
$PEXTMAX
 10
-1.000000000000000E+20
 20
-1.000000000000000E+20
 30
-1.000000000000000E+20
  9
$PLIMMIN
 10
0.0
 20
0.0
  9
$PLIMMAX
 10
12.0
 20
9.0
  9
$UNITMODE
 70
     0
  9
$VISRETAIN
 70
     1
  9
$PLINEGEN
 70
     0
  9
$PSLTSCALE
 70
     1
  9
$TREEDEPTH
 70
  3020
  9
$PICKSTYLE
 70
     1
  9
$CMLSTYLE
  2
STANDARD
  9
$CMLJUST
 70
     0
  9
$CMLSCALE
 40
1.0
  9
$PROXYGRAPHICS
 70
     1
  9
$MEASUREMENT
 70
     0
  0
ENDSEC
  0
SECTION
  2
CLASSES
  0
CLASS
  1
ACDBDICTIONARYWDFLT
  2
AcDbDictionaryWithDefault
  3
ObjectDBX Classes
 90
        0
280
     0
281
     0
  0
CLASS
  1
VISUALSTYLE
  2
AcDbVisualStyle
  3
ObjectDBX Classes
 90
     4095
280
     0
281
     0
  0
CLASS
  1
MATERIAL
  2
AcDbMaterial
  3
ObjectDBX Classes
 90
     1153
280
     0
281
     0
  0
CLASS
  1
SUN
  2
AcDbSun
  3
SCENEOE
 90
     1024
280
     0
281
     0
  0
CLASS
  1
DICTIONARYVAR
  2
AcDbDictionaryVar
  3
ObjectDBX Classes
 90
        0
280
     0
281
     0
  0
CLASS
  1
XRECORD
  2
AcDbXrecord
  3
AutoCAD 2000
 90
        0
280
     0
281
     0
  0
CLASS
  1
LWPOLYLINE
  2
AcDbPolyline
  3
AutoCAD 2000
 90
        0
280
     0
281
     1
  0
CLASS
  1
HATCH
  2
AcDbHatch
  3
AutoCAD 2000
 90
        0
280
     0
281
     1
  0
CLASS
  1
ACDBPLACEHOLDER
  2
AcDbPlaceHolder
  3
ObjectDBX Classes
 90
        0
280
     0
281
     0
  0
CLASS
  1
LAYOUT
  2
AcDbLayout
  3
ObjectDBX Classes
 90
        0
280
     0
281
     0
  0
ENDSEC
  0
SECTION
  2
TABLES
  0
TABLE
  2
VPORT
  5
8
330
0
100
AcDbSymbolTable
 70
     1
  0
VPORT
  5
29
330
8
100
AcDbSymbolTableRecord
100
AcDbViewportTableRecord
  2
*ACTIVE
 70
     0
 10
0.0
 20
0.0
 11
1.0
 21
1.0
 12
0.0
 22
0.0
 13
0.0
 23
0.0
 14
0.5
 24
0.5
 15
0.5
 25
0.5
 16
0.0
 26
0.0
 36
1.0
 17
74.99999786197358
 27
39.74999886684608
 37
0.0
 40
39.99999998999989
 41
1.000000000000008
 42
50.0
 43
0.0
 44
0.0
 50
0.0
 51
0.0
 71
     0
 72
   100
 73
     1
 74
     3
 75
     0
 76
     0
 77
     0
 78
     0
  0
ENDTAB
  0
TABLE
  2
LTYPE
  5
5
330
0
100
AcDbSymbolTable
 70
     1
  0
LTYPE
  5
14
330
5
100
AcDbSymbolTableRecord
100
AcDbLinetypeTableRecord
  2
BYBLOCK
 70
     0
  3

 72
    65
 73
     0
 40
0.0
  0
LTYPE
  5
15
330
5
100
AcDbSymbolTableRecord
100
AcDbLinetypeTableRecord
  2
BYLAYER
 70
     0
  3

 72
    65
 73
     0
 40
0.0
  0
LTYPE
  5
16
330
5
100
AcDbSymbolTableRecord
100
AcDbLinetypeTableRecord
  2
CONTINUOUS
 70
     0
  3
Solid line
 72
    65
 73
     0
 40
0.0
  0
ENDTAB
  0
TABLE
  2
LAYER
  5
2
330
0
100
AcDbSymbolTable
 70
     6
  0
LAYER
  5
10
330
2
100
AcDbSymbolTableRecord
100
AcDbLayerTableRecord
  2
0
 70
     0
 62
     7
  6
CONTINUOUS
  0
LAYER
  5
40
330
2
100
AcDbSymbolTableRecord
100
AcDbLayerTableRecord
  2
REFERENCIAS
 70
     0
 62
     7
  6
CONTINUOUS
  0
LAYER
  5
42
330
2
100
AcDbSymbolTableRecord
100
AcDbLayerTableRecord
  2
M_U_00C1RGENES
 70
     0
 62
     7
  6
CONTINUOUS
  0
LAYER
  5
51
330
2
100
AcDbSymbolTableRecord
100
AcDbLayerTableRecord
  2
DIBUJOS
 70
     0
 62
     7
  6
CONTINUOUS
  0
LAYER
  5
4C1
330
2
100
AcDbSymbolTableRecord
100
AcDbLayerTableRecord
  2
COTAS_LINEA
 70
     0
 62
     7
  6
CONTINUOUS
  0
LAYER
  5
4D2
330
2
100
AcDbSymbolTableRecord
100
AcDbLayerTableRecord
  2
COTAS_N_U_00DAMERO
 70
     0
 62
     7
  6
CONTINUOUS
  0
ENDTAB
  0
TABLE
  2
STYLE
  5
3
330
0
100
AcDbSymbolTable
 70
     1
  0
STYLE
  5
11
330
3
100
AcDbSymbolTableRecord
100
AcDbTextStyleTableRecord
  2
STANDARD
 70
     0
 40
0.0
 41
1.0
 50
0.0
 71
     0
 42
0.2
  3
txt
  4

  0
ENDTAB
  0
TABLE
  2
VIEW
  5
6
330
0
100
AcDbSymbolTable
 70
     0
  0
ENDTAB
  0
TABLE
  2
UCS
  5
7
330
0
100
AcDbSymbolTable
 70
     0
  0
ENDTAB
  0
TABLE
  2
APPID
  5
9
330
0
100
AcDbSymbolTable
 70
     1
  0
APPID
  5
12
330
9
100
AcDbSymbolTableRecord
100
AcDbRegAppTableRecord
  2
ACAD
 70
     0
  0
ENDTAB
  0
TABLE
  2
DIMSTYLE
  5
A
330
0
100
AcDbSymbolTable
 70
     1
  0
DIMSTYLE
105
27
330
A
100
AcDbSymbolTableRecord
100
AcDbDimStyleTableRecord
  2
STANDARD
 70
     0
  3

  4

  5

  6

  7

 40
1.0
 41
0.18
 42
0.0625
 43
0.38
 44
0.18
 45
0.0
 46
0.0
 47
0.0
 48
0.0
140
0.18
141
0.09
142
0.0
143
25.4
144
1.0
145
0.0
146
1.0
147
0.09
 71
     0
 72
     0
 73
     1
 74
     1
 75
     0
 76
     0
 77
     0
 78
     0
170
     0
171
     2
172
     0
173
     0
174
     0
175
     0
176
     0
177
     0
178
     0
270
     2
271
     4
272
     4
273
     2
274
     2
340
11
275
     0
280
     0
281
     0
282
     0
283
     1
284
     0
285
     0
286
     0
287
     3
288
     0
  0
ENDTAB
  0
TABLE
  2
BLOCK_RECORD
  5
1
330
0
100
AcDbSymbolTable
 70
     4
  0
BLOCK_RECORD
  5
1F
330
1
100
AcDbSymbolTableRecord
100
AcDbBlockTableRecord
  2
*MODEL_SPACE
  0
BLOCK_RECORD
  5
1B
330
1
100
AcDbSymbolTableRecord
100
AcDbBlockTableRecord
  2
*PAPER_SPACE
  0
BLOCK_RECORD
  5
52
330
1
100
AcDbSymbolTableRecord
100
AcDbBlockTableRecord
  2
BLOCK_2
  0
BLOCK_RECORD
  5
1F9
330
1
100
AcDbSymbolTableRecord
100
AcDbBlockTableRecord
  2
BLOCK_3
  0
BLOCK_RECORD
  5
3B1
330
1
100
AcDbSymbolTableRecord
100
AcDbBlockTableRecord
  2
BLOCK_4
  0
ENDTAB
  0
ENDSEC
  0
SECTION
  2
BLOCKS
  0
BLOCK
  5
20
330
1F
100
AcDbEntity
  8
0
100
AcDbBlockBegin
  2
*MODEL_SPACE
 70
     0
 10
0.0
 20
0.0
 30
0.0
  3
*MODEL_SPACE
  1

  0
ENDBLK
  5
21
330
1F
100
AcDbEntity
  8
0
100
AcDbBlockEnd
  0
BLOCK
  5
1C
330
1B
100
AcDbEntity
 67
     1
  8
0
100
AcDbBlockBegin
  2
*PAPER_SPACE
 70
     0
 10
0.0
 20
0.0
 30
0.0
  3
*PAPER_SPACE
  1

  0
ENDBLK
  5
1D
330
1B
100
AcDbEntity
 67
     1
  8
0
100
AcDbBlockEnd
  0
BLOCK
  5
54
330
52
100
AcDbEntity
  8
0
100
AcDbBlockBegin
  2
BLOCK_2
 70
     0
 10
0.0
 20
0.0
 30
0.0
  3
BLOCK_2
  1

  0
POLYLINE
  5
56
330
52
100
AcDbEntity
  8
DIBUJOS
 62
     7
100
AcDb2dPolyline
 66
     1
 10
0.0
 20
0.0
 30
0.0
  0
VERTEX
  5
57
330
56
100
AcDbEntity
  8
DIBUJOS
 62
     7
100
AcDbVertex
100
AcDb2dVertex
 10
65.9983931096112
 20
46.67435722327513
 30
0.0
  0
VERTEX
  5
58
330
56
100
AcDbEntity
  8
DIBUJOS
 62
     7
100
AcDbVertex
100
AcDb2dVertex
 10
65.9318316957342
 20
46.71672019691198
 30
0.0
  0
SEQEND
  5
59
330
56
100
AcDbEntity
  8
DIBUJOS
 62
     7
  0
POLYLINE
  5
5A
330
52
100
AcDbEntity
  8
DIBUJOS
 62
     7
100
AcDb2dPolyline
 66
     1
 10
0.0
 20
0.0
 30
0.0
  0
VERTEX
  5
5B
330
5A
100
AcDbEntity
  8
DIBUJOS
 62
     7
100
AcDbVertex
100
AcDb2dVertex
 10
66.01654563026392
 20
46.66225491267377
 30
0.0
  0
VERTEX
  5
5C
330
5A
100
AcDbEntity
  8
DIBUJOS
 62
     7
100
AcDbVertex
100
AcDb2dVertex
 10
66.01049533291742
 20
46.66830769681869
 30
0.0
  0
SEQEND
  5
5D
330
5A
100
AcDbEntity
  8
DIBUJOS
 62
     7
  0
POLYLINE
  5
5E
330
52
100
AcDbEntity
  8
DIBUJOS
 62
     7
100
AcDb2dPolyline
 66
     1
 10
0.0
 20
0.0
 30
0.0
  0
VERTEX
  5
5F
330
5E
100
AcDbEntity
  8
DIBUJOS
 62
     7
100
AcDbVertex
100
AcDb2dVertex
 10
63.22098741939869
 20
46.63199424963828
 30
0.0
  0
VERTEX
  5
60
330
5E
100
AcDbEntity
  8
DIBUJOS
 62
     7
100
AcDbVertex
100
AcDb2dVertex
 10
63.34805832119325
 20
46.72277298105658
 30
0.0
  0
SEQEND
  5
61
330
5E
100
AcDbEntity
  8
DIBUJOS
 62
     7
  0
POLYLINE
  5
62
330
52
100
AcDbEntity
  8
DIBUJOS
 62
     7
100
AcDb2dPolyline
 66
     1
 10
0.0
 20
0.0
 30
0.0
  0
VERTEX
  5
63
330
62
100
AcDbEntity
  8
DIBUJOS
 62
     7
100
AcDbVertex
100
AcDb2dVertex
 10
67.87420026395618
 20
43.9389222893117
 30
0.0
  0
VERTEX
  5
64
330
62
100
AcDbEntity
  8
DIBUJOS
 62
     7
100
AcDbVertex
100
AcDb2dVertex
 10
67.95770413901691
 20
44.1029273296669
 30
0.0
  0
VERTEX
  5
65
330
62
100
AcDbEntity
  8
DIBUJOS
 62
     7
100
AcDbVertex
100
AcDb2dVertex
 10
68.07569878048496
 20
44.38615397461927
 30
0.0
  0
VERTEX
  5
66
330
62
100
AcDbEntity
  8
DIBUJOS
 62
     7
100
AcDbVertex
100
AcDb2dVertex
 10
68.14831049170843
 20
44.6040216269481
 30
0.0
  0
VERTEX
  5
67
330
62
100
AcDbEntity
  8
DIBUJOS
 62
     7
100
AcDbVertex
100
AcDb2dVertex
 10
68.22156061923349
 20
44.90075790368125
 30
0.0
  0
VERTEX
  5
68
330
62
100
AcDbEntity
  8
DIBUJOS
 62
     7
100
AcDbVertex
100
AcDb2dVertex
 10
68.25774025733676
 20
45.09435903873733
 30
0.0
  0
VERTEX
  5
69
330
62
100
AcDbEntity
  8
DIBUJOS
 62
     7
100
AcDbVertex
100
AcDb2dVertex
 10
68.30037734603964
 20
45.39709271892043
 30
0.0
  0
VERTEX
  5
6A
330
62
100
AcDbEntity
  8
DIBUJOS
 62
     7
100
AcDbVertex
100
AcDb2dVertex
 10
68.33680453332113
 20
45.76027931372813
 30
0.0
  0
VERTEX
  5
6B
330
62
100
AcDbEntity
  8
DIBUJOS
 62
     7
100
AcDbVertex
100
AcDb2dVertex
 10
68.37323986366748
 20
46.32320126993458
 30
0.0
  0
VERTEX
  5
6C
330
62
100
AcDbEntity
  8
DIBUJOS
 62
     7
100
AcDbVertex
100
AcDb2dVertex
 10
68.38541211733305
 20
46.72268176579498
 30
0.0
  0
VERTEX
  5
6D
330
62
100
AcDbEntity
  8
DIBUJOS
 62
     7
100
AcDbVertex
100
AcDb2dVertex
 10
68.38546097572359
 20
46.95884133576281
 30
0.0
  0
VERTEX
  5
6E
330
62
100
AcDbEntity
  8
DIBUJOS
 62
     7
100
AcDbVertex
100
AcDb2dVertex
 10
68.37950676654495
 20
47.34001688323315
 30
0.0
  0
VERTEX
  5
6F
330
62
100
AcDbEntity
  8
DIBUJOS
 62
     7
100
AcDbVertex
100
AcDb2dVertex
 10
68.37360793020848
 20
47.43671483359181
 30
0.0
  0
VERTEX
  5
70
330
62
100
AcDbEntity
  8
DIBUJOS
 62
     7
100
AcDbVertex
100
AcDb2dVertex
 10
68.34266916878421
 20
47.87298765675585
 30
0.0
  0
VERTEX
  5
71
330
62
100
AcDbEntity
  8
DIBUJOS
 62
     7
100
AcDbVertex
100
AcDb2dVertex
 10
68.3012795976495
 20
48.18090757609836
 30
0.0
  0
VERTEX
  5
72
330
62
100
AcDbEntity
  8
DIBUJOS
 62
     7
100
AcDbVertex
100
AcDb2dVertex
 10
68.26965030430729
 20
48.38756552431443
 30
0.0
  0
VERTEX
  5
73
330
62
100
AcDbEntity
  8
DIBUJOS
 62
     7
100
AcDbVertex
100
AcDb2dVertex
 10
68.16856392314897
 20
48.81617952319203
 30
0.0
  0
VERTEX
  5
74
330
62
100
AcDbEntity
  8
DIBUJOS
 62
     7
100
AcDbVertex
100
AcDb2dVertex
 10
68.09687726411738
 20
49.00976762749642
 30
0.0
  0
VERTEX
  5
75
330
62
100
AcDbEntity
  8
DIBUJOS
 62
     7
100
AcDbVertex
100
AcDb2dVertex
 10
67.99945689085357
 20
49.26394546931781
 30
0.0
  0
VERTEX
  5
76
330
62
100
AcDbEntity
  8
DIBUJOS
 62
     7
100
AcDbVertex
100
AcDb2dVertex
 10
67.89095706325618
 20
49.43912437921851
 30
0.0
  0
VERTEX
  5
77
330
62
100
AcDbEntity
  8
DIBUJOS
 62
     7
100
AcDbVertex
100
AcDb2dVertex
 10
67.81508649739196
 20
49.55597112932693
 30
0.0
  0
VERTEX
  5
78
330
62
100
AcDbEntity
  8
DIBUJOS
 62
     7
100
AcDbVertex
100
AcDb2dVertex
 10
67.75923158546816
 20
49.64581816200185
 30
0.0
  0
VERTEX
  5
79
330
62
100
AcDbEntity
  8
DIBUJOS
 62
     7
100
AcDbVertex
100
AcDb2dVertex
 10
67.42518677019252
 20
49.94087021408325
 30
0.0
  0
VERTEX
  5
7A
330
62
100
AcDbEntity
  8
DIBUJOS
 62
     7
100
AcDbVertex
100
AcDb2dVertex
 10
67.33505769739142
 20
49.98956287533735
 30
0.0
  0
VERTEX
  5
7B
330
62
100
AcDbEntity
  8
DIBUJOS
 62
     7
100
AcDbVertex
100
AcDb2dVertex
 10
67.10572455584327
 20
50.10575808786287
 30
0.0
  0
SEQEND
  5
7C
330
62
100
AcDbEntity
  8
DIBUJOS
 62
     7
  0
POLYLINE
  5
7D
330
52
100
AcDbEntity
  8
DIBUJOS
 62
     7
100
AcDb2dPolyline
 66
     1
 10
0.0
 20
0.0
 30
0.0
  0
VERTEX
  5
7E
330
7D
100
AcDbEntity
  8
DIBUJOS
 62
     7
100
AcDbVertex
100
AcDb2dVertex
 10
67.87420026395618
 20
43.9328695051671
 30
0.0
  0
VERTEX
  5
7F
330
7D
100
AcDbEntity
  8
DIBUJOS
 62
     7
100
AcDbVertex
100
AcDb2dVertex
 10
67.86814996660968
 20
43.9328695051671
 30
0.0
  0
SEQEND
  5
80
330
7D
100
AcDbEntity
  8
DIBUJOS
 62
     7
  0
POLYLINE
  5
81
330
52
100
AcDbEntity
  8
DIBUJOS
 62
     7
100
AcDb2dPolyline
 66
     1
 10
0.0
 20
0.0
 30
0.0
  0
VERTEX
  5
82
330
81
100
AcDbEntity
  8
DIBUJOS
 62
     7
100
AcDbVertex
100
AcDb2dVertex
 10
67.87420026395618
 20
43.9328695051671
 30
0.0
  0
VERTEX
  5
83
330
81
100
AcDbEntity
  8
DIBUJOS
 62
     7
100
AcDbVertex
100
AcDb2dVertex
 10
67.87420026395618
 20
43.9389222893117
 30
0.0
  0
SEQEND
  5
84
330
81
100
AcDbEntity
  8
DIBUJOS
 62
     7
  0
POLYLINE
  5
85
330
52
100
AcDbEntity
  8
DIBUJOS
 62
     7
100
AcDb2dPolyline
 66
     1
 10
0.0
 20
0.0
 30
0.0
  0
VERTEX
  5
86
330
85
100
AcDbEntity
  8
DIBUJOS
 62
     7
100
AcDbVertex
100
AcDb2dVertex
 10
67.88025218991591
 20
43.9328695051671
 30
0.0
  0
VERTEX
  5
87
330
85
100
AcDbEntity
  8
DIBUJOS
 62
     7
100
AcDbVertex
100
AcDb2dVertex
 10
67.87420026395618
 20
43.9328695051671
 30
0.0
  0
SEQEND
  5
88
330
85
100
AcDbEntity
  8
DIBUJOS
 62
     7
  0
POLYLINE
  5
89
330
52
100
AcDbEntity
  8
DIBUJOS
 62
     7
100
AcDb2dPolyline
 66
     1
 10
0.0
 20
0.0
 30
0.0
  0
VERTEX
  5
8A
330
89
100
AcDbEntity
  8
DIBUJOS
 62
     7
100
AcDbVertex
100
AcDb2dVertex
 10
67.97101642179243
 20
43.89050653152961
 30
0.0
  0
VERTEX
  5
8B
330
89
100
AcDbEntity
  8
DIBUJOS
 62
     7
100
AcDbVertex
100
AcDb2dVertex
 10
67.88690833130383
 20
43.92802858092604
 30
0.0
  0
VERTEX
  5
8C
330
89
100
AcDbEntity
  8
DIBUJOS
 62
     7
100
AcDbVertex
100
AcDb2dVertex
 10
67.88025218991591
 20
43.9328695051671
 30
0.0
  0
SEQEND
  5
8D
330
89
100
AcDbEntity
  8
DIBUJOS
 62
     7
  0
POLYLINE
  5
8E
330
52
100
AcDbEntity
  8
DIBUJOS
 62
     7
100
AcDb2dPolyline
 66
     1
 10
0.0
 20
0.0
 30
0.0
  0
VERTEX
  5
8F
330
8E
100
AcDbEntity
  8
DIBUJOS
 62
     7
100
AcDbVertex
100
AcDb2dVertex
 10
67.97706834775184
 20
43.89050653152961
 30
0.0
  0
VERTEX
  5
90
330
8E
100
AcDbEntity
  8
DIBUJOS
 62
     7
100
AcDbVertex
100
AcDb2dVertex
 10
67.97101642179243
 20
43.89050653152961
 30
0.0
  0
SEQEND
  5
91
330
8E
100
AcDbEntity
  8
DIBUJOS
 62
     7
  0
POLYLINE
  5
92
330
52
100
AcDbEntity
  8
DIBUJOS
 62
     7
100
AcDb2dPolyline
 66
     1
 10
0.0
 20
0.0
 30
0.0
  0
VERTEX
  5
93
330
92
100
AcDbEntity
  8
DIBUJOS
 62
     7
100
AcDbVertex
100
AcDb2dVertex
 10
67.97706834775184
 20
43.88445537622925
 30
0.0
  0
VERTEX
  5
94
330
92
100
AcDbEntity
  8
DIBUJOS
 62
     7
100
AcDbVertex
100
AcDb2dVertex
 10
67.97706834775184
 20
43.89050653152961
 30
0.0
  0
SEQEND
  5
95
330
92
100
AcDbEntity
  8
DIBUJOS
 62
     7
  0
POLYLINE
  5
96
330
52
100
AcDbEntity
  8
DIBUJOS
 62
     7
100
AcDb2dPolyline
 66
     1
 10
0.0
 20
0.0
 30
0.0
  0
VERTEX
  5
97
330
96
100
AcDbEntity
  8
DIBUJOS
 62
     7
100
AcDbVertex
100
AcDb2dVertex
 10
67.68661987424468
 20
43.65448541329874
 30
0.0
  0
VERTEX
  5
98
330
96
100
AcDbEntity
  8
DIBUJOS
 62
     7
100
AcDbVertex
100
AcDb2dVertex
 10
67.71222004220985
 20
43.68986553289152
 30
0.0
  0
VERTEX
  5
99
330
96
100
AcDbEntity
  8
DIBUJOS
 62
     7
100
AcDbVertex
100
AcDb2dVertex
 10
67.85483768383448
 20
43.90926755622799
 30
0.0
  0
VERTEX
  5
9A
330
96
100
AcDbEntity
  8
DIBUJOS
 62
     7
100
AcDbVertex
100
AcDb2dVertex
 10
67.86814996660968
 20
43.9328695051671
 30
0.0
  0
SEQEND
  5
9B
330
96
100
AcDbEntity
  8
DIBUJOS
 62
     7
  0
POLYLINE
  5
9C
330
52
100
AcDbEntity
  8
DIBUJOS
 62
     7
100
AcDb2dPolyline
 66
     1
 10
0.0
 20
0.0
 30
0.0
  0
VERTEX
  5
9D
330
9C
100
AcDbEntity
  8
DIBUJOS
 62
     7
100
AcDbVertex
100
AcDb2dVertex
 10
67.68661987424468
 20
43.64843262915382
 30
0.0
  0
VERTEX
  5
9E
330
9C
100
AcDbEntity
  8
DIBUJOS
 62
     7
100
AcDbVertex
100
AcDb2dVertex
 10
67.68056957689818
 20
43.64843262915382
 30
0.0
  0
SEQEND
  5
9F
330
9C
100
AcDbEntity
  8
DIBUJOS
 62
     7
  0
POLYLINE
  5
A0
330
52
100
AcDbEntity
  8
DIBUJOS
 62
     7
100
AcDb2dPolyline
 66
     1
 10
0.0
 20
0.0
 30
0.0
  0
VERTEX
  5
A1
330
A0
100
AcDbEntity
  8
DIBUJOS
 62
     7
100
AcDbVertex
100
AcDb2dVertex
 10
67.68661987424468
 20
43.64843262915382
 30
0.0
  0
VERTEX
  5
A2
330
A0
100
AcDbEntity
  8
DIBUJOS
 62
     7
100
AcDbVertex
100
AcDb2dVertex
 10
67.68661987424468
 20
43.65448541329874
 30
0.0
  0
SEQEND
  5
A3
330
A0
100
AcDbEntity
  8
DIBUJOS
 62
     7
  0
POLYLINE
  5
A4
330
52
100
AcDbEntity
  8
DIBUJOS
 62
     7
100
AcDb2dPolyline
 66
     1
 10
0.0
 20
0.0
 30
0.0
  0
VERTEX
  5
A5
330
A4
100
AcDbEntity
  8
DIBUJOS
 62
     7
100
AcDbVertex
100
AcDb2dVertex
 10
67.68661987424468
 20
43.64238147385345
 30
0.0
  0
VERTEX
  5
A6
330
A4
100
AcDbEntity
  8
DIBUJOS
 62
     7
100
AcDbVertex
100
AcDb2dVertex
 10
67.68661987424468
 20
43.64843262915382
 30
0.0
  0
SEQEND
  5
A7
330
A4
100
AcDbEntity
  8
DIBUJOS
 62
     7
  0
POLYLINE
  5
A8
330
52
100
AcDbEntity
  8
DIBUJOS
 62
     7
100
AcDb2dPolyline
 66
     1
 10
0.0
 20
0.0
 30
0.0
  0
VERTEX
  5
A9
330
A8
100
AcDbEntity
  8
DIBUJOS
 62
     7
100
AcDbVertex
100
AcDb2dVertex
 10
61.52065843145962
 20
43.6242263791075
 30
0.0
  0
VERTEX
  5
AA
330
A8
100
AcDbEntity
  8
DIBUJOS
 62
     7
100
AcDbVertex
100
AcDb2dVertex
 10
61.52366973692216
 20
44.84063401553608
 30
0.0
  0
VERTEX
  5
AB
330
A8
100
AcDbEntity
  8
DIBUJOS
 62
     7
100
AcDbVertex
100
AcDb2dVertex
 10
61.52963046055309
 20
45.02210677848709
 30
0.0
  0
VERTEX
  5
AC
330
A8
100
AcDbEntity
  8
DIBUJOS
 62
     7
100
AcDbVertex
100
AcDb2dVertex
 10
61.56567166654994
 20
45.35475906447451
 30
0.0
  0
VERTEX
  5
AD
330
A8
100
AcDbEntity
  8
DIBUJOS
 62
     7
100
AcDbVertex
100
AcDb2dVertex
 10
61.57176267922178
 20
45.41530319436104
 30
0.0
  0
VERTEX
  5
AE
330
A8
100
AcDbEntity
  8
DIBUJOS
 62
     7
100
AcDbVertex
100
AcDb2dVertex
 10
61.63171192426233
 20
45.61475187922297
 30
0.0
  0
VERTEX
  5
AF
330
A8
100
AcDbEntity
  8
DIBUJOS
 62
     7
100
AcDbVertex
100
AcDb2dVertex
 10
61.68222009966181
 20
45.77323839625114
 30
0.0
  0
VERTEX
  5
B0
330
A8
100
AcDbEntity
  8
DIBUJOS
 62
     7
100
AcDbVertex
100
AcDb2dVertex
 10
61.74938572896699
 20
45.88822174887247
 30
0.0
  0
VERTEX
  5
B1
330
A8
100
AcDbEntity
  8
DIBUJOS
 62
     7
100
AcDbVertex
100
AcDb2dVertex
 10
61.76130229038949
 20
45.90670587009788
 30
0.0
  0
VERTEX
  5
B2
330
A8
100
AcDbEntity
  8
DIBUJOS
 62
     7
100
AcDbVertex
100
AcDb2dVertex
 10
61.861023893842
 20
46.06775944520219
 30
0.0
  0
VERTEX
  5
B3
330
A8
100
AcDbEntity
  8
DIBUJOS
 62
     7
100
AcDbVertex
100
AcDb2dVertex
 10
61.94877030580338
 20
46.16136584973036
 30
0.0
  0
VERTEX
  5
B4
330
A8
100
AcDbEntity
  8
DIBUJOS
 62
     7
100
AcDbVertex
100
AcDb2dVertex
 10
62.11970789912667
 20
46.33545343418004
 30
0.0
  0
VERTEX
  5
B5
330
A8
100
AcDbEntity
  8
DIBUJOS
 62
     7
100
AcDbVertex
100
AcDb2dVertex
 10
62.13879035781002
 20
46.34616145435434
 30
0.0
  0
VERTEX
  5
B6
330
A8
100
AcDbEntity
  8
DIBUJOS
 62
     7
100
AcDbVertex
100
AcDb2dVertex
 10
62.40503438470505
 20
46.533768443648
 30
0.0
  0
VERTEX
  5
B7
330
A8
100
AcDbEntity
  8
DIBUJOS
 62
     7
100
AcDbVertex
100
AcDb2dVertex
 10
62.54993208454958
 20
46.60657776853138
 30
0.0
  0
VERTEX
  5
B8
330
A8
100
AcDbEntity
  8
DIBUJOS
 62
     7
100
AcDbVertex
100
AcDb2dVertex
 10
62.65764040622212
 20
46.65741398843304
 30
0.0
  0
VERTEX
  5
B9
330
A8
100
AcDbEntity
  8
DIBUJOS
 62
     7
100
AcDbVertex
100
AcDb2dVertex
 10
62.8040022291658
 20
46.72668872192963
 30
0.0
  0
VERTEX
  5
BA
330
A8
100
AcDbEntity
  8
DIBUJOS
 62
     7
100
AcDbVertex
100
AcDb2dVertex
 10
62.96018947442196
 20
46.77845012519897
 30
0.0
  0
VERTEX
  5
BB
330
A8
100
AcDbEntity
  8
DIBUJOS
 62
     7
100
AcDbVertex
100
AcDb2dVertex
 10
63.03986610890004
 20
46.79899310518636
 30
0.0
  0
VERTEX
  5
BC
330
A8
100
AcDbEntity
  8
DIBUJOS
 62
     7
100
AcDbVertex
100
AcDb2dVertex
 10
63.46867014377464
 20
46.87652281985763
 30
0.0
  0
VERTEX
  5
BD
330
A8
100
AcDbEntity
  8
DIBUJOS
 62
     7
100
AcDbVertex
100
AcDb2dVertex
 10
63.85616440955232
 20
46.90110207517027
 30
0.0
  0
VERTEX
  5
BE
330
A8
100
AcDbEntity
  8
DIBUJOS
 62
     7
100
AcDbVertex
100
AcDb2dVertex
 10
63.86255997285811
 20
46.90148974003223
 30
0.0
  0
VERTEX
  5
BF
330
A8
100
AcDbEntity
  8
DIBUJOS
 62
     7
100
AcDbVertex
100
AcDb2dVertex
 10
64.2799116010194
 20
46.92248553863945
 30
0.0
  0
VERTEX
  5
C0
330
A8
100
AcDbEntity
  8
DIBUJOS
 62
     7
100
AcDbVertex
100
AcDb2dVertex
 10
64.89106166337945
 20
46.92248553863945
 30
0.0
  0
VERTEX
  5
C1
330
A8
100
AcDbEntity
  8
DIBUJOS
 62
     7
100
AcDbVertex
100
AcDb2dVertex
 10
65.20558755168365
 20
46.90749040117034
 30
0.0
  0
VERTEX
  5
C2
330
A8
100
AcDbEntity
  8
DIBUJOS
 62
     7
100
AcDbVertex
100
AcDb2dVertex
 10
65.68355452760849
 20
46.87731118033292
 30
0.0
  0
VERTEX
  5
C3
330
A8
100
AcDbEntity
  8
DIBUJOS
 62
     7
100
AcDbVertex
100
AcDb2dVertex
 10
65.75594474746194
 20
46.86556395771409
 30
0.0
  0
VERTEX
  5
C4
330
A8
100
AcDbEntity
  8
DIBUJOS
 62
     7
100
AcDbVertex
100
AcDb2dVertex
 10
66.0291136368919
 20
46.81587770164596
 30
0.0
  0
VERTEX
  5
C5
330
A8
100
AcDbEntity
  8
DIBUJOS
 62
     7
100
AcDbVertex
100
AcDb2dVertex
 10
66.19141958124196
 20
46.78147651727127
 30
0.0
  0
VERTEX
  5
C6
330
A8
100
AcDbEntity
  8
DIBUJOS
 62
     7
100
AcDbVertex
100
AcDb2dVertex
 10
66.35479715295423
 20
46.72700797534522
 30
0.0
  0
VERTEX
  5
C7
330
A8
100
AcDbEntity
  8
DIBUJOS
 62
     7
100
AcDbVertex
100
AcDb2dVertex
 10
66.57263228662501
 20
46.62473286327734
 30
0.0
  0
VERTEX
  5
C8
330
A8
100
AcDbEntity
  8
DIBUJOS
 62
     7
100
AcDbVertex
100
AcDb2dVertex
 10
66.67065850392991
 20
46.5787375676161
 30
0.0
  0
VERTEX
  5
C9
330
A8
100
AcDbEntity
  8
DIBUJOS
 62
     7
100
AcDbVertex
100
AcDb2dVertex
 10
66.76577927561857
 20
46.52766027880875
 30
0.0
  0
VERTEX
  5
CA
330
A8
100
AcDbEntity
  8
DIBUJOS
 62
     7
100
AcDbVertex
100
AcDb2dVertex
 10
66.9251260301218
 20
46.41552414542436
 30
0.0
  0
VERTEX
  5
CB
330
A8
100
AcDbEntity
  8
DIBUJOS
 62
     7
100
AcDbVertex
100
AcDb2dVertex
 10
67.06488057006842
 20
46.31272128791461
 30
0.0
  0
VERTEX
  5
CC
330
A8
100
AcDbEntity
  8
DIBUJOS
 62
     7
100
AcDbVertex
100
AcDb2dVertex
 10
67.28574166671858
 20
46.08585590156629
 30
0.0
  0
VERTEX
  5
CD
330
A8
100
AcDbEntity
  8
DIBUJOS
 62
     7
100
AcDbVertex
100
AcDb2dVertex
 10
67.33445185335064
 20
46.01410206756699
 30
0.0
  0
VERTEX
  5
CE
330
A8
100
AcDbEntity
  8
DIBUJOS
 62
     7
100
AcDbVertex
100
AcDb2dVertex
 10
67.33705926278589
 20
46.00958691211753
 30
0.0
  0
VERTEX
  5
CF
330
A8
100
AcDbEntity
  8
DIBUJOS
 62
     7
100
AcDbVertex
100
AcDb2dVertex
 10
67.4790710603694
 20
45.77807932049187
 30
0.0
  0
VERTEX
  5
D0
330
A8
100
AcDbEntity
  8
DIBUJOS
 62
     7
100
AcDbVertex
100
AcDb2dVertex
 10
67.51295598273626
 20
45.67035735423148
 30
0.0
  0
VERTEX
  5
D1
330
A8
100
AcDbEntity
  8
DIBUJOS
 62
     7
100
AcDbVertex
100
AcDb2dVertex
 10
67.58726308010702
 20
45.43336707384572
 30
0.0
  0
VERTEX
  5
D2
330
A8
100
AcDbEntity
  8
DIBUJOS
 62
     7
100
AcDbVertex
100
AcDb2dVertex
 10
67.59851191019393
 20
45.34324639538601
 30
0.0
  0
VERTEX
  5
D3
330
A8
100
AcDbEntity
  8
DIBUJOS
 62
     7
100
AcDbVertex
100
AcDb2dVertex
 10
67.63521596168762
 20
45.00402009518717
 30
0.0
  0
VERTEX
  5
D4
330
A8
100
AcDbEntity
  8
DIBUJOS
 62
     7
100
AcDbVertex
100
AcDb2dVertex
 10
67.64426290697982
 20
44.3504480862352
 30
0.0
  0
VERTEX
  5
D5
330
A8
100
AcDbEntity
  8
DIBUJOS
 62
     7
100
AcDbVertex
100
AcDb2dVertex
 10
67.63821260963333
 20
44.34439530209028
 30
0.0
  0
VERTEX
  5
D6
330
A8
100
AcDbEntity
  8
DIBUJOS
 62
     7
100
AcDbVertex
100
AcDb2dVertex
 10
67.64426290697982
 20
44.24756704421522
 30
0.0
  0
VERTEX
  5
D7
330
A8
100
AcDbEntity
  8
DIBUJOS
 62
     7
100
AcDbVertex
100
AcDb2dVertex
 10
67.63821260963333
 20
44.2415142600703
 30
0.0
  0
VERTEX
  5
D8
330
A8
100
AcDbEntity
  8
DIBUJOS
 62
     7
100
AcDbVertex
100
AcDb2dVertex
 10
67.64426290697982
 20
44.18704734698817
 30
0.0
  0
VERTEX
  5
D9
330
A8
100
AcDbEntity
  8
DIBUJOS
 62
     7
100
AcDbVertex
100
AcDb2dVertex
 10
67.63821260963333
 20
44.18099619168717
 30
0.0
  0
VERTEX
  5
DA
330
A8
100
AcDbEntity
  8
DIBUJOS
 62
     7
100
AcDbVertex
100
AcDb2dVertex
 10
67.63821260963333
 20
44.16284109694185
 30
0.0
  0
VERTEX
  5
DB
330
A8
100
AcDbEntity
  8
DIBUJOS
 62
     7
100
AcDbVertex
100
AcDb2dVertex
 10
67.64426290697982
 20
44.15678831279693
 30
0.0
  0
VERTEX
  5
DC
330
A8
100
AcDbEntity
  8
DIBUJOS
 62
     7
100
AcDbVertex
100
AcDb2dVertex
 10
67.64426290697982
 20
44.13863321805032
 30
0.0
  0
VERTEX
  5
DD
330
A8
100
AcDbEntity
  8
DIBUJOS
 62
     7
100
AcDbVertex
100
AcDb2dVertex
 10
67.63821260963333
 20
44.12652927860537
 30
0.0
  0
VERTEX
  5
DE
330
A8
100
AcDbEntity
  8
DIBUJOS
 62
     7
100
AcDbVertex
100
AcDb2dVertex
 10
67.64426290697982
 20
44.12047812330437
 30
0.0
  0
VERTEX
  5
DF
330
A8
100
AcDbEntity
  8
DIBUJOS
 62
     7
100
AcDbVertex
100
AcDb2dVertex
 10
67.64426290697982
 20
44.04785448663235
 30
0.0
  0
VERTEX
  5
E0
330
A8
100
AcDbEntity
  8
DIBUJOS
 62
     7
100
AcDbVertex
100
AcDb2dVertex
 10
67.63821260963333
 20
44.04180333133167
 30
0.0
  0
VERTEX
  5
E1
330
A8
100
AcDbEntity
  8
DIBUJOS
 62
     7
100
AcDbVertex
100
AcDb2dVertex
 10
67.64131186019884
 20
44.02962935159611
 30
0.0
  0
VERTEX
  5
E2
330
A8
100
AcDbEntity
  8
DIBUJOS
 62
     7
100
AcDbVertex
100
AcDb2dVertex
 10
67.64426290697982
 20
43.78157433420895
 30
0.0
  0
SEQEND
  5
E3
330
A8
100
AcDbEntity
  8
DIBUJOS
 62
     7
  0
POLYLINE
  5
E4
330
52
100
AcDbEntity
  8
DIBUJOS
 62
     7
100
AcDb2dPolyline
 66
     1
 10
0.0
 20
0.0
 30
0.0
  0
VERTEX
  5
E5
330
E4
100
AcDbEntity
  8
DIBUJOS
 62
     7
100
AcDbVertex
100
AcDb2dVertex
 10
61.51460813411312
 20
43.61817359496257
 30
0.0
  0
VERTEX
  5
E6
330
E4
100
AcDbEntity
  8
DIBUJOS
 62
     7
100
AcDbVertex
100
AcDb2dVertex
 10
61.50855620815339
 20
43.61817359496257
 30
0.0
  0
VERTEX
  5
E7
330
E4
100
AcDbEntity
  8
DIBUJOS
 62
     7
100
AcDbVertex
100
AcDb2dVertex
 10
61.48435339015417
 20
43.64238147385345
 30
0.0
  0
VERTEX
  5
E8
330
E4
100
AcDbEntity
  8
DIBUJOS
 62
     7
100
AcDbVertex
100
AcDb2dVertex
 10
61.34052568905992
 20
43.85512641193746
 30
0.0
  0
VERTEX
  5
E9
330
E4
100
AcDbEntity
  8
DIBUJOS
 62
     7
100
AcDbVertex
100
AcDb2dVertex
 10
61.33791827962467
 20
43.85964319623051
 30
0.0
  0
VERTEX
  5
EA
330
E4
100
AcDbEntity
  8
DIBUJOS
 62
     7
100
AcDbVertex
100
AcDb2dVertex
 10
61.20177111750423
 20
44.11503126911185
 30
0.0
  0
VERTEX
  5
EB
330
E4
100
AcDbEntity
  8
DIBUJOS
 62
     7
100
AcDbVertex
100
AcDb2dVertex
 10
61.12250326489283
 20
44.30263825840552
 30
0.0
  0
VERTEX
  5
EC
330
E4
100
AcDbEntity
  8
DIBUJOS
 62
     7
100
AcDbVertex
100
AcDb2dVertex
 10
61.05049739771045
 20
44.50840034244515
 30
0.0
  0
VERTEX
  5
ED
330
E4
100
AcDbEntity
  8
DIBUJOS
 62
     7
100
AcDbVertex
100
AcDb2dVertex
 10
61.03476336738341
 20
44.55560586916665
 30
0.0
  0
VERTEX
  5
EE
330
E4
100
AcDbEntity
  8
DIBUJOS
 62
     7
100
AcDbVertex
100
AcDb2dVertex
 10
60.95578052204942
 20
44.84616556961418
 30
0.0
  0
VERTEX
  5
EF
330
E4
100
AcDbEntity
  8
DIBUJOS
 62
     7
100
AcDbVertex
100
AcDb2dVertex
 10
60.94336071920564
 20
44.906807430138
 30
0.0
  0
VERTEX
  5
F0
330
E4
100
AcDbEntity
  8
DIBUJOS
 62
     7
100
AcDbVertex
100
AcDb2dVertex
 10
60.88791133192237
 20
45.21618679366641
 30
0.0
  0
VERTEX
  5
F1
330
E4
100
AcDbEntity
  8
DIBUJOS
 62
     7
100
AcDbVertex
100
AcDb2dVertex
 10
60.85244339770616
 20
45.48786819265087
 30
0.0
  0
VERTEX
  5
F2
330
E4
100
AcDbEntity
  8
DIBUJOS
 62
     7
100
AcDbVertex
100
AcDb2dVertex
 10
60.80986656768452
 20
46.00847929822697
 30
0.0
  0
VERTEX
  5
F3
330
E4
100
AcDbEntity
  8
DIBUJOS
 62
     7
100
AcDbVertex
100
AcDb2dVertex
 10
60.77638716995852
 20
46.74698085994746
 30
0.0
  0
VERTEX
  5
F4
330
E4
100
AcDbEntity
  8
DIBUJOS
 62
     7
100
AcDbVertex
100
AcDb2dVertex
 10
60.79453969061092
 20
47.50346160126673
 30
0.0
  0
VERTEX
  5
F5
330
E4
100
AcDbEntity
  8
DIBUJOS
 62
     7
100
AcDbVertex
100
AcDb2dVertex
 10
60.80985516739349
 20
47.69123473264405
 30
0.0
  0
VERTEX
  5
F6
330
E4
100
AcDbEntity
  8
DIBUJOS
 62
     7
100
AcDbVertex
100
AcDb2dVertex
 10
60.8155308837467
 20
47.78773070635212
 30
0.0
  0
VERTEX
  5
F7
330
E4
100
AcDbEntity
  8
DIBUJOS
 62
     7
100
AcDbVertex
100
AcDb2dVertex
 10
60.85877381649133
 20
48.14542483933651
 30
0.0
  0
VERTEX
  5
F8
330
E4
100
AcDbEntity
  8
DIBUJOS
 62
     7
100
AcDbVertex
100
AcDb2dVertex
 10
60.88179426144234
 20
48.31404602346598
 30
0.0
  0
VERTEX
  5
F9
330
E4
100
AcDbEntity
  8
DIBUJOS
 62
     7
100
AcDbVertex
100
AcDb2dVertex
 10
60.9420904010551
 20
48.58022518756328
 30
0.0
  0
VERTEX
  5
FA
330
E4
100
AcDbEntity
  8
DIBUJOS
 62
     7
100
AcDbVertex
100
AcDb2dVertex
 10
60.94973022470292
 20
48.61148596078818
 30
0.0
  0
VERTEX
  5
FB
330
E4
100
AcDbEntity
  8
DIBUJOS
 62
     7
100
AcDbVertex
100
AcDb2dVertex
 10
61.01419072779209
 20
48.87057639598452
 30
0.0
  0
VERTEX
  5
FC
330
E4
100
AcDbEntity
  8
DIBUJOS
 62
     7
100
AcDbVertex
100
AcDb2dVertex
 10
61.02629295109832
 20
48.90083380133184
 30
0.0
  0
VERTEX
  5
FD
330
E4
100
AcDbEntity
  8
DIBUJOS
 62
     7
100
AcDbVertex
100
AcDb2dVertex
 10
61.18059263387148
 20
49.29541473456964
 30
0.0
  0
VERTEX
  5
FE
330
E4
100
AcDbEntity
  8
DIBUJOS
 62
     7
100
AcDbVertex
100
AcDb2dVertex
 10
61.35588513839399
 20
49.56807343992796
 30
0.0
  0
VERTEX
  5
FF
330
E4
100
AcDbEntity
  8
DIBUJOS
 62
     7
100
AcDbVertex
100
AcDb2dVertex
 10
61.40568975297096
 20
49.6518676884586
 30
0.0
  0
VERTEX
  5
100
330
E4
100
AcDbEntity
  8
DIBUJOS
 62
     7
100
AcDbVertex
100
AcDb2dVertex
 10
61.73362401221854
 20
49.94087998714679
 30
0.0
  0
VERTEX
  5
101
330
E4
100
AcDbEntity
  8
DIBUJOS
 62
     7
100
AcDbVertex
100
AcDb2dVertex
 10
61.78750830239576
 20
49.97140778059138
 30
0.0
  0
VERTEX
  5
102
330
E4
100
AcDbEntity
  8
DIBUJOS
 62
     7
100
AcDbVertex
100
AcDb2dVertex
 10
61.85951416957813
 20
50.00892657229965
 30
0.0
  0
SEQEND
  5
103
330
E4
100
AcDbEntity
  8
DIBUJOS
 62
     7
  0
POLYLINE
  5
104
330
52
100
AcDbEntity
  8
DIBUJOS
 62
     7
100
AcDb2dPolyline
 66
     1
 10
0.0
 20
0.0
 30
0.0
  0
VERTEX
  5
105
330
104
100
AcDbEntity
  8
DIBUJOS
 62
     7
100
AcDbVertex
100
AcDb2dVertex
 10
61.52065843145962
 20
43.61817359496257
 30
0.0
  0
VERTEX
  5
106
330
104
100
AcDbEntity
  8
DIBUJOS
 62
     7
100
AcDbVertex
100
AcDb2dVertex
 10
61.51460813411312
 20
43.61817359496257
 30
0.0
  0
SEQEND
  5
107
330
104
100
AcDbEntity
  8
DIBUJOS
 62
     7
  0
POLYLINE
  5
108
330
52
100
AcDbEntity
  8
DIBUJOS
 62
     7
100
AcDb2dPolyline
 66
     1
 10
0.0
 20
0.0
 30
0.0
  0
VERTEX
  5
109
330
108
100
AcDbEntity
  8
DIBUJOS
 62
     7
100
AcDbVertex
100
AcDb2dVertex
 10
61.52065843145962
 20
43.61817359496257
 30
0.0
  0
VERTEX
  5
10A
330
108
100
AcDbEntity
  8
DIBUJOS
 62
     7
100
AcDbVertex
100
AcDb2dVertex
 10
61.52065843145962
 20
43.6242263791075
 30
0.0
  0
SEQEND
  5
10B
330
108
100
AcDbEntity
  8
DIBUJOS
 62
     7
  0
POLYLINE
  5
10C
330
52
100
AcDbEntity
  8
DIBUJOS
 62
     7
100
AcDb2dPolyline
 66
     1
 10
0.0
 20
0.0
 30
0.0
  0
VERTEX
  5
10D
330
10C
100
AcDbEntity
  8
DIBUJOS
 62
     7
100
AcDbVertex
100
AcDb2dVertex
 10
61.52065843145962
 20
43.61212243966189
 30
0.0
  0
VERTEX
  5
10E
330
10C
100
AcDbEntity
  8
DIBUJOS
 62
     7
100
AcDbVertex
100
AcDb2dVertex
 10
61.52065843145962
 20
43.61817359496257
 30
0.0
  0
SEQEND
  5
10F
330
10C
100
AcDbEntity
  8
DIBUJOS
 62
     7
  0
POLYLINE
  5
110
330
52
100
AcDbEntity
  8
DIBUJOS
 62
     7
100
AcDb2dPolyline
 66
     1
 10
0.0
 20
0.0
 30
0.0
  0
VERTEX
  5
111
330
110
100
AcDbEntity
  8
DIBUJOS
 62
     7
100
AcDbVertex
100
AcDb2dVertex
 10
67.75318128812167
 20
43.60606965551697
 30
0.0
  0
VERTEX
  5
112
330
110
100
AcDbEntity
  8
DIBUJOS
 62
     7
100
AcDbVertex
100
AcDb2dVertex
 10
67.74014749817125
 20
43.61677767569127
 30
0.0
  0
VERTEX
  5
113
330
110
100
AcDbEntity
  8
DIBUJOS
 62
     7
100
AcDbVertex
100
AcDb2dVertex
 10
67.68661987424468
 20
43.64238147385345
 30
0.0
  0
SEQEND
  5
114
330
110
100
AcDbEntity
  8
DIBUJOS
 62
     7
  0
POLYLINE
  5
115
330
52
100
AcDbEntity
  8
DIBUJOS
 62
     7
100
AcDb2dPolyline
 66
     1
 10
0.0
 20
0.0
 30
0.0
  0
VERTEX
  5
116
330
115
100
AcDbEntity
  8
DIBUJOS
 62
     7
100
AcDbVertex
100
AcDb2dVertex
 10
67.63821260963333
 20
43.59396734491561
 30
0.0
  0
VERTEX
  5
117
330
115
100
AcDbEntity
  8
DIBUJOS
 62
     7
100
AcDbVertex
100
AcDb2dVertex
 10
67.68056957689818
 20
43.64843262915382
 30
0.0
  0
SEQEND
  5
118
330
115
100
AcDbEntity
  8
DIBUJOS
 62
     7
  0
POLYLINE
  5
119
330
52
100
AcDbEntity
  8
DIBUJOS
 62
     7
100
AcDb2dPolyline
 66
     1
 10
0.0
 20
0.0
 30
0.0
  0
VERTEX
  5
11A
330
119
100
AcDbEntity
  8
DIBUJOS
 62
     7
100
AcDbVertex
100
AcDb2dVertex
 10
67.75318128812167
 20
43.60606965551697
 30
0.0
  0
VERTEX
  5
11B
330
119
100
AcDbEntity
  8
DIBUJOS
 62
     7
100
AcDbVertex
100
AcDb2dVertex
 10
67.76467766738679
 20
43.60425512334918
 30
0.0
  0
VERTEX
  5
11C
330
119
100
AcDbEntity
  8
DIBUJOS
 62
     7
100
AcDbVertex
100
AcDb2dVertex
 10
67.79553825538652
 20
43.587914560771
 30
0.0
  0
VERTEX
  5
11D
330
119
100
AcDbEntity
  8
DIBUJOS
 62
     7
100
AcDbVertex
100
AcDb2dVertex
 10
67.81974270199865
 20
43.61212243966189
 30
0.0
  0
VERTEX
  5
11E
330
119
100
AcDbEntity
  8
DIBUJOS
 62
     7
100
AcDbVertex
100
AcDb2dVertex
 10
67.95751847713349
 20
43.83697131719118
 30
0.0
  0
VERTEX
  5
11F
330
119
100
AcDbEntity
  8
DIBUJOS
 62
     7
100
AcDbVertex
100
AcDb2dVertex
 10
67.96031154845215
 20
43.84116070384903
 30
0.0
  0
VERTEX
  5
120
330
119
100
AcDbEntity
  8
DIBUJOS
 62
     7
100
AcDbVertex
100
AcDb2dVertex
 10
67.98009268211864
 20
43.87840422092857
 30
0.0
  0
VERTEX
  5
121
330
119
100
AcDbEntity
  8
DIBUJOS
 62
     7
100
AcDbVertex
100
AcDb2dVertex
 10
67.97706834775184
 20
43.88445537622925
 30
0.0
  0
SEQEND
  5
122
330
119
100
AcDbEntity
  8
DIBUJOS
 62
     7
  0
POLYLINE
  5
123
330
52
100
AcDbEntity
  8
DIBUJOS
 62
     7
100
AcDb2dPolyline
 66
     1
 10
0.0
 20
0.0
 30
0.0
  0
VERTEX
  5
124
330
123
100
AcDbEntity
  8
DIBUJOS
 62
     7
100
AcDbVertex
100
AcDb2dVertex
 10
61.52065843145962
 20
43.52134370824328
 30
0.0
  0
VERTEX
  5
125
330
123
100
AcDbEntity
  8
DIBUJOS
 62
     7
100
AcDbVertex
100
AcDb2dVertex
 10
61.52065843145962
 20
43.61212243966189
 30
0.0
  0
SEQEND
  5
126
330
123
100
AcDbEntity
  8
DIBUJOS
 62
     7
  0
POLYLINE
  5
127
330
52
100
AcDbEntity
  8
DIBUJOS
 62
     7
100
AcDb2dPolyline
 66
     1
 10
0.0
 20
0.0
 30
0.0
  0
VERTEX
  5
128
330
127
100
AcDbEntity
  8
DIBUJOS
 62
     7
100
AcDbVertex
100
AcDb2dVertex
 10
61.87161639288404
 20
42.63777404601347
 30
0.0
  0
VERTEX
  5
129
330
127
100
AcDbEntity
  8
DIBUJOS
 62
     7
100
AcDbVertex
100
AcDb2dVertex
 10
61.67210967007162
 20
42.64665124557978
 30
0.0
  0
VERTEX
  5
12A
330
127
100
AcDbEntity
  8
DIBUJOS
 62
     7
100
AcDbVertex
100
AcDb2dVertex
 10
61.63050837924531
 20
42.66337784417566
 30
0.0
  0
VERTEX
  5
12B
330
127
100
AcDbEntity
  8
DIBUJOS
 62
     7
100
AcDbVertex
100
AcDb2dVertex
 10
61.61142429194874
 20
42.67408586434932
 30
0.0
  0
VERTEX
  5
12C
330
127
100
AcDbEntity
  8
DIBUJOS
 62
     7
100
AcDbVertex
100
AcDb2dVertex
 10
61.57390756256108
 20
42.71584290803439
 30
0.0
  0
VERTEX
  5
12D
330
127
100
AcDbEntity
  8
DIBUJOS
 62
     7
100
AcDbVertex
100
AcDb2dVertex
 10
61.54304697456134
 20
42.7884649158628
 30
0.0
  0
VERTEX
  5
12E
330
127
100
AcDbEntity
  8
DIBUJOS
 62
     7
100
AcDbVertex
100
AcDb2dVertex
 10
61.52965814697419
 20
42.84966221217615
 30
0.0
  0
VERTEX
  5
12F
330
127
100
AcDbEntity
  8
DIBUJOS
 62
     7
100
AcDbVertex
100
AcDb2dVertex
 10
61.52376256786387
 20
43.08553673445108
 30
0.0
  0
VERTEX
  5
130
330
127
100
AcDbEntity
  8
DIBUJOS
 62
     7
100
AcDbVertex
100
AcDb2dVertex
 10
61.52065843145962
 20
43.47898073460643
 30
0.0
  0
VERTEX
  5
131
330
127
100
AcDbEntity
  8
DIBUJOS
 62
     7
100
AcDbVertex
100
AcDb2dVertex
 10
61.46470091691601
 20
43.53818758360384
 30
0.0
  0
VERTEX
  5
132
330
127
100
AcDbEntity
  8
DIBUJOS
 62
     7
100
AcDbVertex
100
AcDb2dVertex
 10
61.38298525894459
 20
43.63159038263782
 30
0.0
  0
VERTEX
  5
133
330
127
100
AcDbEntity
  8
DIBUJOS
 62
     7
100
AcDbVertex
100
AcDb2dVertex
 10
61.283218054328
 20
43.75022560341062
 30
0.0
  0
VERTEX
  5
134
330
127
100
AcDbEntity
  8
DIBUJOS
 62
     7
100
AcDbVertex
100
AcDb2dVertex
 10
61.20745986276137
 20
43.8552860386451
 30
0.0
  0
VERTEX
  5
135
330
127
100
AcDbEntity
  8
DIBUJOS
 62
     7
100
AcDbVertex
100
AcDb2dVertex
 10
61.09587869934209
 20
44.0290950907779
 30
0.0
  0
VERTEX
  5
136
330
127
100
AcDbEntity
  8
DIBUJOS
 62
     7
100
AcDbVertex
100
AcDb2dVertex
 10
61.03536921142452
 20
44.13197613279819
 30
0.0
  0
VERTEX
  5
137
330
127
100
AcDbEntity
  8
DIBUJOS
 62
     7
100
AcDbVertex
100
AcDb2dVertex
 10
60.94762931391511
 20
44.30263825840552
 30
0.0
  0
VERTEX
  5
138
330
127
100
AcDbEntity
  8
DIBUJOS
 62
     7
100
AcDbVertex
100
AcDb2dVertex
 10
60.90466813122238
 20
44.39341536097989
 30
0.0
  0
VERTEX
  5
139
330
127
100
AcDbEntity
  8
DIBUJOS
 62
     7
100
AcDbVertex
100
AcDb2dVertex
 10
60.79272378710051
 20
44.68874757422212
 30
0.0
  0
VERTEX
  5
13A
330
127
100
AcDbEntity
  8
DIBUJOS
 62
     7
100
AcDbVertex
100
AcDb2dVertex
 10
60.73826622514267
 20
44.87635456351578
 30
0.0
  0
VERTEX
  5
13B
330
127
100
AcDbEntity
  8
DIBUJOS
 62
     7
100
AcDbVertex
100
AcDb2dVertex
 10
60.67743590046139
 20
45.13665360092782
 30
0.0
  0
VERTEX
  5
13C
330
127
100
AcDbEntity
  8
DIBUJOS
 62
     7
100
AcDbVertex
100
AcDb2dVertex
 10
60.62765245785354
 20
45.43409353825034
 30
0.0
  0
VERTEX
  5
13D
330
127
100
AcDbEntity
  8
DIBUJOS
 62
     7
100
AcDbVertex
100
AcDb2dVertex
 10
60.6225711852501
 20
45.46967726333764
 30
0.0
  0
VERTEX
  5
13E
330
127
100
AcDbEntity
  8
DIBUJOS
 62
     7
100
AcDbVertex
100
AcDb2dVertex
 10
60.58005949974907
 20
45.85103849901935
 30
0.0
  0
VERTEX
  5
13F
330
127
100
AcDbEntity
  8
DIBUJOS
 62
     7
100
AcDbVertex
100
AcDb2dVertex
 10
60.56180763370267
 20
46.09923196814218
 30
0.0
  0
VERTEX
  5
140
330
127
100
AcDbEntity
  8
DIBUJOS
 62
     7
100
AcDbVertex
100
AcDb2dVertex
 10
60.53434758967561
 20
46.65014934438457
 30
0.0
  0
VERTEX
  5
141
330
127
100
AcDbEntity
  8
DIBUJOS
 62
     7
100
AcDbVertex
100
AcDb2dVertex
 10
60.53434758967561
 20
46.93458784924113
 30
0.0
  0
VERTEX
  5
142
330
127
100
AcDbEntity
  8
DIBUJOS
 62
     7
100
AcDbVertex
100
AcDb2dVertex
 10
60.54968912426605
 20
47.32209308432903
 30
0.0
  0
VERTEX
  5
143
330
127
100
AcDbEntity
  8
DIBUJOS
 62
     7
100
AcDbVertex
100
AcDb2dVertex
 10
60.55531109639031
 20
47.40644439749247
 30
0.0
  0
VERTEX
  5
144
330
127
100
AcDbEntity
  8
DIBUJOS
 62
     7
100
AcDbVertex
100
AcDb2dVertex
 10
60.58626451533206
 20
47.75195151998992
 30
0.0
  0
VERTEX
  5
145
330
127
100
AcDbEntity
  8
DIBUJOS
 62
     7
100
AcDbVertex
100
AcDb2dVertex
 10
60.65781925670952
 20
48.19901706321384
 30
0.0
  0
VERTEX
  5
146
330
127
100
AcDbEntity
  8
DIBUJOS
 62
     7
100
AcDbVertex
100
AcDb2dVertex
 10
60.73011501700835
 20
48.4893780446983
 30
0.0
  0
VERTEX
  5
147
330
127
100
AcDbEntity
  8
DIBUJOS
 62
     7
100
AcDbVertex
100
AcDb2dVertex
 10
60.77852228161939
 20
48.67093550753553
 30
0.0
  0
VERTEX
  5
148
330
127
100
AcDbEntity
  8
DIBUJOS
 62
     7
100
AcDbVertex
100
AcDb2dVertex
 10
60.81995419669267
 20
48.77979766456622
 30
0.0
  0
VERTEX
  5
149
330
127
100
AcDbEntity
  8
DIBUJOS
 62
     7
100
AcDbVertex
100
AcDb2dVertex
 10
60.86896730534512
 20
48.89478101718723
 30
0.0
  0
VERTEX
  5
14A
330
127
100
AcDbEntity
  8
DIBUJOS
 62
     7
100
AcDbVertex
100
AcDb2dVertex
 10
61.0077202482879
 20
49.21520394274476
 30
0.0
  0
VERTEX
  5
14B
330
127
100
AcDbEntity
  8
DIBUJOS
 62
     7
100
AcDbVertex
100
AcDb2dVertex
 10
61.03512654808537
 20
49.25353715643172
 30
0.0
  0
VERTEX
  5
14C
330
127
100
AcDbEntity
  8
DIBUJOS
 62
     7
100
AcDbVertex
100
AcDb2dVertex
 10
61.27256855383022
 20
49.60950471482175
 30
0.0
  0
VERTEX
  5
14D
330
127
100
AcDbEntity
  8
DIBUJOS
 62
     7
100
AcDbVertex
100
AcDb2dVertex
 10
61.32097581844157
 20
49.6579204726032
 30
0.0
  0
VERTEX
  5
14E
330
127
100
AcDbEntity
  8
DIBUJOS
 62
     7
100
AcDbVertex
100
AcDb2dVertex
 10
61.35852186286323
 20
49.68669237226186
 30
0.0
  0
VERTEX
  5
14F
330
127
100
AcDbEntity
  8
DIBUJOS
 62
     7
100
AcDbVertex
100
AcDb2dVertex
 10
61.65284969256973
 20
49.93165095728579
 30
0.0
  0
VERTEX
  5
150
330
127
100
AcDbEntity
  8
DIBUJOS
 62
     7
100
AcDbVertex
100
AcDb2dVertex
 10
62.07190484994319
 20
50.14085967513877
 30
0.0
  0
VERTEX
  5
151
330
127
100
AcDbEntity
  8
DIBUJOS
 62
     7
100
AcDbVertex
100
AcDb2dVertex
 10
62.25336328333593
 20
50.1943997760096
 30
0.0
  0
VERTEX
  5
152
330
127
100
AcDbEntity
  8
DIBUJOS
 62
     7
100
AcDbVertex
100
AcDb2dVertex
 10
62.53669146074664
 20
50.27129424153753
 30
0.0
  0
VERTEX
  5
153
330
127
100
AcDbEntity
  8
DIBUJOS
 62
     7
100
AcDbVertex
100
AcDb2dVertex
 10
62.63440498435305
 20
50.29687360704023
 30
0.0
  0
VERTEX
  5
154
330
127
100
AcDbEntity
  8
DIBUJOS
 62
     7
100
AcDbVertex
100
AcDb2dVertex
 10
63.17217137292099
 20
50.37449127928492
 30
0.0
  0
VERTEX
  5
155
330
127
100
AcDbEntity
  8
DIBUJOS
 62
     7
100
AcDbVertex
100
AcDb2dVertex
 10
63.46926621613764
 20
50.3994875186511
 30
0.0
  0
VERTEX
  5
156
330
127
100
AcDbEntity
  8
DIBUJOS
 62
     7
100
AcDbVertex
100
AcDb2dVertex
 10
63.80773434435925
 20
50.42324909429753
 30
0.0
  0
VERTEX
  5
157
330
127
100
AcDbEntity
  8
DIBUJOS
 62
     7
100
AcDbVertex
100
AcDb2dVertex
 10
64.24971222990295
 20
50.43564133912324
 30
0.0
  0
VERTEX
  5
158
330
127
100
AcDbEntity
  8
DIBUJOS
 62
     7
100
AcDbVertex
100
AcDb2dVertex
 10
64.56425277572433
 20
50.44157684650315
 30
0.0
  0
VERTEX
  5
159
330
127
100
AcDbEntity
  8
DIBUJOS
 62
     7
100
AcDbVertex
100
AcDb2dVertex
 10
65.21775654812309
 20
50.42959181266648
 30
0.0
  0
VERTEX
  5
15A
330
127
100
AcDbEntity
  8
DIBUJOS
 62
     7
100
AcDbVertex
100
AcDb2dVertex
 10
65.67749120135774
 20
50.39950380709065
 30
0.0
  0
VERTEX
  5
15B
330
127
100
AcDbEntity
  8
DIBUJOS
 62
     7
100
AcDbVertex
100
AcDb2dVertex
 10
65.84691907041652
 20
50.38739823880145
 30
0.0
  0
VERTEX
  5
15C
330
127
100
AcDbEntity
  8
DIBUJOS
 62
     7
100
AcDbVertex
100
AcDb2dVertex
 10
66.05926577823072
 20
50.36247692625732
 30
0.0
  0
VERTEX
  5
15D
330
127
100
AcDbEntity
  8
DIBUJOS
 62
     7
100
AcDbVertex
100
AcDb2dVertex
 10
66.17956002127457
 20
50.34528936482168
 30
0.0
  0
VERTEX
  5
15E
330
127
100
AcDbEntity
  8
DIBUJOS
 62
     7
100
AcDbVertex
100
AcDb2dVertex
 10
66.54956786912251
 20
50.28944933628349
 30
0.0
  0
VERTEX
  5
15F
330
127
100
AcDbEntity
  8
DIBUJOS
 62
     7
100
AcDbVertex
100
AcDb2dVertex
 10
67.06881367049671
 20
50.14630327164375
 30
0.0
  0
VERTEX
  5
160
330
127
100
AcDbEntity
  8
DIBUJOS
 62
     7
100
AcDbVertex
100
AcDb2dVertex
 10
67.42582192926795
 20
49.97140778059138
 30
0.0
  0
VERTEX
  5
161
330
127
100
AcDbEntity
  8
DIBUJOS
 62
     7
100
AcDbVertex
100
AcDb2dVertex
 10
67.51207164586971
 20
49.92559817314119
 30
0.0
  0
VERTEX
  5
162
330
127
100
AcDbEntity
  8
DIBUJOS
 62
     7
100
AcDbVertex
100
AcDb2dVertex
 10
67.6455446254217
 20
49.81676533530207
 30
0.0
  0
VERTEX
  5
163
330
127
100
AcDbEntity
  8
DIBUJOS
 62
     7
100
AcDbVertex
100
AcDb2dVertex
 10
67.8863024872624
 20
49.60950471482175
 30
0.0
  0
VERTEX
  5
164
330
127
100
AcDbEntity
  8
DIBUJOS
 62
     7
100
AcDbVertex
100
AcDb2dVertex
 10
68.16948897534085
 20
49.18527230618872
 30
0.0
  0
VERTEX
  5
165
330
127
100
AcDbEntity
  8
DIBUJOS
 62
     7
100
AcDbVertex
100
AcDb2dVertex
 10
68.26872525211539
 20
48.95045816132963
 30
0.0
  0
VERTEX
  5
166
330
127
100
AcDbEntity
  8
DIBUJOS
 62
     7
100
AcDbVertex
100
AcDb2dVertex
 10
68.37429683351351
 20
48.70119291288317
 30
0.0
  0
VERTEX
  5
167
330
127
100
AcDbEntity
  8
DIBUJOS
 62
     7
100
AcDbVertex
100
AcDb2dVertex
 10
68.42697595006048
 20
48.50255213462393
 30
0.0
  0
VERTEX
  5
168
330
127
100
AcDbEntity
  8
DIBUJOS
 62
     7
100
AcDbVertex
100
AcDb2dVertex
 10
68.50105178438344
 20
48.22322168441656
 30
0.0
  0
VERTEX
  5
169
330
127
100
AcDbEntity
  8
DIBUJOS
 62
     7
100
AcDbVertex
100
AcDb2dVertex
 10
68.5543644313926
 20
47.89118835913294
 30
0.0
  0
VERTEX
  5
16A
330
127
100
AcDbEntity
  8
DIBUJOS
 62
     7
100
AcDbVertex
100
AcDb2dVertex
 10
68.58544162492329
 20
47.67875127255643
 30
0.0
  0
VERTEX
  5
16B
330
127
100
AcDbEntity
  8
DIBUJOS
 62
     7
100
AcDbVertex
100
AcDb2dVertex
 10
68.61519801329969
 20
47.29791126694155
 30
0.0
  0
VERTEX
  5
16C
330
127
100
AcDbEntity
  8
DIBUJOS
 62
     7
100
AcDbVertex
100
AcDb2dVertex
 10
68.63057537737674
 20
46.84380911782252
 30
0.0
  0
VERTEX
  5
16D
330
127
100
AcDbEntity
  8
DIBUJOS
 62
     7
100
AcDbVertex
100
AcDb2dVertex
 10
68.61523384278598
 20
46.29895755647708
 30
0.0
  0
VERTEX
  5
16E
330
127
100
AcDbEntity
  8
DIBUJOS
 62
     7
100
AcDbVertex
100
AcDb2dVertex
 10
68.60961024204882
 20
46.21460624331299
 30
0.0
  0
VERTEX
  5
16F
330
127
100
AcDbEntity
  8
DIBUJOS
 62
     7
100
AcDbVertex
100
AcDb2dVertex
 10
68.57341920365452
 20
45.76079728610679
 30
0.0
  0
VERTEX
  5
170
330
127
100
AcDbEntity
  8
DIBUJOS
 62
     7
100
AcDbVertex
100
AcDb2dVertex
 10
68.56131860896153
 20
45.63976114934085
 30
0.0
  0
VERTEX
  5
171
330
127
100
AcDbEntity
  8
DIBUJOS
 62
     7
100
AcDbVertex
100
AcDb2dVertex
 10
68.51306443397377
 20
45.28279673844924
 30
0.0
  0
VERTEX
  5
172
330
127
100
AcDbEntity
  8
DIBUJOS
 62
     7
100
AcDbVertex
100
AcDb2dVertex
 10
68.50105178438344
 20
45.21021870940739
 30
0.0
  0
VERTEX
  5
173
330
127
100
AcDbEntity
  8
DIBUJOS
 62
     7
100
AcDbVertex
100
AcDb2dVertex
 10
68.42907686084828
 20
44.89571826047808
 30
0.0
  0
VERTEX
  5
174
330
127
100
AcDbEntity
  8
DIBUJOS
 62
     7
100
AcDbVertex
100
AcDb2dVertex
 10
68.38462061140854
 20
44.74328452759421
 30
0.0
  0
VERTEX
  5
175
330
127
100
AcDbEntity
  8
DIBUJOS
 62
     7
100
AcDbVertex
100
AcDb2dVertex
 10
68.32984058407375
 20
44.57981211921361
 30
0.0
  0
VERTEX
  5
176
330
127
100
AcDbEntity
  8
DIBUJOS
 62
     7
100
AcDbVertex
100
AcDb2dVertex
 10
68.28687777276812
 20
44.46482713774836
 30
0.0
  0
VERTEX
  5
177
330
127
100
AcDbEntity
  8
DIBUJOS
 62
     7
100
AcDbVertex
100
AcDb2dVertex
 10
68.17796102023887
 20
44.22880601951685
 30
0.0
  0
VERTEX
  5
178
330
127
100
AcDbEntity
  8
DIBUJOS
 62
     7
100
AcDbVertex
100
AcDb2dVertex
 10
68.17190909427978
 20
44.21670208007156
 30
0.0
  0
VERTEX
  5
179
330
127
100
AcDbEntity
  8
DIBUJOS
 62
     7
100
AcDbVertex
100
AcDb2dVertex
 10
68.00587036890234
 20
43.92790804647351
 30
0.0
  0
VERTEX
  5
17A
330
127
100
AcDbEntity
  8
DIBUJOS
 62
     7
100
AcDbVertex
100
AcDb2dVertex
 10
67.97706834775184
 20
43.89050653152961
 30
0.0
  0
SEQEND
  5
17B
330
127
100
AcDbEntity
  8
DIBUJOS
 62
     7
  0
POLYLINE
  5
17C
330
52
100
AcDbEntity
  8
DIBUJOS
 62
     7
100
AcDb2dPolyline
 66
     1
 10
0.0
 20
0.0
 30
0.0
  0
VERTEX
  5
17D
330
17C
100
AcDbEntity
  8
DIBUJOS
 62
     7
100
AcDbVertex
100
AcDb2dVertex
 10
61.87766669023085
 20
42.63777404601347
 30
0.0
  0
VERTEX
  5
17E
330
17C
100
AcDbEntity
  8
DIBUJOS
 62
     7
100
AcDbVertex
100
AcDb2dVertex
 10
61.87161639288404
 20
42.63777404601347
 30
0.0
  0
SEQEND
  5
17F
330
17C
100
AcDbEntity
  8
DIBUJOS
 62
     7
  0
POLYLINE
  5
180
330
52
100
AcDbEntity
  8
DIBUJOS
 62
     7
100
AcDb2dPolyline
 66
     1
 10
0.0
 20
0.0
 30
0.0
  0
VERTEX
  5
181
330
180
100
AcDbEntity
  8
DIBUJOS
 62
     7
100
AcDbVertex
100
AcDb2dVertex
 10
61.88371861619027
 20
42.63777404601347
 30
0.0
  0
VERTEX
  5
182
330
180
100
AcDbEntity
  8
DIBUJOS
 62
     7
100
AcDbVertex
100
AcDb2dVertex
 10
61.87766669023085
 20
42.63777404601347
 30
0.0
  0
SEQEND
  5
183
330
180
100
AcDbEntity
  8
DIBUJOS
 62
     7
  0
POLYLINE
  5
184
330
52
100
AcDbEntity
  8
DIBUJOS
 62
     7
100
AcDb2dPolyline
 66
     1
 10
0.0
 20
0.0
 30
0.0
  0
VERTEX
  5
185
330
184
100
AcDbEntity
  8
DIBUJOS
 62
     7
100
AcDbVertex
100
AcDb2dVertex
 10
62.57353068712029
 20
42.63777404601347
 30
0.0
  0
VERTEX
  5
186
330
184
100
AcDbEntity
  8
DIBUJOS
 62
     7
100
AcDbVertex
100
AcDb2dVertex
 10
62.57353068712029
 20
42.64382520131447
 30
0.0
  0
VERTEX
  5
187
330
184
100
AcDbEntity
  8
DIBUJOS
 62
     7
100
AcDbVertex
100
AcDb2dVertex
 10
62.55598401050899
 20
42.65713937182002
 30
0.0
  0
VERTEX
  5
188
330
184
100
AcDbEntity
  8
DIBUJOS
 62
     7
100
AcDbVertex
100
AcDb2dVertex
 10
62.54932786912106
 20
42.66198192490435
 30
0.0
  0
SEQEND
  5
189
330
184
100
AcDbEntity
  8
DIBUJOS
 62
     7
  0
POLYLINE
  5
18A
330
52
100
AcDbEntity
  8
DIBUJOS
 62
     7
100
AcDb2dPolyline
 66
     1
 10
0.0
 20
0.0
 30
0.0
  0
VERTEX
  5
18B
330
18A
100
AcDbEntity
  8
DIBUJOS
 62
     7
100
AcDbVertex
100
AcDb2dVertex
 10
66.77292074368415
 20
42.63777404601347
 30
0.0
  0
VERTEX
  5
18C
330
18A
100
AcDbEntity
  8
DIBUJOS
 62
     7
100
AcDbVertex
100
AcDb2dVertex
 10
66.77292074368415
 20
42.64987798545907
 30
0.0
  0
VERTEX
  5
18D
330
18A
100
AcDbEntity
  8
DIBUJOS
 62
     7
100
AcDbVertex
100
AcDb2dVertex
 10
66.78441712294895
 20
42.65713937182002
 30
0.0
  0
VERTEX
  5
18E
330
18A
100
AcDbEntity
  8
DIBUJOS
 62
     7
100
AcDbVertex
100
AcDb2dVertex
 10
66.79107326433689
 20
42.66198192490435
 30
0.0
  0
SEQEND
  5
18F
330
18A
100
AcDbEntity
  8
DIBUJOS
 62
     7
  0
POLYLINE
  5
190
330
52
100
AcDbEntity
  8
DIBUJOS
 62
     7
100
AcDb2dPolyline
 66
     1
 10
0.0
 20
0.0
 30
0.0
  0
VERTEX
  5
191
330
190
100
AcDbEntity
  8
DIBUJOS
 62
     7
100
AcDbVertex
100
AcDb2dVertex
 10
61.87766669023085
 20
42.63172289071311
 30
0.0
  0
VERTEX
  5
192
330
190
100
AcDbEntity
  8
DIBUJOS
 62
     7
100
AcDbVertex
100
AcDb2dVertex
 10
61.87766669023085
 20
42.63777404601347
 30
0.0
  0
SEQEND
  5
193
330
190
100
AcDbEntity
  8
DIBUJOS
 62
     7
  0
POLYLINE
  5
194
330
52
100
AcDbEntity
  8
DIBUJOS
 62
     7
100
AcDb2dPolyline
 66
     1
 10
0.0
 20
0.0
 30
0.0
  0
VERTEX
  5
195
330
194
100
AcDbEntity
  8
DIBUJOS
 62
     7
100
AcDbVertex
100
AcDb2dVertex
 10
61.89582083949617
 20
42.63172289071311
 30
0.0
  0
VERTEX
  5
196
330
194
100
AcDbEntity
  8
DIBUJOS
 62
     7
100
AcDbVertex
100
AcDb2dVertex
 10
61.88371861619027
 20
42.63777404601347
 30
0.0
  0
SEQEND
  5
197
330
194
100
AcDbEntity
  8
DIBUJOS
 62
     7
  0
POLYLINE
  5
198
330
52
100
AcDbEntity
  8
DIBUJOS
 62
     7
100
AcDb2dPolyline
 66
     1
 10
0.0
 20
0.0
 30
0.0
  0
VERTEX
  5
199
330
198
100
AcDbEntity
  8
DIBUJOS
 62
     7
100
AcDbVertex
100
AcDb2dVertex
 10
62.57353068712029
 20
42.63172289071311
 30
0.0
  0
VERTEX
  5
19A
330
198
100
AcDbEntity
  8
DIBUJOS
 62
     7
100
AcDbVertex
100
AcDb2dVertex
 10
62.57353068712029
 20
42.63777404601347
 30
0.0
  0
SEQEND
  5
19B
330
198
100
AcDbEntity
  8
DIBUJOS
 62
     7
  0
POLYLINE
  5
19C
330
52
100
AcDbEntity
  8
DIBUJOS
 62
     7
100
AcDb2dPolyline
 66
     1
 10
0.0
 20
0.0
 30
0.0
  0
VERTEX
  5
19D
330
19C
100
AcDbEntity
  8
DIBUJOS
 62
     7
100
AcDbVertex
100
AcDb2dVertex
 10
62.57958261308001
 20
42.63172289071311
 30
0.0
  0
VERTEX
  5
19E
330
19C
100
AcDbEntity
  8
DIBUJOS
 62
     7
100
AcDbVertex
100
AcDb2dVertex
 10
62.57353068712029
 20
42.63172289071311
 30
0.0
  0
SEQEND
  5
19F
330
19C
100
AcDbEntity
  8
DIBUJOS
 62
     7
  0
POLYLINE
  5
1A0
330
52
100
AcDbEntity
  8
DIBUJOS
 62
     7
100
AcDb2dPolyline
 66
     1
 10
0.0
 20
0.0
 30
0.0
  0
VERTEX
  5
1A1
330
1A0
100
AcDbEntity
  8
DIBUJOS
 62
     7
100
AcDbVertex
100
AcDb2dVertex
 10
66.77292074368415
 20
42.63172289071311
 30
0.0
  0
VERTEX
  5
1A2
330
1A0
100
AcDbEntity
  8
DIBUJOS
 62
     7
100
AcDbVertex
100
AcDb2dVertex
 10
66.76686881772443
 20
42.63172289071311
 30
0.0
  0
SEQEND
  5
1A3
330
1A0
100
AcDbEntity
  8
DIBUJOS
 62
     7
  0
POLYLINE
  5
1A4
330
52
100
AcDbEntity
  8
DIBUJOS
 62
     7
100
AcDb2dPolyline
 66
     1
 10
0.0
 20
0.0
 30
0.0
  0
VERTEX
  5
1A5
330
1A4
100
AcDbEntity
  8
DIBUJOS
 62
     7
100
AcDbVertex
100
AcDb2dVertex
 10
66.77292074368415
 20
42.63172289071311
 30
0.0
  0
VERTEX
  5
1A6
330
1A4
100
AcDbEntity
  8
DIBUJOS
 62
     7
100
AcDbVertex
100
AcDb2dVertex
 10
66.77292074368415
 20
42.63777404601347
 30
0.0
  0
SEQEND
  5
1A7
330
1A4
100
AcDbEntity
  8
DIBUJOS
 62
     7
  0
POLYLINE
  5
1A8
330
52
100
AcDbEntity
  8
DIBUJOS
 62
     7
100
AcDb2dPolyline
 66
     1
 10
0.0
 20
0.0
 30
0.0
  0
VERTEX
  5
1A9
330
1A8
100
AcDbEntity
  8
DIBUJOS
 62
     7
100
AcDbVertex
100
AcDb2dVertex
 10
67.28120272224918
 20
42.63172289071311
 30
0.0
  0
VERTEX
  5
1AA
330
1A8
100
AcDbEntity
  8
DIBUJOS
 62
     7
100
AcDbVertex
100
AcDb2dVertex
 10
67.48674997072966
 20
42.6466382148284
 30
0.0
  0
VERTEX
  5
1AB
330
1A8
100
AcDbEntity
  8
DIBUJOS
 62
     7
100
AcDbVertex
100
AcDb2dVertex
 10
67.52231236450113
 20
42.65732668887498
 30
0.0
  0
VERTEX
  5
1AC
330
1A8
100
AcDbEntity
  8
DIBUJOS
 62
     7
100
AcDbVertex
100
AcDb2dVertex
 10
67.53627609248184
 20
42.66663716093372
 30
0.0
  0
VERTEX
  5
1AD
330
1A8
100
AcDbEntity
  8
DIBUJOS
 62
     7
100
AcDbVertex
100
AcDb2dVertex
 10
67.58980371640874
 20
42.7164488379868
 30
0.0
  0
VERTEX
  5
1AE
330
1A8
100
AcDbEntity
  8
DIBUJOS
 62
     7
100
AcDbVertex
100
AcDb2dVertex
 10
67.62378309833021
 20
42.80163900578842
 30
0.0
  0
VERTEX
  5
1AF
330
1A8
100
AcDbEntity
  8
DIBUJOS
 62
     7
100
AcDbVertex
100
AcDb2dVertex
 10
67.63521596168762
 20
42.86777332813524
 30
0.0
  0
VERTEX
  5
1B0
330
1A8
100
AcDbEntity
  8
DIBUJOS
 62
     7
100
AcDbVertex
100
AcDb2dVertex
 10
67.63821260963333
 20
43.47898073460643
 30
0.0
  0
VERTEX
  5
1B1
330
1A8
100
AcDbEntity
  8
DIBUJOS
 62
     7
100
AcDbVertex
100
AcDb2dVertex
 10
67.75318128812167
 20
43.60606965551697
 30
0.0
  0
SEQEND
  5
1B2
330
1A8
100
AcDbEntity
  8
DIBUJOS
 62
     7
  0
POLYLINE
  5
1B3
330
52
100
AcDbEntity
  8
DIBUJOS
 62
     7
100
AcDb2dPolyline
 66
     1
 10
0.0
 20
0.0
 30
0.0
  0
VERTEX
  5
1B4
330
1B3
100
AcDbEntity
  8
DIBUJOS
 62
     7
100
AcDbVertex
100
AcDb2dVertex
 10
61.87766669023085
 20
42.62567010656819
 30
0.0
  0
VERTEX
  5
1B5
330
1B3
100
AcDbEntity
  8
DIBUJOS
 62
     7
100
AcDbVertex
100
AcDb2dVertex
 10
61.87766669023085
 20
42.63172289071311
 30
0.0
  0
SEQEND
  5
1B6
330
1B3
100
AcDbEntity
  8
DIBUJOS
 62
     7
  0
POLYLINE
  5
1B7
330
52
100
AcDbEntity
  8
DIBUJOS
 62
     7
100
AcDb2dPolyline
 66
     1
 10
0.0
 20
0.0
 30
0.0
  0
VERTEX
  5
1B8
330
1B7
100
AcDbEntity
  8
DIBUJOS
 62
     7
100
AcDbVertex
100
AcDb2dVertex
 10
61.89582083949617
 20
42.62567010656819
 30
0.0
  0
VERTEX
  5
1B9
330
1B7
100
AcDbEntity
  8
DIBUJOS
 62
     7
100
AcDbVertex
100
AcDb2dVertex
 10
61.89582083949617
 20
42.63172289071311
 30
0.0
  0
SEQEND
  5
1BA
330
1B7
100
AcDbEntity
  8
DIBUJOS
 62
     7
  0
POLYLINE
  5
1BB
330
52
100
AcDbEntity
  8
DIBUJOS
 62
     7
100
AcDb2dPolyline
 66
     1
 10
0.0
 20
0.0
 30
0.0
  0
VERTEX
  5
1BC
330
1BB
100
AcDbEntity
  8
DIBUJOS
 62
     7
100
AcDbVertex
100
AcDb2dVertex
 10
61.90187113684267
 20
42.62567010656819
 30
0.0
  0
VERTEX
  5
1BD
330
1BB
100
AcDbEntity
  8
DIBUJOS
 62
     7
100
AcDbVertex
100
AcDb2dVertex
 10
61.89582083949617
 20
42.62567010656819
 30
0.0
  0
SEQEND
  5
1BE
330
1BB
100
AcDbEntity
  8
DIBUJOS
 62
     7
  0
POLYLINE
  5
1BF
330
52
100
AcDbEntity
  8
DIBUJOS
 62
     7
100
AcDb2dPolyline
 66
     1
 10
0.0
 20
0.0
 30
0.0
  0
VERTEX
  5
1C0
330
1BF
100
AcDbEntity
  8
DIBUJOS
 62
     7
100
AcDbVertex
100
AcDb2dVertex
 10
61.90187113684267
 20
42.62567010656819
 30
0.0
  0
VERTEX
  5
1C1
330
1BF
100
AcDbEntity
  8
DIBUJOS
 62
     7
100
AcDbVertex
100
AcDb2dVertex
 10
62.56748038977379
 20
42.62567010656819
 30
0.0
  0
VERTEX
  5
1C2
330
1BF
100
AcDbEntity
  8
DIBUJOS
 62
     7
100
AcDbVertex
100
AcDb2dVertex
 10
62.57353068712029
 20
42.63172289071311
 30
0.0
  0
SEQEND
  5
1C3
330
1BF
100
AcDbEntity
  8
DIBUJOS
 62
     7
  0
POLYLINE
  5
1C4
330
52
100
AcDbEntity
  8
DIBUJOS
 62
     7
100
AcDb2dPolyline
 66
     1
 10
0.0
 20
0.0
 30
0.0
  0
VERTEX
  5
1C5
330
1C4
100
AcDbEntity
  8
DIBUJOS
 62
     7
100
AcDbVertex
100
AcDb2dVertex
 10
62.57958261308001
 20
42.63172289071311
 30
0.0
  0
VERTEX
  5
1C6
330
1C4
100
AcDbEntity
  8
DIBUJOS
 62
     7
100
AcDbVertex
100
AcDb2dVertex
 10
62.58563291042651
 20
42.62567010656819
 30
0.0
  0
VERTEX
  5
1C7
330
1C4
100
AcDbEntity
  8
DIBUJOS
 62
     7
100
AcDbVertex
100
AcDb2dVertex
 10
66.62769569262396
 20
42.62567010656819
 30
0.0
  0
VERTEX
  5
1C8
330
1C4
100
AcDbEntity
  8
DIBUJOS
 62
     7
100
AcDbVertex
100
AcDb2dVertex
 10
66.63374761858368
 20
42.63172289071311
 30
0.0
  0
VERTEX
  5
1C9
330
1C4
100
AcDbEntity
  8
DIBUJOS
 62
     7
100
AcDbVertex
100
AcDb2dVertex
 10
66.69425710650127
 20
42.63172289071311
 30
0.0
  0
VERTEX
  5
1CA
330
1C4
100
AcDbEntity
  8
DIBUJOS
 62
     7
100
AcDbVertex
100
AcDb2dVertex
 10
66.70030740384776
 20
42.62567010656819
 30
0.0
  0
VERTEX
  5
1CB
330
1C4
100
AcDbEntity
  8
DIBUJOS
 62
     7
100
AcDbVertex
100
AcDb2dVertex
 10
66.76081852037794
 20
42.62567010656819
 30
0.0
  0
VERTEX
  5
1CC
330
1C4
100
AcDbEntity
  8
DIBUJOS
 62
     7
100
AcDbVertex
100
AcDb2dVertex
 10
66.76686881772443
 20
42.63172289071311
 30
0.0
  0
SEQEND
  5
1CD
330
1C4
100
AcDbEntity
  8
DIBUJOS
 62
     7
  0
POLYLINE
  5
1CE
330
52
100
AcDbEntity
  8
DIBUJOS
 62
     7
100
AcDb2dPolyline
 66
     1
 10
0.0
 20
0.0
 30
0.0
  0
VERTEX
  5
1CF
330
1CE
100
AcDbEntity
  8
DIBUJOS
 62
     7
100
AcDbVertex
100
AcDb2dVertex
 10
67.27515242490269
 20
42.62567010656819
 30
0.0
  0
VERTEX
  5
1D0
330
1CE
100
AcDbEntity
  8
DIBUJOS
 62
     7
100
AcDbVertex
100
AcDb2dVertex
 10
66.77897104103066
 20
42.62567010656819
 30
0.0
  0
VERTEX
  5
1D1
330
1CE
100
AcDbEntity
  8
DIBUJOS
 62
     7
100
AcDbVertex
100
AcDb2dVertex
 10
66.77292074368415
 20
42.63172289071311
 30
0.0
  0
SEQEND
  5
1D2
330
1CE
100
AcDbEntity
  8
DIBUJOS
 62
     7
  0
POLYLINE
  5
1D3
330
52
100
AcDbEntity
  8
DIBUJOS
 62
     7
100
AcDb2dPolyline
 66
     1
 10
0.0
 20
0.0
 30
0.0
  0
VERTEX
  5
1D4
330
1D3
100
AcDbEntity
  8
DIBUJOS
 62
     7
100
AcDbVertex
100
AcDb2dVertex
 10
67.28120272224918
 20
42.62567010656819
 30
0.0
  0
VERTEX
  5
1D5
330
1D3
100
AcDbEntity
  8
DIBUJOS
 62
     7
100
AcDbVertex
100
AcDb2dVertex
 10
67.27515242490269
 20
42.62567010656819
 30
0.0
  0
SEQEND
  5
1D6
330
1D3
100
AcDbEntity
  8
DIBUJOS
 62
     7
  0
POLYLINE
  5
1D7
330
52
100
AcDbEntity
  8
DIBUJOS
 62
     7
100
AcDb2dPolyline
 66
     1
 10
0.0
 20
0.0
 30
0.0
  0
VERTEX
  5
1D8
330
1D7
100
AcDbEntity
  8
DIBUJOS
 62
     7
100
AcDbVertex
100
AcDb2dVertex
 10
67.28120272224918
 20
42.62567010656819
 30
0.0
  0
VERTEX
  5
1D9
330
1D7
100
AcDbEntity
  8
DIBUJOS
 62
     7
100
AcDbVertex
100
AcDb2dVertex
 10
67.28120272224918
 20
42.63172289071311
 30
0.0
  0
SEQEND
  5
1DA
330
1D7
100
AcDbEntity
  8
DIBUJOS
 62
     7
  0
POLYLINE
  5
1DB
330
52
100
AcDbEntity
  8
DIBUJOS
 62
     7
100
AcDb2dPolyline
 66
     1
 10
0.0
 20
0.0
 30
0.0
  0
VERTEX
  5
1DC
330
1DB
100
AcDbEntity
  8
DIBUJOS
 62
     7
100
AcDbVertex
100
AcDb2dVertex
 10
61.87766669023085
 20
42.61961895126751
 30
0.0
  0
VERTEX
  5
1DD
330
1DB
100
AcDbEntity
  8
DIBUJOS
 62
     7
100
AcDbVertex
100
AcDb2dVertex
 10
61.87161639288404
 20
42.61961895126751
 30
0.0
  0
SEQEND
  5
1DE
330
1DB
100
AcDbEntity
  8
DIBUJOS
 62
     7
  0
POLYLINE
  5
1DF
330
52
100
AcDbEntity
  8
DIBUJOS
 62
     7
100
AcDb2dPolyline
 66
     1
 10
0.0
 20
0.0
 30
0.0
  0
VERTEX
  5
1E0
330
1DF
100
AcDbEntity
  8
DIBUJOS
 62
     7
100
AcDbVertex
100
AcDb2dVertex
 10
61.87766669023085
 20
42.61961895126751
 30
0.0
  0
VERTEX
  5
1E1
330
1DF
100
AcDbEntity
  8
DIBUJOS
 62
     7
100
AcDbVertex
100
AcDb2dVertex
 10
61.87766669023085
 20
42.62567010656819
 30
0.0
  0
SEQEND
  5
1E2
330
1DF
100
AcDbEntity
  8
DIBUJOS
 62
     7
  0
POLYLINE
  5
1E3
330
52
100
AcDbEntity
  8
DIBUJOS
 62
     7
100
AcDb2dPolyline
 66
     1
 10
0.0
 20
0.0
 30
0.0
  0
VERTEX
  5
1E4
330
1E3
100
AcDbEntity
  8
DIBUJOS
 62
     7
100
AcDbVertex
100
AcDb2dVertex
 10
61.88371861619027
 20
42.61961895126751
 30
0.0
  0
VERTEX
  5
1E5
330
1E3
100
AcDbEntity
  8
DIBUJOS
 62
     7
100
AcDbVertex
100
AcDb2dVertex
 10
61.87766669023085
 20
42.61961895126751
 30
0.0
  0
SEQEND
  5
1E6
330
1E3
100
AcDbEntity
  8
DIBUJOS
 62
     7
  0
POLYLINE
  5
1E7
330
52
100
AcDbEntity
  8
DIBUJOS
 62
     7
100
AcDb2dPolyline
 66
     1
 10
0.0
 20
0.0
 30
0.0
  0
VERTEX
  5
1E8
330
1E7
100
AcDbEntity
  8
DIBUJOS
 62
     7
100
AcDbVertex
100
AcDb2dVertex
 10
61.88371861619027
 20
42.61961895126751
 30
0.0
  0
VERTEX
  5
1E9
330
1E7
100
AcDbEntity
  8
DIBUJOS
 62
     7
100
AcDbVertex
100
AcDb2dVertex
 10
61.89582083949617
 20
42.62567010656819
 30
0.0
  0
SEQEND
  5
1EA
330
1E7
100
AcDbEntity
  8
DIBUJOS
 62
     7
  0
POLYLINE
  5
1EB
330
52
100
AcDbEntity
  8
DIBUJOS
 62
     7
100
AcDb2dPolyline
 66
     1
 10
0.0
 20
0.0
 30
0.0
  0
VERTEX
  5
1EC
330
1EB
100
AcDbEntity
  8
DIBUJOS
 62
     7
100
AcDbVertex
100
AcDb2dVertex
 10
61.87161639288404
 20
42.61961895126751
 30
0.0
  0
VERTEX
  5
1ED
330
1EB
100
AcDbEntity
  8
DIBUJOS
 62
     7
100
AcDbVertex
100
AcDb2dVertex
 10
61.56301539872415
 20
42.61356616712258
 30
0.0
  0
VERTEX
  5
1EE
330
1EB
100
AcDbEntity
  8
DIBUJOS
 62
     7
100
AcDbVertex
100
AcDb2dVertex
 10
61.54486287807175
 20
42.58330713293167
 30
0.0
  0
VERTEX
  5
1EF
330
1EB
100
AcDbEntity
  8
DIBUJOS
 62
     7
100
AcDbVertex
100
AcDb2dVertex
 10
61.54486287807175
 20
42.45016705671949
 30
0.0
  0
VERTEX
  5
1F0
330
1EB
100
AcDbEntity
  8
DIBUJOS
 62
     7
100
AcDbVertex
100
AcDb2dVertex
 10
61.55091317541824
 20
42.43806311727452
 30
0.0
  0
VERTEX
  5
1F1
330
1EB
100
AcDbEntity
  8
DIBUJOS
 62
     7
100
AcDbVertex
100
AcDb2dVertex
 10
61.56846148064277
 20
42.42474894676898
 30
0.0
  0
VERTEX
  5
1F2
330
1EB
100
AcDbEntity
  8
DIBUJOS
 62
     7
100
AcDbVertex
100
AcDb2dVertex
 10
61.57511762203038
 20
42.41990802252856
 30
0.0
  0
VERTEX
  5
1F3
330
1EB
100
AcDbEntity
  8
DIBUJOS
 62
     7
100
AcDbVertex
100
AcDb2dVertex
 10
67.58980371640874
 20
42.41990802252856
 30
0.0
  0
VERTEX
  5
1F4
330
1EB
100
AcDbEntity
  8
DIBUJOS
 62
     7
100
AcDbVertex
100
AcDb2dVertex
 10
67.61400816302087
 20
42.44411427257488
 30
0.0
  0
VERTEX
  5
1F5
330
1EB
100
AcDbEntity
  8
DIBUJOS
 62
     7
100
AcDbVertex
100
AcDb2dVertex
 10
67.61400816302087
 20
42.59541107237663
 30
0.0
  0
VERTEX
  5
1F6
330
1EB
100
AcDbEntity
  8
DIBUJOS
 62
     7
100
AcDbVertex
100
AcDb2dVertex
 10
67.59040956045017
 20
42.61477639818317
 30
0.0
  0
VERTEX
  5
1F7
330
1EB
100
AcDbEntity
  8
DIBUJOS
 62
     7
100
AcDbVertex
100
AcDb2dVertex
 10
67.28120272224918
 20
42.62567010656819
 30
0.0
  0
SEQEND
  5
1F8
330
1EB
100
AcDbEntity
  8
DIBUJOS
 62
     7
  0
ENDBLK
  5
55
330
52
100
AcDbEntity
  8
0
100
AcDbBlockEnd
  0
BLOCK
  5
1FB
330
1F9
100
AcDbEntity
  8
0
100
AcDbBlockBegin
  2
BLOCK_3
 70
     0
 10
0.0
 20
0.0
 30
0.0
  3
BLOCK_3
  1

  0
POLYLINE
  5
1FD
330
1F9
100
AcDbEntity
  8
DIBUJOS
 62
     7
100
AcDb2dPolyline
 66
     1
 10
0.0
 20
0.0
 30
0.0
  0
VERTEX
  5
1FE
330
1FD
100
AcDbEntity
  8
DIBUJOS
 62
     7
100
AcDbVertex
100
AcDb2dVertex
 10
79.77517186976527
 20
50.35993592968394
 30
0.0
  0
VERTEX
  5
1FF
330
1FD
100
AcDbEntity
  8
DIBUJOS
 62
     7
100
AcDbVertex
100
AcDb2dVertex
 10
79.76911994380522
 20
50.35993592968394
 30
0.0
  0
SEQEND
  5
200
330
1FD
100
AcDbEntity
  8
DIBUJOS
 62
     7
  0
POLYLINE
  5
201
330
1F9
100
AcDbEntity
  8
DIBUJOS
 62
     7
100
AcDb2dPolyline
 66
     1
 10
0.0
 20
0.0
 30
0.0
  0
VERTEX
  5
202
330
201
100
AcDbEntity
  8
DIBUJOS
 62
     7
100
AcDbVertex
100
AcDb2dVertex
 10
79.79332439041768
 20
50.35388314553934
 30
0.0
  0
VERTEX
  5
203
330
201
100
AcDbEntity
  8
DIBUJOS
 62
     7
100
AcDbVertex
100
AcDb2dVertex
 10
79.78727246445827
 20
50.35388314553934
 30
0.0
  0
SEQEND
  5
204
330
201
100
AcDbEntity
  8
DIBUJOS
 62
     7
  0
POLYLINE
  5
205
330
1F9
100
AcDbEntity
  8
DIBUJOS
 62
     7
100
AcDb2dPolyline
 66
     1
 10
0.0
 20
0.0
 30
0.0
  0
VERTEX
  5
206
330
205
100
AcDbEntity
  8
DIBUJOS
 62
     7
100
AcDbVertex
100
AcDb2dVertex
 10
79.82962943172312
 20
50.34178083493831
 30
0.0
  0
VERTEX
  5
207
330
205
100
AcDbEntity
  8
DIBUJOS
 62
     7
100
AcDbVertex
100
AcDb2dVertex
 10
79.82357750576371
 20
50.34178083493831
 30
0.0
  0
SEQEND
  5
208
330
205
100
AcDbEntity
  8
DIBUJOS
 62
     7
  0
POLYLINE
  5
209
330
1F9
100
AcDbEntity
  8
DIBUJOS
 62
     7
100
AcDb2dPolyline
 66
     1
 10
0.0
 20
0.0
 30
0.0
  0
VERTEX
  5
20A
330
209
100
AcDbEntity
  8
DIBUJOS
 62
     7
100
AcDbVertex
100
AcDb2dVertex
 10
82.49811836940638
 20
46.82565402307623
 30
0.0
  0
VERTEX
  5
20B
330
209
100
AcDbEntity
  8
DIBUJOS
 62
     7
100
AcDbVertex
100
AcDb2dVertex
 10
82.49811836940638
 20
46.83170680722115
 30
0.0
  0
SEQEND
  5
20C
330
209
100
AcDbEntity
  8
DIBUJOS
 62
     7
  0
POLYLINE
  5
20D
330
1F9
100
AcDbEntity
  8
DIBUJOS
 62
     7
100
AcDb2dPolyline
 66
     1
 10
0.0
 20
0.0
 30
0.0
  0
VERTEX
  5
20E
330
20D
100
AcDbEntity
  8
DIBUJOS
 62
     7
100
AcDbVertex
100
AcDb2dVertex
 10
82.50417029536644
 20
46.82565402307623
 30
0.0
  0
VERTEX
  5
20F
330
20D
100
AcDbEntity
  8
DIBUJOS
 62
     7
100
AcDbVertex
100
AcDb2dVertex
 10
82.49811836940638
 20
46.82565402307623
 30
0.0
  0
SEQEND
  5
210
330
20D
100
AcDbEntity
  8
DIBUJOS
 62
     7
  0
POLYLINE
  5
211
330
1F9
100
AcDbEntity
  8
DIBUJOS
 62
     7
100
AcDb2dPolyline
 66
     1
 10
0.0
 20
0.0
 30
0.0
  0
VERTEX
  5
212
330
211
100
AcDbEntity
  8
DIBUJOS
 62
     7
100
AcDbVertex
100
AcDb2dVertex
 10
82.49811836940638
 20
46.81960123893195
 30
0.0
  0
VERTEX
  5
213
330
211
100
AcDbEntity
  8
DIBUJOS
 62
     7
100
AcDbVertex
100
AcDb2dVertex
 10
82.49811836940638
 20
46.82565402307623
 30
0.0
  0
SEQEND
  5
214
330
211
100
AcDbEntity
  8
DIBUJOS
 62
     7
  0
POLYLINE
  5
215
330
1F9
100
AcDbEntity
  8
DIBUJOS
 62
     7
100
AcDb2dPolyline
 66
     1
 10
0.0
 20
0.0
 30
0.0
  0
VERTEX
  5
216
330
215
100
AcDbEntity
  8
DIBUJOS
 62
     7
100
AcDbVertex
100
AcDb2dVertex
 10
85.27552243100598
 20
46.69251231802141
 30
0.0
  0
VERTEX
  5
217
330
215
100
AcDbEntity
  8
DIBUJOS
 62
     7
100
AcDbVertex
100
AcDb2dVertex
 10
85.23921738970053
 20
46.71672019691198
 30
0.0
  0
SEQEND
  5
218
330
215
100
AcDbEntity
  8
DIBUJOS
 62
     7
  0
POLYLINE
  5
219
330
1F9
100
AcDbEntity
  8
DIBUJOS
 62
     7
100
AcDb2dPolyline
 66
     1
 10
0.0
 20
0.0
 30
0.0
  0
VERTEX
  5
21A
330
219
100
AcDbEntity
  8
DIBUJOS
 62
     7
100
AcDbVertex
100
AcDb2dVertex
 10
85.30577880357784
 20
46.67435722327513
 30
0.0
  0
VERTEX
  5
21B
330
219
100
AcDbEntity
  8
DIBUJOS
 62
     7
100
AcDbVertex
100
AcDb2dVertex
 10
85.28762628292544
 20
46.68646279156433
 30
0.0
  0
SEQEND
  5
21C
330
219
100
AcDbEntity
  8
DIBUJOS
 62
     7
  0
POLYLINE
  5
21D
330
1F9
100
AcDbEntity
  8
DIBUJOS
 62
     7
100
AcDb2dPolyline
 66
     1
 10
0.0
 20
0.0
 30
0.0
  0
VERTEX
  5
21E
330
21D
100
AcDbEntity
  8
DIBUJOS
 62
     7
100
AcDbVertex
100
AcDb2dVertex
 10
82.52837148475243
 20
46.65014934438457
 30
0.0
  0
VERTEX
  5
21F
330
21D
100
AcDbEntity
  8
DIBUJOS
 62
     7
100
AcDbVertex
100
AcDb2dVertex
 10
82.49811836940638
 20
46.81960123893195
 30
0.0
  0
SEQEND
  5
220
330
21D
100
AcDbEntity
  8
DIBUJOS
 62
     7
  0
POLYLINE
  5
221
330
1F9
100
AcDbEntity
  8
DIBUJOS
 62
     7
100
AcDb2dPolyline
 66
     1
 10
0.0
 20
0.0
 30
0.0
  0
VERTEX
  5
222
330
221
100
AcDbEntity
  8
DIBUJOS
 62
     7
100
AcDbVertex
100
AcDb2dVertex
 10
82.52837148475243
 20
46.64409981792781
 30
0.0
  0
VERTEX
  5
223
330
221
100
AcDbEntity
  8
DIBUJOS
 62
     7
100
AcDbVertex
100
AcDb2dVertex
 10
82.52837148475243
 20
46.65014934438457
 30
0.0
  0
SEQEND
  5
224
330
221
100
AcDbEntity
  8
DIBUJOS
 62
     7
  0
POLYLINE
  5
225
330
1F9
100
AcDbEntity
  8
DIBUJOS
 62
     7
100
AcDb2dPolyline
 66
     1
 10
0.0
 20
0.0
 30
0.0
  0
VERTEX
  5
226
330
225
100
AcDbEntity
  8
DIBUJOS
 62
     7
100
AcDbVertex
100
AcDb2dVertex
 10
82.53442341071182
 20
46.64409981792781
 30
0.0
  0
VERTEX
  5
227
330
225
100
AcDbEntity
  8
DIBUJOS
 62
     7
100
AcDbVertex
100
AcDb2dVertex
 10
82.52837148475243
 20
46.64409981792781
 30
0.0
  0
SEQEND
  5
228
330
225
100
AcDbEntity
  8
DIBUJOS
 62
     7
  0
POLYLINE
  5
229
330
1F9
100
AcDbEntity
  8
DIBUJOS
 62
     7
100
AcDb2dPolyline
 66
     1
 10
0.0
 20
0.0
 30
0.0
  0
VERTEX
  5
22A
330
229
100
AcDbEntity
  8
DIBUJOS
 62
     7
100
AcDbVertex
100
AcDb2dVertex
 10
82.53442341071182
 20
46.64409981792781
 30
0.0
  0
VERTEX
  5
22B
330
229
100
AcDbEntity
  8
DIBUJOS
 62
     7
100
AcDbVertex
100
AcDb2dVertex
 10
82.54531557454908
 20
46.64652028004802
 30
0.0
  0
VERTEX
  5
22C
330
229
100
AcDbEntity
  8
DIBUJOS
 62
     7
100
AcDbVertex
100
AcDb2dVertex
 10
82.64241022520982
 20
46.7120649608826
 30
0.0
  0
VERTEX
  5
22D
330
229
100
AcDbEntity
  8
DIBUJOS
 62
     7
100
AcDbVertex
100
AcDb2dVertex
 10
82.65544238654698
 20
46.72277298105658
 30
0.0
  0
SEQEND
  5
22E
330
229
100
AcDbEntity
  8
DIBUJOS
 62
     7
  0
POLYLINE
  5
22F
330
1F9
100
AcDbEntity
  8
DIBUJOS
 62
     7
100
AcDb2dPolyline
 66
     1
 10
0.0
 20
0.0
 30
0.0
  0
VERTEX
  5
230
330
22F
100
AcDbEntity
  8
DIBUJOS
 62
     7
100
AcDbVertex
100
AcDb2dVertex
 10
82.52837148475243
 20
46.63804703378289
 30
0.0
  0
VERTEX
  5
231
330
22F
100
AcDbEntity
  8
DIBUJOS
 62
     7
100
AcDbVertex
100
AcDb2dVertex
 10
82.52837148475243
 20
46.64409981792781
 30
0.0
  0
SEQEND
  5
232
330
22F
100
AcDbEntity
  8
DIBUJOS
 62
     7
  0
POLYLINE
  5
233
330
1F9
100
AcDbEntity
  8
DIBUJOS
 62
     7
100
AcDb2dPolyline
 66
     1
 10
0.0
 20
0.0
 30
0.0
  0
VERTEX
  5
234
330
233
100
AcDbEntity
  8
DIBUJOS
 62
     7
100
AcDbVertex
100
AcDb2dVertex
 10
81.11243904436047
 20
42.86169285364394
 30
0.0
  0
VERTEX
  5
235
330
233
100
AcDbEntity
  8
DIBUJOS
 62
     7
100
AcDbVertex
100
AcDb2dVertex
 10
81.23406712146287
 20
42.92100069096649
 30
0.0
  0
VERTEX
  5
236
330
233
100
AcDbEntity
  8
DIBUJOS
 62
     7
100
AcDbVertex
100
AcDb2dVertex
 10
81.41980066401737
 20
43.03868466686819
 30
0.0
  0
VERTEX
  5
237
330
233
100
AcDbEntity
  8
DIBUJOS
 62
     7
100
AcDbVertex
100
AcDb2dVertex
 10
81.5371910900569
 20
43.13255005758586
 30
0.0
  0
VERTEX
  5
238
330
233
100
AcDbEntity
  8
DIBUJOS
 62
     7
100
AcDbVertex
100
AcDb2dVertex
 10
81.71754043798724
 20
43.29137374531309
 30
0.0
  0
VERTEX
  5
239
330
233
100
AcDbEntity
  8
DIBUJOS
 62
     7
100
AcDbVertex
100
AcDb2dVertex
 10
81.90968420136404
 20
43.50442816374883
 30
0.0
  0
VERTEX
  5
23A
330
233
100
AcDbEntity
  8
DIBUJOS
 62
     7
100
AcDbVertex
100
AcDb2dVertex
 10
82.07575712761486
 20
43.72650149117538
 30
0.0
  0
VERTEX
  5
23B
330
233
100
AcDbEntity
  8
DIBUJOS
 62
     7
100
AcDbVertex
100
AcDb2dVertex
 10
82.15181335536252
 20
43.84302410133611
 30
0.0
  0
VERTEX
  5
23C
330
233
100
AcDbEntity
  8
DIBUJOS
 62
     7
100
AcDbVertex
100
AcDb2dVertex
 10
82.29722569691936
 20
44.10897848496725
 30
0.0
  0
VERTEX
  5
23D
330
233
100
AcDbEntity
  8
DIBUJOS
 62
     7
100
AcDbVertex
100
AcDb2dVertex
 10
82.3359508571634
 20
44.19854698532593
 30
0.0
  0
VERTEX
  5
23E
330
233
100
AcDbEntity
  8
DIBUJOS
 62
     7
100
AcDbVertex
100
AcDb2dVertex
 10
82.41126769460257
 20
44.38729253654533
 30
0.0
  0
VERTEX
  5
23F
330
233
100
AcDbEntity
  8
DIBUJOS
 62
     7
100
AcDbVertex
100
AcDb2dVertex
 10
82.42127063573389
 20
44.42246416411152
 30
0.0
  0
VERTEX
  5
240
330
233
100
AcDbEntity
  8
DIBUJOS
 62
     7
100
AcDbVertex
100
AcDb2dVertex
 10
82.48368885810359
 20
44.62929802747477
 30
0.0
  0
VERTEX
  5
241
330
233
100
AcDbEntity
  8
DIBUJOS
 62
     7
100
AcDbVertex
100
AcDb2dVertex
 10
82.49420318372108
 20
44.67671367506679
 30
0.0
  0
VERTEX
  5
242
330
233
100
AcDbEntity
  8
DIBUJOS
 62
     7
100
AcDbVertex
100
AcDb2dVertex
 10
82.53774578126028
 20
44.90746548309691
 30
0.0
  0
VERTEX
  5
243
330
233
100
AcDbEntity
  8
DIBUJOS
 62
     7
100
AcDbVertex
100
AcDb2dVertex
 10
82.54320163485701
 20
44.96748838291693
 30
0.0
  0
VERTEX
  5
244
330
233
100
AcDbEntity
  8
DIBUJOS
 62
     7
100
AcDbVertex
100
AcDb2dVertex
 10
82.5646797832837
 20
45.14929343003524
 30
0.0
  0
VERTEX
  5
245
330
233
100
AcDbEntity
  8
DIBUJOS
 62
     7
100
AcDbVertex
100
AcDb2dVertex
 10
82.5646797832837
 20
45.54266250336853
 30
0.0
  0
VERTEX
  5
246
330
233
100
AcDbEntity
  8
DIBUJOS
 62
     7
100
AcDbVertex
100
AcDb2dVertex
 10
82.53176877149927
 20
45.97810135842648
 30
0.0
  0
VERTEX
  5
247
330
233
100
AcDbEntity
  8
DIBUJOS
 62
     7
100
AcDbVertex
100
AcDb2dVertex
 10
82.50749266591424
 20
46.22627202373408
 30
0.0
  0
VERTEX
  5
248
330
233
100
AcDbEntity
  8
DIBUJOS
 62
     7
100
AcDbVertex
100
AcDb2dVertex
 10
82.47742195522643
 20
46.43797287284114
 30
0.0
  0
VERTEX
  5
249
330
233
100
AcDbEntity
  8
DIBUJOS
 62
     7
100
AcDbVertex
100
AcDb2dVertex
 10
82.429016319228
 20
46.75266878304567
 30
0.0
  0
VERTEX
  5
24A
330
233
100
AcDbEntity
  8
DIBUJOS
 62
     7
100
AcDbVertex
100
AcDb2dVertex
 10
82.31426098904417
 20
47.27907857310897
 30
0.0
  0
VERTEX
  5
24B
330
233
100
AcDbEntity
  8
DIBUJOS
 62
     7
100
AcDbVertex
100
AcDb2dVertex
 10
82.26999528732752
 20
47.43144389454649
 30
0.0
  0
VERTEX
  5
24C
330
233
100
AcDbEntity
  8
DIBUJOS
 62
     7
100
AcDbVertex
100
AcDb2dVertex
 10
82.13324390977857
 20
47.87202012344554
 30
0.0
  0
VERTEX
  5
24D
330
233
100
AcDbEntity
  8
DIBUJOS
 62
     7
100
AcDbVertex
100
AcDb2dVertex
 10
81.96079007773912
 20
48.29685846203002
 30
0.0
  0
VERTEX
  5
24E
330
233
100
AcDbEntity
  8
DIBUJOS
 62
     7
100
AcDbVertex
100
AcDb2dVertex
 10
81.88557095708103
 20
48.45267041728057
 30
0.0
  0
VERTEX
  5
24F
330
233
100
AcDbEntity
  8
DIBUJOS
 62
     7
100
AcDbVertex
100
AcDb2dVertex
 10
81.68849575349759
 20
48.82336924041909
 30
0.0
  0
VERTEX
  5
250
330
233
100
AcDbEntity
  8
DIBUJOS
 62
     7
100
AcDbVertex
100
AcDb2dVertex
 10
81.41033516518007
 20
49.2291696508332
 30
0.0
  0
VERTEX
  5
251
330
233
100
AcDbEntity
  8
DIBUJOS
 62
     7
100
AcDbVertex
100
AcDb2dVertex
 10
81.38613071856827
 20
49.2654830980136
 30
0.0
  0
VERTEX
  5
252
330
233
100
AcDbEntity
  8
DIBUJOS
 62
     7
100
AcDbVertex
100
AcDb2dVertex
 10
81.16235603323601
 20
49.51404468587036
 30
0.0
  0
VERTEX
  5
253
330
233
100
AcDbEntity
  8
DIBUJOS
 62
     7
100
AcDbVertex
100
AcDb2dVertex
 10
81.00957258917835
 20
49.67607556734917
 30
0.0
  0
VERTEX
  5
254
330
233
100
AcDbEntity
  8
DIBUJOS
 62
     7
100
AcDbVertex
100
AcDb2dVertex
 10
80.86317005090933
 20
49.78958644503322
 30
0.0
  0
VERTEX
  5
255
330
233
100
AcDbEntity
  8
DIBUJOS
 62
     7
100
AcDbVertex
100
AcDb2dVertex
 10
80.66527076914154
 20
49.94356757967611
 30
0.0
  0
VERTEX
  5
256
330
233
100
AcDbEntity
  8
DIBUJOS
 62
     7
100
AcDbVertex
100
AcDb2dVertex
 10
80.26469711224905
 20
50.17051115053432
 30
0.0
  0
VERTEX
  5
257
330
233
100
AcDbEntity
  8
DIBUJOS
 62
     7
100
AcDbVertex
100
AcDb2dVertex
 10
79.9688041854365
 20
50.29336507715621
 30
0.0
  0
SEQEND
  5
258
330
233
100
AcDbEntity
  8
DIBUJOS
 62
     7
  0
POLYLINE
  5
259
330
1F9
100
AcDbEntity
  8
DIBUJOS
 62
     7
100
AcDb2dPolyline
 66
     1
 10
0.0
 20
0.0
 30
0.0
  0
VERTEX
  5
25A
330
259
100
AcDbEntity
  8
DIBUJOS
 62
     7
100
AcDbVertex
100
AcDb2dVertex
 10
80.87645301865021
 20
42.75881181162365
 30
0.0
  0
VERTEX
  5
25B
330
259
100
AcDbEntity
  8
DIBUJOS
 62
     7
100
AcDbVertex
100
AcDb2dVertex
 10
80.91239325064046
 20
42.7613528081967
 30
0.0
  0
VERTEX
  5
25C
330
259
100
AcDbEntity
  8
DIBUJOS
 62
     7
100
AcDbVertex
100
AcDb2dVertex
 10
81.04527504366884
 20
42.80298931742893
 30
0.0
  0
VERTEX
  5
25D
330
259
100
AcDbEntity
  8
DIBUJOS
 62
     7
100
AcDbVertex
100
AcDb2dVertex
 10
81.05253540048463
 20
42.80540977954914
 30
0.0
  0
VERTEX
  5
25E
330
259
100
AcDbEntity
  8
DIBUJOS
 62
     7
100
AcDbVertex
100
AcDb2dVertex
 10
81.28731299533851
 20
42.89316211889545
 30
0.0
  0
VERTEX
  5
25F
330
259
100
AcDbEntity
  8
DIBUJOS
 62
     7
100
AcDbVertex
100
AcDb2dVertex
 10
81.39744306456224
 20
42.95125972515805
 30
0.0
  0
VERTEX
  5
260
330
259
100
AcDbEntity
  8
DIBUJOS
 62
     7
100
AcDbVertex
100
AcDb2dVertex
 10
81.51273583704074
 20
43.0236960447751
 30
0.0
  0
VERTEX
  5
261
330
259
100
AcDbEntity
  8
DIBUJOS
 62
     7
100
AcDbVertex
100
AcDb2dVertex
 10
81.57340492903354
 20
43.06600363771761
 30
0.0
  0
VERTEX
  5
262
330
259
100
AcDbEntity
  8
DIBUJOS
 62
     7
100
AcDbVertex
100
AcDb2dVertex
 10
81.71754043798724
 20
43.18243991914819
 30
0.0
  0
VERTEX
  5
263
330
259
100
AcDbEntity
  8
DIBUJOS
 62
     7
100
AcDbVertex
100
AcDb2dVertex
 10
81.9172214223927
 20
43.38215247673106
 30
0.0
  0
VERTEX
  5
264
330
259
100
AcDbEntity
  8
DIBUJOS
 62
     7
100
AcDbVertex
100
AcDb2dVertex
 10
82.02464473678751
 20
43.51052166899214
 30
0.0
  0
VERTEX
  5
265
330
259
100
AcDbEntity
  8
DIBUJOS
 62
     7
100
AcDbVertex
100
AcDb2dVertex
 10
82.16996913324138
 20
43.70988239628064
 30
0.0
  0
VERTEX
  5
266
330
259
100
AcDbEntity
  8
DIBUJOS
 62
     7
100
AcDbVertex
100
AcDb2dVertex
 10
82.27302125030755
 20
43.87900852203706
 30
0.0
  0
VERTEX
  5
267
330
259
100
AcDbEntity
  8
DIBUJOS
 62
     7
100
AcDbVertex
100
AcDb2dVertex
 10
82.3541033778158
 20
44.0290950907779
 30
0.0
  0
VERTEX
  5
268
330
259
100
AcDbEntity
  8
DIBUJOS
 62
     7
100
AcDbVertex
100
AcDb2dVertex
 10
82.40009215210146
 20
44.12713357971322
 30
0.0
  0
VERTEX
  5
269
330
259
100
AcDbEntity
  8
DIBUJOS
 62
     7
100
AcDbVertex
100
AcDb2dVertex
 10
82.49630409450921
 20
44.36920911093326
 30
0.0
  0
VERTEX
  5
26A
330
259
100
AcDbEntity
  8
DIBUJOS
 62
     7
100
AcDbVertex
100
AcDb2dVertex
 10
82.54228961156905
 20
44.51929405083049
 30
0.0
  0
VERTEX
  5
26B
330
259
100
AcDbEntity
  8
DIBUJOS
 62
     7
100
AcDbVertex
100
AcDb2dVertex
 10
82.58515796332007
 20
44.68888439711451
 30
0.0
  0
VERTEX
  5
26C
330
259
100
AcDbEntity
  8
DIBUJOS
 62
     7
100
AcDbVertex
100
AcDb2dVertex
 10
82.61541433589193
 20
44.85228676520514
 30
0.0
  0
VERTEX
  5
26D
330
259
100
AcDbEntity
  8
DIBUJOS
 62
     7
100
AcDbVertex
100
AcDb2dVertex
 10
82.62848558394154
 20
44.94980891060604
 30
0.0
  0
VERTEX
  5
26E
330
259
100
AcDbEntity
  8
DIBUJOS
 62
     7
100
AcDbVertex
100
AcDb2dVertex
 10
82.64609740507281
 20
45.1611677024826
 30
0.0
  0
VERTEX
  5
26F
330
259
100
AcDbEntity
  8
DIBUJOS
 62
     7
100
AcDbVertex
100
AcDb2dVertex
 10
82.6493937178134
 20
45.16744852478119
 30
0.0
  0
VERTEX
  5
270
330
259
100
AcDbEntity
  8
DIBUJOS
 62
     7
100
AcDbVertex
100
AcDb2dVertex
 10
82.6493937178134
 20
45.54266250336853
 30
0.0
  0
VERTEX
  5
271
330
259
100
AcDbEntity
  8
DIBUJOS
 62
     7
100
AcDbVertex
100
AcDb2dVertex
 10
82.64013993866865
 20
45.63965038795154
 30
0.0
  0
VERTEX
  5
272
330
259
100
AcDbEntity
  8
DIBUJOS
 62
     7
100
AcDbVertex
100
AcDb2dVertex
 10
82.63444305034568
 20
45.74221543424376
 30
0.0
  0
VERTEX
  5
273
330
259
100
AcDbEntity
  8
DIBUJOS
 62
     7
100
AcDbVertex
100
AcDb2dVertex
 10
82.60437885411017
 20
46.08098240044645
 30
0.0
  0
VERTEX
  5
274
330
259
100
AcDbEntity
  8
DIBUJOS
 62
     7
100
AcDbVertex
100
AcDb2dVertex
 10
82.58618724674469
 20
46.25650988295432
 30
0.0
  0
VERTEX
  5
275
330
259
100
AcDbEntity
  8
DIBUJOS
 62
     7
100
AcDbVertex
100
AcDb2dVertex
 10
82.54407131420608
 20
46.54080830723064
 30
0.0
  0
VERTEX
  5
276
330
259
100
AcDbEntity
  8
DIBUJOS
 62
     7
100
AcDbVertex
100
AcDb2dVertex
 10
82.52837148475243
 20
46.63804703378289
 30
0.0
  0
SEQEND
  5
277
330
259
100
AcDbEntity
  8
DIBUJOS
 62
     7
  0
POLYLINE
  5
278
330
1F9
100
AcDbEntity
  8
DIBUJOS
 62
     7
100
AcDb2dPolyline
 66
     1
 10
0.0
 20
0.0
 30
0.0
  0
VERTEX
  5
279
330
278
100
AcDbEntity
  8
DIBUJOS
 62
     7
100
AcDbVertex
100
AcDb2dVertex
 10
81.16689986354413
 20
42.63777404601347
 30
0.0
  0
VERTEX
  5
27A
330
278
100
AcDbEntity
  8
DIBUJOS
 62
     7
100
AcDbVertex
100
AcDb2dVertex
 10
81.06418975521176
 20
42.64062289409466
 30
0.0
  0
VERTEX
  5
27B
330
278
100
AcDbEntity
  8
DIBUJOS
 62
     7
100
AcDbVertex
100
AcDb2dVertex
 10
80.96176953999552
 20
42.65169251762686
 30
0.0
  0
VERTEX
  5
27C
330
278
100
AcDbEntity
  8
DIBUJOS
 62
     7
100
AcDbVertex
100
AcDb2dVertex
 10
80.95450918317972
 20
42.65411460859164
 30
0.0
  0
VERTEX
  5
27D
330
278
100
AcDbEntity
  8
DIBUJOS
 62
     7
100
AcDbVertex
100
AcDb2dVertex
 10
80.92485865464865
 20
42.66803308020472
 30
0.0
  0
VERTEX
  5
27E
330
278
100
AcDbEntity
  8
DIBUJOS
 62
     7
100
AcDbVertex
100
AcDb2dVertex
 10
80.85224857203839
 20
42.75275902747872
 30
0.0
  0
VERTEX
  5
27F
330
278
100
AcDbEntity
  8
DIBUJOS
 62
     7
100
AcDbVertex
100
AcDb2dVertex
 10
80.84566246101014
 20
42.74884328660568
 30
0.0
  0
VERTEX
  5
280
330
278
100
AcDbEntity
  8
DIBUJOS
 62
     7
100
AcDbVertex
100
AcDb2dVertex
 10
80.71894985407847
 20
42.7253260375528
 30
0.0
  0
VERTEX
  5
281
330
278
100
AcDbEntity
  8
DIBUJOS
 62
     7
100
AcDbVertex
100
AcDb2dVertex
 10
80.62853903122644
 20
42.71967394902153
 30
0.0
  0
VERTEX
  5
282
330
278
100
AcDbEntity
  8
DIBUJOS
 62
     7
100
AcDbVertex
100
AcDb2dVertex
 10
80.5315453545726
 20
42.7164488379868
 30
0.0
  0
VERTEX
  5
283
330
278
100
AcDbEntity
  8
DIBUJOS
 62
     7
100
AcDbVertex
100
AcDb2dVertex
 10
80.41112896555241
 20
42.74791810323831
 30
0.0
  0
VERTEX
  5
284
330
278
100
AcDbEntity
  8
DIBUJOS
 62
     7
100
AcDbVertex
100
AcDb2dVertex
 10
80.39297644490001
 20
42.75457518849108
 30
0.0
  0
VERTEX
  5
285
330
278
100
AcDbEntity
  8
DIBUJOS
 62
     7
100
AcDbVertex
100
AcDb2dVertex
 10
80.2541306710152
 20
42.82072579927809
 30
0.0
  0
VERTEX
  5
286
330
278
100
AcDbEntity
  8
DIBUJOS
 62
     7
100
AcDbVertex
100
AcDb2dVertex
 10
80.2401669430345
 20
42.83003627133619
 30
0.0
  0
VERTEX
  5
287
330
278
100
AcDbEntity
  8
DIBUJOS
 62
     7
100
AcDbVertex
100
AcDb2dVertex
 10
80.15033264918891
 20
42.88590073253419
 30
0.0
  0
VERTEX
  5
288
330
278
100
AcDbEntity
  8
DIBUJOS
 62
     7
100
AcDbVertex
100
AcDb2dVertex
 10
80.1261282025771
 20
42.91010698258051
 30
0.0
  0
VERTEX
  5
289
330
278
100
AcDbEntity
  8
DIBUJOS
 62
     7
100
AcDbVertex
100
AcDb2dVertex
 10
80.07953684147584
 20
43.00149001510761
 30
0.0
  0
VERTEX
  5
28A
330
278
100
AcDbEntity
  8
DIBUJOS
 62
     7
100
AcDbVertex
100
AcDb2dVertex
 10
80.03959999314958
 20
43.12131754965721
 30
0.0
  0
VERTEX
  5
28B
330
278
100
AcDbEntity
  8
DIBUJOS
 62
     7
100
AcDbVertex
100
AcDb2dVertex
 10
79.97271937112245
 20
43.40582446596013
 30
0.0
  0
VERTEX
  5
28C
330
278
100
AcDbEntity
  8
DIBUJOS
 62
     7
100
AcDbVertex
100
AcDb2dVertex
 10
79.87570940833758
 20
43.96871547413109
 30
0.0
  0
VERTEX
  5
28D
330
278
100
AcDbEntity
  8
DIBUJOS
 62
     7
100
AcDbVertex
100
AcDb2dVertex
 10
79.77867990219714
 20
44.63452010120145
 30
0.0
  0
VERTEX
  5
28E
330
278
100
AcDbEntity
  8
DIBUJOS
 62
     7
100
AcDbVertex
100
AcDb2dVertex
 10
79.68175137006361
 20
45.35475906447451
 30
0.0
  0
VERTEX
  5
28F
330
278
100
AcDbEntity
  8
DIBUJOS
 62
     7
100
AcDbVertex
100
AcDb2dVertex
 10
79.57294699183292
 20
46.08696677314501
 30
0.0
  0
VERTEX
  5
290
330
278
100
AcDbEntity
  8
DIBUJOS
 62
     7
100
AcDbVertex
100
AcDb2dVertex
 10
79.40965899383589
 20
47.12178762754544
 30
0.0
  0
VERTEX
  5
291
330
278
100
AcDbEntity
  8
DIBUJOS
 62
     7
100
AcDbVertex
100
AcDb2dVertex
 10
79.08886783126712
 20
49.22787634873094
 30
0.0
  0
VERTEX
  5
292
330
278
100
AcDbEntity
  8
DIBUJOS
 62
     7
100
AcDbVertex
100
AcDb2dVertex
 10
79.07071531061408
 20
49.36706758024349
 30
0.0
  0
VERTEX
  5
293
330
278
100
AcDbEntity
  8
DIBUJOS
 62
     7
100
AcDbVertex
100
AcDb2dVertex
 10
79.02814336643148
 20
49.73031281343369
 30
0.0
  0
VERTEX
  5
294
330
278
100
AcDbEntity
  8
DIBUJOS
 62
     7
100
AcDbVertex
100
AcDb2dVertex
 10
79.01274645899854
 20
49.88183765138911
 30
0.0
  0
VERTEX
  5
295
330
278
100
AcDbEntity
  8
DIBUJOS
 62
     7
100
AcDbVertex
100
AcDb2dVertex
 10
79.01274645899854
 20
50.02103214058918
 30
0.0
  0
VERTEX
  5
296
330
278
100
AcDbEntity
  8
DIBUJOS
 62
     7
100
AcDbVertex
100
AcDb2dVertex
 10
79.02152468314308
 20
50.08735540883519
 30
0.0
  0
VERTEX
  5
297
330
278
100
AcDbEntity
  8
DIBUJOS
 62
     7
100
AcDbVertex
100
AcDb2dVertex
 10
79.03322789626074
 20
50.14765521212787
 30
0.0
  0
VERTEX
  5
298
330
278
100
AcDbEntity
  8
DIBUJOS
 62
     7
100
AcDbVertex
100
AcDb2dVertex
 10
79.04445229715239
 20
50.17729039908387
 30
0.0
  0
VERTEX
  5
299
330
278
100
AcDbEntity
  8
DIBUJOS
 62
     7
100
AcDbVertex
100
AcDb2dVertex
 10
79.0732559469158
 20
50.2207414404842
 30
0.0
  0
VERTEX
  5
29A
330
278
100
AcDbEntity
  8
DIBUJOS
 62
     7
100
AcDbVertex
100
AcDb2dVertex
 10
79.19318700925768
 20
50.33718097960295
 30
0.0
  0
VERTEX
  5
29B
330
278
100
AcDbEntity
  8
DIBUJOS
 62
     7
100
AcDbVertex
100
AcDb2dVertex
 10
79.23151153069993
 20
50.36459116571363
 30
0.0
  0
VERTEX
  5
29C
330
278
100
AcDbEntity
  8
DIBUJOS
 62
     7
100
AcDbVertex
100
AcDb2dVertex
 10
79.28443493919865
 20
50.3980606513443
 30
0.0
  0
VERTEX
  5
29D
330
278
100
AcDbEntity
  8
DIBUJOS
 62
     7
100
AcDbVertex
100
AcDb2dVertex
 10
79.3146913117705
 20
50.41016621963383
 30
0.0
  0
VERTEX
  5
29E
330
278
100
AcDbEntity
  8
DIBUJOS
 62
     7
100
AcDbVertex
100
AcDb2dVertex
 10
79.3761681958179
 20
50.43001531209537
 30
0.0
  0
VERTEX
  5
29F
330
278
100
AcDbEntity
  8
DIBUJOS
 62
     7
100
AcDbVertex
100
AcDb2dVertex
 10
79.41833950119934
 20
50.43578467739164
 30
0.0
  0
VERTEX
  5
2A0
330
278
100
AcDbEntity
  8
DIBUJOS
 62
     7
100
AcDbVertex
100
AcDb2dVertex
 10
79.5270819921362
 20
50.44466187695796
 30
0.0
  0
VERTEX
  5
2A1
330
278
100
AcDbEntity
  8
DIBUJOS
 62
     7
100
AcDbVertex
100
AcDb2dVertex
 10
79.59946406892477
 20
50.43585634652585
 30
0.0
  0
VERTEX
  5
2A2
330
278
100
AcDbEntity
  8
DIBUJOS
 62
     7
100
AcDbVertex
100
AcDb2dVertex
 10
79.81813468107092
 20
50.37990555659866
 30
0.0
  0
VERTEX
  5
2A3
330
278
100
AcDbEntity
  8
DIBUJOS
 62
     7
100
AcDbVertex
100
AcDb2dVertex
 10
79.90284861560062
 20
50.35569767770777
 30
0.0
  0
VERTEX
  5
2A4
330
278
100
AcDbEntity
  8
DIBUJOS
 62
     7
100
AcDbVertex
100
AcDb2dVertex
 10
80.1860351036794
 20
50.2558430277601
 30
0.0
  0
VERTEX
  5
2A5
330
278
100
AcDbEntity
  8
DIBUJOS
 62
     7
100
AcDbVertex
100
AcDb2dVertex
 10
80.42323281747187
 20
50.14932966371573
 30
0.0
  0
VERTEX
  5
2A6
330
278
100
AcDbEntity
  8
DIBUJOS
 62
     7
100
AcDbVertex
100
AcDb2dVertex
 10
80.54457751590914
 20
50.08294775708721
 30
0.0
  0
VERTEX
  5
2A7
330
278
100
AcDbEntity
  8
DIBUJOS
 62
     7
100
AcDbVertex
100
AcDb2dVertex
 10
80.60476128122365
 20
50.04644862169608
 30
0.0
  0
VERTEX
  5
2A8
330
278
100
AcDbEntity
  8
DIBUJOS
 62
     7
100
AcDbVertex
100
AcDb2dVertex
 10
80.82680312230941
 20
49.91060955104745
 30
0.0
  0
VERTEX
  5
2A9
330
278
100
AcDbEntity
  8
DIBUJOS
 62
     7
100
AcDbVertex
100
AcDb2dVertex
 10
80.9987129976019
 20
49.76834306214428
 30
0.0
  0
VERTEX
  5
2AA
330
278
100
AcDbEntity
  8
DIBUJOS
 62
     7
100
AcDbVertex
100
AcDb2dVertex
 10
81.14269541693233
 20
49.6518676884586
 30
0.0
  0
VERTEX
  5
2AB
330
278
100
AcDbEntity
  8
DIBUJOS
 62
     7
100
AcDbVertex
100
AcDb2dVertex
 10
81.21530875676903
 20
49.57924730947411
 30
0.0
  0
VERTEX
  5
2AC
330
278
100
AcDbEntity
  8
DIBUJOS
 62
     7
100
AcDbVertex
100
AcDb2dVertex
 10
81.49821512340914
 20
49.25120790957279
 30
0.0
  0
VERTEX
  5
2AD
330
278
100
AcDbEntity
  8
DIBUJOS
 62
     7
100
AcDbVertex
100
AcDb2dVertex
 10
81.61327663283886
 20
49.08206223768962
 30
0.0
  0
VERTEX
  5
2AE
330
278
100
AcDbEntity
  8
DIBUJOS
 62
     7
100
AcDbVertex
100
AcDb2dVertex
 10
81.69193864140917
 20
48.96102610092336
 30
0.0
  0
VERTEX
  5
2AF
330
278
100
AcDbEntity
  8
DIBUJOS
 62
     7
100
AcDbVertex
100
AcDb2dVertex
 10
81.81556665529216
 20
48.76890395618057
 30
0.0
  0
VERTEX
  5
2B0
330
278
100
AcDbEntity
  8
DIBUJOS
 62
     7
100
AcDbVertex
100
AcDb2dVertex
 10
81.82161532402574
 20
48.75680164557921
 30
0.0
  0
VERTEX
  5
2B1
330
278
100
AcDbEntity
  8
DIBUJOS
 62
     7
100
AcDbVertex
100
AcDb2dVertex
 10
82.06063056994185
 20
48.27749476506771
 30
0.0
  0
VERTEX
  5
2B2
330
278
100
AcDbEntity
  8
DIBUJOS
 62
     7
100
AcDbVertex
100
AcDb2dVertex
 10
82.06970845888128
 20
48.25449548839349
 30
0.0
  0
VERTEX
  5
2B3
330
278
100
AcDbEntity
  8
DIBUJOS
 62
     7
100
AcDbVertex
100
AcDb2dVertex
 10
82.25394367746262
 20
47.77526027701652
 30
0.0
  0
VERTEX
  5
2B4
330
278
100
AcDbEntity
  8
DIBUJOS
 62
     7
100
AcDbVertex
100
AcDb2dVertex
 10
82.34865729589718
 20
47.44959898929245
 30
0.0
  0
VERTEX
  5
2B5
330
278
100
AcDbEntity
  8
DIBUJOS
 62
     7
100
AcDbVertex
100
AcDb2dVertex
 10
82.40343732323196
 20
47.25587080440783
 30
0.0
  0
VERTEX
  5
2B6
330
278
100
AcDbEntity
  8
DIBUJOS
 62
     7
100
AcDbVertex
100
AcDb2dVertex
 10
82.49811836940638
 20
46.83170680722115
 30
0.0
  0
SEQEND
  5
2B7
330
278
100
AcDbEntity
  8
DIBUJOS
 62
     7
  0
POLYLINE
  5
2B8
330
1F9
100
AcDbEntity
  8
DIBUJOS
 62
     7
100
AcDb2dPolyline
 66
     1
 10
0.0
 20
0.0
 30
0.0
  0
VERTEX
  5
2B9
330
2B8
100
AcDbEntity
  8
DIBUJOS
 62
     7
100
AcDbVertex
100
AcDb2dVertex
 10
81.17295178950418
 20
42.63777404601347
 30
0.0
  0
VERTEX
  5
2BA
330
2B8
100
AcDbEntity
  8
DIBUJOS
 62
     7
100
AcDbVertex
100
AcDb2dVertex
 10
81.16689986354413
 20
42.63777404601347
 30
0.0
  0
SEQEND
  5
2BB
330
2B8
100
AcDbEntity
  8
DIBUJOS
 62
     7
  0
POLYLINE
  5
2BC
330
1F9
100
AcDbEntity
  8
DIBUJOS
 62
     7
100
AcDb2dPolyline
 66
     1
 10
0.0
 20
0.0
 30
0.0
  0
VERTEX
  5
2BD
330
2BC
100
AcDbEntity
  8
DIBUJOS
 62
     7
100
AcDbVertex
100
AcDb2dVertex
 10
81.17900045823777
 20
42.63777404601347
 30
0.0
  0
VERTEX
  5
2BE
330
2BC
100
AcDbEntity
  8
DIBUJOS
 62
     7
100
AcDbVertex
100
AcDb2dVertex
 10
81.17295178950418
 20
42.63777404601347
 30
0.0
  0
SEQEND
  5
2BF
330
2BC
100
AcDbEntity
  8
DIBUJOS
 62
     7
  0
POLYLINE
  5
2C0
330
1F9
100
AcDbEntity
  8
DIBUJOS
 62
     7
100
AcDb2dPolyline
 66
     1
 10
0.0
 20
0.0
 30
0.0
  0
VERTEX
  5
2C1
330
2C0
100
AcDbEntity
  8
DIBUJOS
 62
     7
100
AcDbVertex
100
AcDb2dVertex
 10
81.18505238419718
 20
42.63777404601347
 30
0.0
  0
VERTEX
  5
2C2
330
2C0
100
AcDbEntity
  8
DIBUJOS
 62
     7
100
AcDbVertex
100
AcDb2dVertex
 10
81.17900045823777
 20
42.63777404601347
 30
0.0
  0
SEQEND
  5
2C3
330
2C0
100
AcDbEntity
  8
DIBUJOS
 62
     7
  0
POLYLINE
  5
2C4
330
1F9
100
AcDbEntity
  8
DIBUJOS
 62
     7
100
AcDb2dPolyline
 66
     1
 10
0.0
 20
0.0
 30
0.0
  0
VERTEX
  5
2C5
330
2C4
100
AcDbEntity
  8
DIBUJOS
 62
     7
100
AcDbVertex
100
AcDb2dVertex
 10
81.19110431015659
 20
42.63777404601347
 30
0.0
  0
VERTEX
  5
2C6
330
2C4
100
AcDbEntity
  8
DIBUJOS
 62
     7
100
AcDbVertex
100
AcDb2dVertex
 10
81.18505238419718
 20
42.63777404601347
 30
0.0
  0
SEQEND
  5
2C7
330
2C4
100
AcDbEntity
  8
DIBUJOS
 62
     7
  0
POLYLINE
  5
2C8
330
1F9
100
AcDbEntity
  8
DIBUJOS
 62
     7
100
AcDb2dPolyline
 66
     1
 10
0.0
 20
0.0
 30
0.0
  0
VERTEX
  5
2C9
330
2C8
100
AcDbEntity
  8
DIBUJOS
 62
     7
100
AcDbVertex
100
AcDb2dVertex
 10
81.88091638108725
 20
42.63777404601347
 30
0.0
  0
VERTEX
  5
2CA
330
2C8
100
AcDbEntity
  8
DIBUJOS
 62
     7
100
AcDbVertex
100
AcDb2dVertex
 10
81.88091638108725
 20
42.64382520131447
 30
0.0
  0
VERTEX
  5
2CB
330
2C8
100
AcDbEntity
  8
DIBUJOS
 62
     7
100
AcDbVertex
100
AcDb2dVertex
 10
81.86336970447563
 20
42.65713937182002
 30
0.0
  0
VERTEX
  5
2CC
330
2C8
100
AcDbEntity
  8
DIBUJOS
 62
     7
100
AcDbVertex
100
AcDb2dVertex
 10
81.8567119344748
 20
42.66198192490435
 30
0.0
  0
SEQEND
  5
2CD
330
2C8
100
AcDbEntity
  8
DIBUJOS
 62
     7
  0
POLYLINE
  5
2CE
330
1F9
100
AcDbEntity
  8
DIBUJOS
 62
     7
100
AcDb2dPolyline
 66
     1
 10
0.0
 20
0.0
 30
0.0
  0
VERTEX
  5
2CF
330
2CE
100
AcDbEntity
  8
DIBUJOS
 62
     7
100
AcDbVertex
100
AcDb2dVertex
 10
86.08030480903757
 20
42.63777404601347
 30
0.0
  0
VERTEX
  5
2D0
330
2CE
100
AcDbEntity
  8
DIBUJOS
 62
     7
100
AcDbVertex
100
AcDb2dVertex
 10
86.08030480903757
 20
42.64987798545907
 30
0.0
  0
VERTEX
  5
2D1
330
2CE
100
AcDbEntity
  8
DIBUJOS
 62
     7
100
AcDbVertex
100
AcDb2dVertex
 10
86.0918028169156
 20
42.65713937182002
 30
0.0
  0
VERTEX
  5
2D2
330
2CE
100
AcDbEntity
  8
DIBUJOS
 62
     7
100
AcDbVertex
100
AcDb2dVertex
 10
86.09845732968998
 20
42.66198192490435
 30
0.0
  0
SEQEND
  5
2D3
330
2CE
100
AcDbEntity
  8
DIBUJOS
 62
     7
  0
POLYLINE
  5
2D4
330
1F9
100
AcDbEntity
  8
DIBUJOS
 62
     7
100
AcDb2dPolyline
 66
     1
 10
0.0
 20
0.0
 30
0.0
  0
VERTEX
  5
2D5
330
2D4
100
AcDbEntity
  8
DIBUJOS
 62
     7
100
AcDbVertex
100
AcDb2dVertex
 10
86.57043589556278
 20
42.63777404601347
 30
0.0
  0
VERTEX
  5
2D6
330
2D4
100
AcDbEntity
  8
DIBUJOS
 62
     7
100
AcDbVertex
100
AcDb2dVertex
 10
86.56438396960337
 20
42.63777404601347
 30
0.0
  0
SEQEND
  5
2D7
330
2D4
100
AcDbEntity
  8
DIBUJOS
 62
     7
  0
POLYLINE
  5
2D8
330
1F9
100
AcDbEntity
  8
DIBUJOS
 62
     7
100
AcDb2dPolyline
 66
     1
 10
0.0
 20
0.0
 30
0.0
  0
VERTEX
  5
2D9
330
2D8
100
AcDbEntity
  8
DIBUJOS
 62
     7
100
AcDbVertex
100
AcDb2dVertex
 10
86.57648782152283
 20
42.63777404601347
 30
0.0
  0
VERTEX
  5
2DA
330
2D8
100
AcDbEntity
  8
DIBUJOS
 62
     7
100
AcDbVertex
100
AcDb2dVertex
 10
86.57043589556278
 20
42.63777404601347
 30
0.0
  0
SEQEND
  5
2DB
330
2D8
100
AcDbEntity
  8
DIBUJOS
 62
     7
  0
POLYLINE
  5
2DC
330
1F9
100
AcDbEntity
  8
DIBUJOS
 62
     7
100
AcDb2dPolyline
 66
     1
 10
0.0
 20
0.0
 30
0.0
  0
VERTEX
  5
2DD
330
2DC
100
AcDbEntity
  8
DIBUJOS
 62
     7
100
AcDbVertex
100
AcDb2dVertex
 10
86.58253649025578
 20
42.63777404601347
 30
0.0
  0
VERTEX
  5
2DE
330
2DC
100
AcDbEntity
  8
DIBUJOS
 62
     7
100
AcDbVertex
100
AcDb2dVertex
 10
86.57648782152283
 20
42.63777404601347
 30
0.0
  0
SEQEND
  5
2DF
330
2DC
100
AcDbEntity
  8
DIBUJOS
 62
     7
  0
POLYLINE
  5
2E0
330
1F9
100
AcDbEntity
  8
DIBUJOS
 62
     7
100
AcDb2dPolyline
 66
     1
 10
0.0
 20
0.0
 30
0.0
  0
VERTEX
  5
2E1
330
2E0
100
AcDbEntity
  8
DIBUJOS
 62
     7
100
AcDbVertex
100
AcDb2dVertex
 10
86.58858841621583
 20
42.63777404601347
 30
0.0
  0
VERTEX
  5
2E2
330
2E0
100
AcDbEntity
  8
DIBUJOS
 62
     7
100
AcDbVertex
100
AcDb2dVertex
 10
86.58253649025578
 20
42.63777404601347
 30
0.0
  0
SEQEND
  5
2E3
330
2E0
100
AcDbEntity
  8
DIBUJOS
 62
     7
  0
POLYLINE
  5
2E4
330
1F9
100
AcDbEntity
  8
DIBUJOS
 62
     7
100
AcDb2dPolyline
 66
     1
 10
0.0
 20
0.0
 30
0.0
  0
VERTEX
  5
2E5
330
2E4
100
AcDbEntity
  8
DIBUJOS
 62
     7
100
AcDbVertex
100
AcDb2dVertex
 10
86.59464034217459
 20
42.63777404601347
 30
0.0
  0
VERTEX
  5
2E6
330
2E4
100
AcDbEntity
  8
DIBUJOS
 62
     7
100
AcDbVertex
100
AcDb2dVertex
 10
86.58858841621583
 20
42.63777404601347
 30
0.0
  0
SEQEND
  5
2E7
330
2E4
100
AcDbEntity
  8
DIBUJOS
 62
     7
  0
POLYLINE
  5
2E8
330
1F9
100
AcDbEntity
  8
DIBUJOS
 62
     7
100
AcDb2dPolyline
 66
     1
 10
0.0
 20
0.0
 30
0.0
  0
VERTEX
  5
2E9
330
2E8
100
AcDbEntity
  8
DIBUJOS
 62
     7
100
AcDbVertex
100
AcDb2dVertex
 10
86.59464034217459
 20
42.63777404601347
 30
0.0
  0
VERTEX
  5
2EA
330
2E8
100
AcDbEntity
  8
DIBUJOS
 62
     7
100
AcDbVertex
100
AcDb2dVertex
 10
86.79414543637473
 20
42.64665124557978
 30
0.0
  0
VERTEX
  5
2EB
330
2E8
100
AcDbEntity
  8
DIBUJOS
 62
     7
100
AcDbVertex
100
AcDb2dVertex
 10
86.8360757070293
 20
42.66319215596462
 30
0.0
  0
VERTEX
  5
2EC
330
2E8
100
AcDbEntity
  8
DIBUJOS
 62
     7
100
AcDbVertex
100
AcDb2dVertex
 10
86.84333606384509
 20
42.66682284914477
 30
0.0
  0
VERTEX
  5
2ED
330
2E8
100
AcDbEntity
  8
DIBUJOS
 62
     7
100
AcDbVertex
100
AcDb2dVertex
 10
86.89718778176216
 20
42.7164488379868
 30
0.0
  0
VERTEX
  5
2EE
330
2E8
100
AcDbEntity
  8
DIBUJOS
 62
     7
100
AcDbVertex
100
AcDb2dVertex
 10
86.91413187155817
 20
42.75336495743082
 30
0.0
  0
VERTEX
  5
2EF
330
2E8
100
AcDbEntity
  8
DIBUJOS
 62
     7
100
AcDbVertex
100
AcDb2dVertex
 10
86.92352896864871
 20
42.7824838008524
 30
0.0
  0
VERTEX
  5
2F0
330
2E8
100
AcDbEntity
  8
DIBUJOS
 62
     7
100
AcDbVertex
100
AcDb2dVertex
 10
86.93669793347875
 20
42.83764297261645
 30
0.0
  0
VERTEX
  5
2F1
330
2E8
100
AcDbEntity
  8
DIBUJOS
 62
     7
100
AcDbVertex
100
AcDb2dVertex
 10
86.94239482180109
 20
42.940208018909
 30
0.0
  0
VERTEX
  5
2F2
330
2E8
100
AcDbEntity
  8
DIBUJOS
 62
     7
100
AcDbVertex
100
AcDb2dVertex
 10
86.94559667498642
 20
44.98589106194429
 30
0.0
  0
VERTEX
  5
2F3
330
2E8
100
AcDbEntity
  8
DIBUJOS
 62
     7
100
AcDbVertex
100
AcDb2dVertex
 10
86.92478625789565
 20
45.1550497645798
 30
0.0
  0
VERTEX
  5
2F4
330
2E8
100
AcDbEntity
  8
DIBUJOS
 62
     7
100
AcDbVertex
100
AcDb2dVertex
 10
86.8945331425496
 20
45.42738270114716
 30
0.0
  0
VERTEX
  5
2F5
330
2E8
100
AcDbEntity
  8
DIBUJOS
 62
     7
100
AcDbVertex
100
AcDb2dVertex
 10
86.86512039151894
 20
45.52390147867015
 30
0.0
  0
VERTEX
  5
2F6
330
2E8
100
AcDbEntity
  8
DIBUJOS
 62
     7
100
AcDbVertex
100
AcDb2dVertex
 10
86.8384958259679
 20
45.60983928584835
 30
0.0
  0
VERTEX
  5
2F7
330
2E8
100
AcDbEntity
  8
DIBUJOS
 62
     7
100
AcDbVertex
100
AcDb2dVertex
 10
86.77980061294845
 20
45.7895789588293
 30
0.0
  0
VERTEX
  5
2F8
330
2E8
100
AcDbEntity
  8
DIBUJOS
 62
     7
100
AcDbVertex
100
AcDb2dVertex
 10
86.63234273344631
 20
46.02774200686414
 30
0.0
  0
VERTEX
  5
2F9
330
2E8
100
AcDbEntity
  8
DIBUJOS
 62
     7
100
AcDbVertex
100
AcDb2dVertex
 10
86.55228337491037
 20
46.12969135014041
 30
0.0
  0
VERTEX
  5
2FA
330
2E8
100
AcDbEntity
  8
DIBUJOS
 62
     7
100
AcDbVertex
100
AcDb2dVertex
 10
86.34655046454552
 20
46.33545343418004
 30
0.0
  0
VERTEX
  5
2FB
330
2E8
100
AcDbEntity
  8
DIBUJOS
 62
     7
100
AcDbVertex
100
AcDb2dVertex
 10
86.05501244893249
 20
46.53976584709827
 30
0.0
  0
VERTEX
  5
2FC
330
2E8
100
AcDbEntity
  8
DIBUJOS
 62
     7
100
AcDbVertex
100
AcDb2dVertex
 10
85.99498503046644
 20
46.56966164908704
 30
0.0
  0
VERTEX
  5
2FD
330
2E8
100
AcDbEntity
  8
DIBUJOS
 62
     7
100
AcDbVertex
100
AcDb2dVertex
 10
85.88727833740712
 20
46.62110054125294
 30
0.0
  0
VERTEX
  5
2FE
330
2E8
100
AcDbEntity
  8
DIBUJOS
 62
     7
100
AcDbVertex
100
AcDb2dVertex
 10
85.64402869765524
 20
46.73306075948982
 30
0.0
  0
VERTEX
  5
2FF
330
2E8
100
AcDbEntity
  8
DIBUJOS
 62
     7
100
AcDbVertex
100
AcDb2dVertex
 10
85.48791311137104
 20
46.78450290934389
 30
0.0
  0
VERTEX
  5
300
330
2E8
100
AcDbEntity
  8
DIBUJOS
 62
     7
100
AcDbVertex
100
AcDb2dVertex
 10
85.42639062615892
 20
46.79899310518636
 30
0.0
  0
VERTEX
  5
301
330
2E8
100
AcDbEntity
  8
DIBUJOS
 62
     7
100
AcDbVertex
100
AcDb2dVertex
 10
85.33649770224532
 20
46.81587770164596
 30
0.0
  0
VERTEX
  5
302
330
2E8
100
AcDbEntity
  8
DIBUJOS
 62
     7
100
AcDbVertex
100
AcDb2dVertex
 10
84.99093859296158
 20
46.87731118033292
 30
0.0
  0
VERTEX
  5
303
330
2E8
100
AcDbEntity
  8
DIBUJOS
 62
     7
100
AcDbVertex
100
AcDb2dVertex
 10
84.70689545443831
 20
46.89506232177769
 30
0.0
  0
VERTEX
  5
304
330
2E8
100
AcDbEntity
  8
DIBUJOS
 62
     7
100
AcDbVertex
100
AcDb2dVertex
 10
84.19844572873286
 20
46.92248553863945
 30
0.0
  0
VERTEX
  5
305
330
2E8
100
AcDbEntity
  8
DIBUJOS
 62
     7
100
AcDbVertex
100
AcDb2dVertex
 10
83.57519507168014
 20
46.92248553863945
 30
0.0
  0
VERTEX
  5
306
330
2E8
100
AcDbEntity
  8
DIBUJOS
 62
     7
100
AcDbVertex
100
AcDb2dVertex
 10
82.87344526735787
 20
46.88333464528627
 30
0.0
  0
VERTEX
  5
307
330
2E8
100
AcDbEntity
  8
DIBUJOS
 62
     7
100
AcDbVertex
100
AcDb2dVertex
 10
82.7396905377546
 20
46.87034624357233
 30
0.0
  0
VERTEX
  5
308
330
2E8
100
AcDbEntity
  8
DIBUJOS
 62
     7
100
AcDbVertex
100
AcDb2dVertex
 10
82.50417029536644
 20
46.82565402307623
 30
0.0
  0
SEQEND
  5
309
330
2E8
100
AcDbEntity
  8
DIBUJOS
 62
     7
  0
POLYLINE
  5
30A
330
1F9
100
AcDbEntity
  8
DIBUJOS
 62
     7
100
AcDb2dPolyline
 66
     1
 10
0.0
 20
0.0
 30
0.0
  0
VERTEX
  5
30B
330
30A
100
AcDbEntity
  8
DIBUJOS
 62
     7
100
AcDbVertex
100
AcDb2dVertex
 10
81.17295178950418
 20
42.63172289071311
 30
0.0
  0
VERTEX
  5
30C
330
30A
100
AcDbEntity
  8
DIBUJOS
 62
     7
100
AcDbVertex
100
AcDb2dVertex
 10
81.17295178950418
 20
42.63777404601347
 30
0.0
  0
SEQEND
  5
30D
330
30A
100
AcDbEntity
  8
DIBUJOS
 62
     7
  0
POLYLINE
  5
30E
330
1F9
100
AcDbEntity
  8
DIBUJOS
 62
     7
100
AcDb2dPolyline
 66
     1
 10
0.0
 20
0.0
 30
0.0
  0
VERTEX
  5
30F
330
30E
100
AcDbEntity
  8
DIBUJOS
 62
     7
100
AcDbVertex
100
AcDb2dVertex
 10
81.18505238419718
 20
42.63172289071311
 30
0.0
  0
VERTEX
  5
310
330
30E
100
AcDbEntity
  8
DIBUJOS
 62
     7
100
AcDbVertex
100
AcDb2dVertex
 10
81.18505238419718
 20
42.63777404601347
 30
0.0
  0
SEQEND
  5
311
330
30E
100
AcDbEntity
  8
DIBUJOS
 62
     7
  0
POLYLINE
  5
312
330
1F9
100
AcDbEntity
  8
DIBUJOS
 62
     7
100
AcDb2dPolyline
 66
     1
 10
0.0
 20
0.0
 30
0.0
  0
VERTEX
  5
313
330
312
100
AcDbEntity
  8
DIBUJOS
 62
     7
100
AcDbVertex
100
AcDb2dVertex
 10
81.20320490484958
 20
42.63172289071311
 30
0.0
  0
VERTEX
  5
314
330
312
100
AcDbEntity
  8
DIBUJOS
 62
     7
100
AcDbVertex
100
AcDb2dVertex
 10
81.19110431015659
 20
42.63777404601347
 30
0.0
  0
SEQEND
  5
315
330
312
100
AcDbEntity
  8
DIBUJOS
 62
     7
  0
POLYLINE
  5
316
330
1F9
100
AcDbEntity
  8
DIBUJOS
 62
     7
100
AcDb2dPolyline
 66
     1
 10
0.0
 20
0.0
 30
0.0
  0
VERTEX
  5
317
330
316
100
AcDbEntity
  8
DIBUJOS
 62
     7
100
AcDbVertex
100
AcDb2dVertex
 10
81.88091638108725
 20
42.63172289071311
 30
0.0
  0
VERTEX
  5
318
330
316
100
AcDbEntity
  8
DIBUJOS
 62
     7
100
AcDbVertex
100
AcDb2dVertex
 10
81.88091638108725
 20
42.63777404601347
 30
0.0
  0
SEQEND
  5
319
330
316
100
AcDbEntity
  8
DIBUJOS
 62
     7
  0
POLYLINE
  5
31A
330
1F9
100
AcDbEntity
  8
DIBUJOS
 62
     7
100
AcDb2dPolyline
 66
     1
 10
0.0
 20
0.0
 30
0.0
  0
VERTEX
  5
31B
330
31A
100
AcDbEntity
  8
DIBUJOS
 62
     7
100
AcDbVertex
100
AcDb2dVertex
 10
81.88696830704666
 20
42.63172289071311
 30
0.0
  0
VERTEX
  5
31C
330
31A
100
AcDbEntity
  8
DIBUJOS
 62
     7
100
AcDbVertex
100
AcDb2dVertex
 10
81.88091638108725
 20
42.63172289071311
 30
0.0
  0
SEQEND
  5
31D
330
31A
100
AcDbEntity
  8
DIBUJOS
 62
     7
  0
POLYLINE
  5
31E
330
1F9
100
AcDbEntity
  8
DIBUJOS
 62
     7
100
AcDb2dPolyline
 66
     1
 10
0.0
 20
0.0
 30
0.0
  0
VERTEX
  5
31F
330
31E
100
AcDbEntity
  8
DIBUJOS
 62
     7
100
AcDbVertex
100
AcDb2dVertex
 10
86.08030480903757
 20
42.63172289071311
 30
0.0
  0
VERTEX
  5
320
330
31E
100
AcDbEntity
  8
DIBUJOS
 62
     7
100
AcDbVertex
100
AcDb2dVertex
 10
86.07425288307752
 20
42.63172289071311
 30
0.0
  0
SEQEND
  5
321
330
31E
100
AcDbEntity
  8
DIBUJOS
 62
     7
  0
POLYLINE
  5
322
330
1F9
100
AcDbEntity
  8
DIBUJOS
 62
     7
100
AcDb2dPolyline
 66
     1
 10
0.0
 20
0.0
 30
0.0
  0
VERTEX
  5
323
330
322
100
AcDbEntity
  8
DIBUJOS
 62
     7
100
AcDbVertex
100
AcDb2dVertex
 10
86.08030480903757
 20
42.63172289071311
 30
0.0
  0
VERTEX
  5
324
330
322
100
AcDbEntity
  8
DIBUJOS
 62
     7
100
AcDbVertex
100
AcDb2dVertex
 10
86.08030480903757
 20
42.63777404601347
 30
0.0
  0
SEQEND
  5
325
330
322
100
AcDbEntity
  8
DIBUJOS
 62
     7
  0
POLYLINE
  5
326
330
1F9
100
AcDbEntity
  8
DIBUJOS
 62
     7
100
AcDb2dPolyline
 66
     1
 10
0.0
 20
0.0
 30
0.0
  0
VERTEX
  5
327
330
326
100
AcDbEntity
  8
DIBUJOS
 62
     7
100
AcDbVertex
100
AcDb2dVertex
 10
86.55228337491037
 20
42.63172289071311
 30
0.0
  0
VERTEX
  5
328
330
326
100
AcDbEntity
  8
DIBUJOS
 62
     7
100
AcDbVertex
100
AcDb2dVertex
 10
86.56438396960337
 20
42.63777404601347
 30
0.0
  0
SEQEND
  5
329
330
326
100
AcDbEntity
  8
DIBUJOS
 62
     7
  0
POLYLINE
  5
32A
330
1F9
100
AcDbEntity
  8
DIBUJOS
 62
     7
100
AcDb2dPolyline
 66
     1
 10
0.0
 20
0.0
 30
0.0
  0
VERTEX
  5
32B
330
32A
100
AcDbEntity
  8
DIBUJOS
 62
     7
100
AcDbVertex
100
AcDb2dVertex
 10
86.57043589556278
 20
42.63172289071311
 30
0.0
  0
VERTEX
  5
32C
330
32A
100
AcDbEntity
  8
DIBUJOS
 62
     7
100
AcDbVertex
100
AcDb2dVertex
 10
86.57043589556278
 20
42.63777404601347
 30
0.0
  0
SEQEND
  5
32D
330
32A
100
AcDbEntity
  8
DIBUJOS
 62
     7
  0
POLYLINE
  5
32E
330
1F9
100
AcDbEntity
  8
DIBUJOS
 62
     7
100
AcDb2dPolyline
 66
     1
 10
0.0
 20
0.0
 30
0.0
  0
VERTEX
  5
32F
330
32E
100
AcDbEntity
  8
DIBUJOS
 62
     7
100
AcDbVertex
100
AcDb2dVertex
 10
86.58858841621583
 20
42.63172289071311
 30
0.0
  0
VERTEX
  5
330
330
32E
100
AcDbEntity
  8
DIBUJOS
 62
     7
100
AcDbVertex
100
AcDb2dVertex
 10
86.58858841621583
 20
42.63777404601347
 30
0.0
  0
SEQEND
  5
331
330
32E
100
AcDbEntity
  8
DIBUJOS
 62
     7
  0
POLYLINE
  5
332
330
1F9
100
AcDbEntity
  8
DIBUJOS
 62
     7
100
AcDb2dPolyline
 66
     1
 10
0.0
 20
0.0
 30
0.0
  0
VERTEX
  5
333
330
332
100
AcDbEntity
  8
DIBUJOS
 62
     7
100
AcDbVertex
100
AcDb2dVertex
 10
81.17295178950418
 20
42.62567010656819
 30
0.0
  0
VERTEX
  5
334
330
332
100
AcDbEntity
  8
DIBUJOS
 62
     7
100
AcDbVertex
100
AcDb2dVertex
 10
81.17295178950418
 20
42.63172289071311
 30
0.0
  0
SEQEND
  5
335
330
332
100
AcDbEntity
  8
DIBUJOS
 62
     7
  0
POLYLINE
  5
336
330
1F9
100
AcDbEntity
  8
DIBUJOS
 62
     7
100
AcDb2dPolyline
 66
     1
 10
0.0
 20
0.0
 30
0.0
  0
VERTEX
  5
337
330
336
100
AcDbEntity
  8
DIBUJOS
 62
     7
100
AcDbVertex
100
AcDb2dVertex
 10
81.18505238419718
 20
42.62567010656819
 30
0.0
  0
VERTEX
  5
338
330
336
100
AcDbEntity
  8
DIBUJOS
 62
     7
100
AcDbVertex
100
AcDb2dVertex
 10
81.18505238419718
 20
42.63172289071311
 30
0.0
  0
SEQEND
  5
339
330
336
100
AcDbEntity
  8
DIBUJOS
 62
     7
  0
POLYLINE
  5
33A
330
1F9
100
AcDbEntity
  8
DIBUJOS
 62
     7
100
AcDb2dPolyline
 66
     1
 10
0.0
 20
0.0
 30
0.0
  0
VERTEX
  5
33B
330
33A
100
AcDbEntity
  8
DIBUJOS
 62
     7
100
AcDbVertex
100
AcDb2dVertex
 10
81.20320490484958
 20
42.62567010656819
 30
0.0
  0
VERTEX
  5
33C
330
33A
100
AcDbEntity
  8
DIBUJOS
 62
     7
100
AcDbVertex
100
AcDb2dVertex
 10
81.20320490484958
 20
42.63172289071311
 30
0.0
  0
SEQEND
  5
33D
330
33A
100
AcDbEntity
  8
DIBUJOS
 62
     7
  0
POLYLINE
  5
33E
330
1F9
100
AcDbEntity
  8
DIBUJOS
 62
     7
100
AcDb2dPolyline
 66
     1
 10
0.0
 20
0.0
 30
0.0
  0
VERTEX
  5
33F
330
33E
100
AcDbEntity
  8
DIBUJOS
 62
     7
100
AcDbVertex
100
AcDb2dVertex
 10
81.20925683080964
 20
42.62567010656819
 30
0.0
  0
VERTEX
  5
340
330
33E
100
AcDbEntity
  8
DIBUJOS
 62
     7
100
AcDbVertex
100
AcDb2dVertex
 10
81.20320490484958
 20
42.62567010656819
 30
0.0
  0
SEQEND
  5
341
330
33E
100
AcDbEntity
  8
DIBUJOS
 62
     7
  0
POLYLINE
  5
342
330
1F9
100
AcDbEntity
  8
DIBUJOS
 62
     7
100
AcDb2dPolyline
 66
     1
 10
0.0
 20
0.0
 30
0.0
  0
VERTEX
  5
343
330
342
100
AcDbEntity
  8
DIBUJOS
 62
     7
100
AcDbVertex
100
AcDb2dVertex
 10
81.20925683080964
 20
42.62567010656819
 30
0.0
  0
VERTEX
  5
344
330
342
100
AcDbEntity
  8
DIBUJOS
 62
     7
100
AcDbVertex
100
AcDb2dVertex
 10
81.87486445512785
 20
42.62567010656819
 30
0.0
  0
VERTEX
  5
345
330
342
100
AcDbEntity
  8
DIBUJOS
 62
     7
100
AcDbVertex
100
AcDb2dVertex
 10
81.88091638108725
 20
42.63172289071311
 30
0.0
  0
SEQEND
  5
346
330
342
100
AcDbEntity
  8
DIBUJOS
 62
     7
  0
POLYLINE
  5
347
330
1F9
100
AcDbEntity
  8
DIBUJOS
 62
     7
100
AcDb2dPolyline
 66
     1
 10
0.0
 20
0.0
 30
0.0
  0
VERTEX
  5
348
330
347
100
AcDbEntity
  8
DIBUJOS
 62
     7
100
AcDbVertex
100
AcDb2dVertex
 10
81.88696830704666
 20
42.63172289071311
 30
0.0
  0
VERTEX
  5
349
330
347
100
AcDbEntity
  8
DIBUJOS
 62
     7
100
AcDbVertex
100
AcDb2dVertex
 10
81.89302023300607
 20
42.62567010656819
 30
0.0
  0
VERTEX
  5
34A
330
347
100
AcDbEntity
  8
DIBUJOS
 62
     7
100
AcDbVertex
100
AcDb2dVertex
 10
85.92298079189761
 20
42.62567010656819
 30
0.0
  0
VERTEX
  5
34B
330
347
100
AcDbEntity
  8
DIBUJOS
 62
     7
100
AcDbVertex
100
AcDb2dVertex
 10
85.92902946063056
 20
42.63172289071311
 30
0.0
  0
VERTEX
  5
34C
330
347
100
AcDbEntity
  8
DIBUJOS
 62
     7
100
AcDbVertex
100
AcDb2dVertex
 10
86.00164280046792
 20
42.63172289071311
 30
0.0
  0
VERTEX
  5
34D
330
347
100
AcDbEntity
  8
DIBUJOS
 62
     7
100
AcDbVertex
100
AcDb2dVertex
 10
86.00769472642668
 20
42.62567010656819
 30
0.0
  0
VERTEX
  5
34E
330
347
100
AcDbEntity
  8
DIBUJOS
 62
     7
100
AcDbVertex
100
AcDb2dVertex
 10
86.06820421434458
 20
42.62567010656819
 30
0.0
  0
VERTEX
  5
34F
330
347
100
AcDbEntity
  8
DIBUJOS
 62
     7
100
AcDbVertex
100
AcDb2dVertex
 10
86.07425288307752
 20
42.63172289071311
 30
0.0
  0
SEQEND
  5
350
330
347
100
AcDbEntity
  8
DIBUJOS
 62
     7
  0
POLYLINE
  5
351
330
1F9
100
AcDbEntity
  8
DIBUJOS
 62
     7
100
AcDb2dPolyline
 66
     1
 10
0.0
 20
0.0
 30
0.0
  0
VERTEX
  5
352
330
351
100
AcDbEntity
  8
DIBUJOS
 62
     7
100
AcDbVertex
100
AcDb2dVertex
 10
86.54623144895032
 20
42.62567010656819
 30
0.0
  0
VERTEX
  5
353
330
351
100
AcDbEntity
  8
DIBUJOS
 62
     7
100
AcDbVertex
100
AcDb2dVertex
 10
86.08635673499698
 20
42.62567010656819
 30
0.0
  0
VERTEX
  5
354
330
351
100
AcDbEntity
  8
DIBUJOS
 62
     7
100
AcDbVertex
100
AcDb2dVertex
 10
86.08030480903757
 20
42.63172289071311
 30
0.0
  0
SEQEND
  5
355
330
351
100
AcDbEntity
  8
DIBUJOS
 62
     7
  0
POLYLINE
  5
356
330
1F9
100
AcDbEntity
  8
DIBUJOS
 62
     7
100
AcDb2dPolyline
 66
     1
 10
0.0
 20
0.0
 30
0.0
  0
VERTEX
  5
357
330
356
100
AcDbEntity
  8
DIBUJOS
 62
     7
100
AcDbVertex
100
AcDb2dVertex
 10
86.55228337491037
 20
42.62567010656819
 30
0.0
  0
VERTEX
  5
358
330
356
100
AcDbEntity
  8
DIBUJOS
 62
     7
100
AcDbVertex
100
AcDb2dVertex
 10
86.54623144895032
 20
42.62567010656819
 30
0.0
  0
SEQEND
  5
359
330
356
100
AcDbEntity
  8
DIBUJOS
 62
     7
  0
POLYLINE
  5
35A
330
1F9
100
AcDbEntity
  8
DIBUJOS
 62
     7
100
AcDb2dPolyline
 66
     1
 10
0.0
 20
0.0
 30
0.0
  0
VERTEX
  5
35B
330
35A
100
AcDbEntity
  8
DIBUJOS
 62
     7
100
AcDbVertex
100
AcDb2dVertex
 10
86.55228337491037
 20
42.62567010656819
 30
0.0
  0
VERTEX
  5
35C
330
35A
100
AcDbEntity
  8
DIBUJOS
 62
     7
100
AcDbVertex
100
AcDb2dVertex
 10
86.55228337491037
 20
42.63172289071311
 30
0.0
  0
SEQEND
  5
35D
330
35A
100
AcDbEntity
  8
DIBUJOS
 62
     7
  0
POLYLINE
  5
35E
330
1F9
100
AcDbEntity
  8
DIBUJOS
 62
     7
100
AcDb2dPolyline
 66
     1
 10
0.0
 20
0.0
 30
0.0
  0
VERTEX
  5
35F
330
35E
100
AcDbEntity
  8
DIBUJOS
 62
     7
100
AcDbVertex
100
AcDb2dVertex
 10
86.57043589556278
 20
42.62567010656819
 30
0.0
  0
VERTEX
  5
360
330
35E
100
AcDbEntity
  8
DIBUJOS
 62
     7
100
AcDbVertex
100
AcDb2dVertex
 10
86.57043589556278
 20
42.63172289071311
 30
0.0
  0
SEQEND
  5
361
330
35E
100
AcDbEntity
  8
DIBUJOS
 62
     7
  0
POLYLINE
  5
362
330
1F9
100
AcDbEntity
  8
DIBUJOS
 62
     7
100
AcDb2dPolyline
 66
     1
 10
0.0
 20
0.0
 30
0.0
  0
VERTEX
  5
363
330
362
100
AcDbEntity
  8
DIBUJOS
 62
     7
100
AcDbVertex
100
AcDb2dVertex
 10
86.58858841621583
 20
42.62567010656819
 30
0.0
  0
VERTEX
  5
364
330
362
100
AcDbEntity
  8
DIBUJOS
 62
     7
100
AcDbVertex
100
AcDb2dVertex
 10
86.58858841621583
 20
42.63172289071311
 30
0.0
  0
SEQEND
  5
365
330
362
100
AcDbEntity
  8
DIBUJOS
 62
     7
  0
POLYLINE
  5
366
330
1F9
100
AcDbEntity
  8
DIBUJOS
 62
     7
100
AcDb2dPolyline
 66
     1
 10
0.0
 20
0.0
 30
0.0
  0
VERTEX
  5
367
330
366
100
AcDbEntity
  8
DIBUJOS
 62
     7
100
AcDbVertex
100
AcDb2dVertex
 10
81.17295178950418
 20
42.61961895126751
 30
0.0
  0
VERTEX
  5
368
330
366
100
AcDbEntity
  8
DIBUJOS
 62
     7
100
AcDbVertex
100
AcDb2dVertex
 10
81.16689986354413
 20
42.61961895126751
 30
0.0
  0
SEQEND
  5
369
330
366
100
AcDbEntity
  8
DIBUJOS
 62
     7
  0
POLYLINE
  5
36A
330
1F9
100
AcDbEntity
  8
DIBUJOS
 62
     7
100
AcDb2dPolyline
 66
     1
 10
0.0
 20
0.0
 30
0.0
  0
VERTEX
  5
36B
330
36A
100
AcDbEntity
  8
DIBUJOS
 62
     7
100
AcDbVertex
100
AcDb2dVertex
 10
81.17295178950418
 20
42.61961895126751
 30
0.0
  0
VERTEX
  5
36C
330
36A
100
AcDbEntity
  8
DIBUJOS
 62
     7
100
AcDbVertex
100
AcDb2dVertex
 10
81.17295178950418
 20
42.62567010656819
 30
0.0
  0
SEQEND
  5
36D
330
36A
100
AcDbEntity
  8
DIBUJOS
 62
     7
  0
POLYLINE
  5
36E
330
1F9
100
AcDbEntity
  8
DIBUJOS
 62
     7
100
AcDb2dPolyline
 66
     1
 10
0.0
 20
0.0
 30
0.0
  0
VERTEX
  5
36F
330
36E
100
AcDbEntity
  8
DIBUJOS
 62
     7
100
AcDbVertex
100
AcDb2dVertex
 10
81.17900045823777
 20
42.61961895126751
 30
0.0
  0
VERTEX
  5
370
330
36E
100
AcDbEntity
  8
DIBUJOS
 62
     7
100
AcDbVertex
100
AcDb2dVertex
 10
81.17295178950418
 20
42.61961895126751
 30
0.0
  0
SEQEND
  5
371
330
36E
100
AcDbEntity
  8
DIBUJOS
 62
     7
  0
POLYLINE
  5
372
330
1F9
100
AcDbEntity
  8
DIBUJOS
 62
     7
100
AcDb2dPolyline
 66
     1
 10
0.0
 20
0.0
 30
0.0
  0
VERTEX
  5
373
330
372
100
AcDbEntity
  8
DIBUJOS
 62
     7
100
AcDbVertex
100
AcDb2dVertex
 10
81.18505238419718
 20
42.61961895126751
 30
0.0
  0
VERTEX
  5
374
330
372
100
AcDbEntity
  8
DIBUJOS
 62
     7
100
AcDbVertex
100
AcDb2dVertex
 10
81.17900045823777
 20
42.61961895126751
 30
0.0
  0
SEQEND
  5
375
330
372
100
AcDbEntity
  8
DIBUJOS
 62
     7
  0
POLYLINE
  5
376
330
1F9
100
AcDbEntity
  8
DIBUJOS
 62
     7
100
AcDb2dPolyline
 66
     1
 10
0.0
 20
0.0
 30
0.0
  0
VERTEX
  5
377
330
376
100
AcDbEntity
  8
DIBUJOS
 62
     7
100
AcDbVertex
100
AcDb2dVertex
 10
81.18505238419718
 20
42.61961895126751
 30
0.0
  0
VERTEX
  5
378
330
376
100
AcDbEntity
  8
DIBUJOS
 62
     7
100
AcDbVertex
100
AcDb2dVertex
 10
81.18505238419718
 20
42.62567010656819
 30
0.0
  0
SEQEND
  5
379
330
376
100
AcDbEntity
  8
DIBUJOS
 62
     7
  0
POLYLINE
  5
37A
330
1F9
100
AcDbEntity
  8
DIBUJOS
 62
     7
100
AcDb2dPolyline
 66
     1
 10
0.0
 20
0.0
 30
0.0
  0
VERTEX
  5
37B
330
37A
100
AcDbEntity
  8
DIBUJOS
 62
     7
100
AcDbVertex
100
AcDb2dVertex
 10
81.19110431015659
 20
42.61961895126751
 30
0.0
  0
VERTEX
  5
37C
330
37A
100
AcDbEntity
  8
DIBUJOS
 62
     7
100
AcDbVertex
100
AcDb2dVertex
 10
81.18505238419718
 20
42.61961895126751
 30
0.0
  0
SEQEND
  5
37D
330
37A
100
AcDbEntity
  8
DIBUJOS
 62
     7
  0
POLYLINE
  5
37E
330
1F9
100
AcDbEntity
  8
DIBUJOS
 62
     7
100
AcDb2dPolyline
 66
     1
 10
0.0
 20
0.0
 30
0.0
  0
VERTEX
  5
37F
330
37E
100
AcDbEntity
  8
DIBUJOS
 62
     7
100
AcDbVertex
100
AcDb2dVertex
 10
81.19110431015659
 20
42.61961895126751
 30
0.0
  0
VERTEX
  5
380
330
37E
100
AcDbEntity
  8
DIBUJOS
 62
     7
100
AcDbVertex
100
AcDb2dVertex
 10
81.20320490484958
 20
42.62567010656819
 30
0.0
  0
SEQEND
  5
381
330
37E
100
AcDbEntity
  8
DIBUJOS
 62
     7
  0
POLYLINE
  5
382
330
1F9
100
AcDbEntity
  8
DIBUJOS
 62
     7
100
AcDb2dPolyline
 66
     1
 10
0.0
 20
0.0
 30
0.0
  0
VERTEX
  5
383
330
382
100
AcDbEntity
  8
DIBUJOS
 62
     7
100
AcDbVertex
100
AcDb2dVertex
 10
86.56438396960337
 20
42.61961895126751
 30
0.0
  0
VERTEX
  5
384
330
382
100
AcDbEntity
  8
DIBUJOS
 62
     7
100
AcDbVertex
100
AcDb2dVertex
 10
86.55228337491037
 20
42.62567010656819
 30
0.0
  0
SEQEND
  5
385
330
382
100
AcDbEntity
  8
DIBUJOS
 62
     7
  0
POLYLINE
  5
386
330
1F9
100
AcDbEntity
  8
DIBUJOS
 62
     7
100
AcDb2dPolyline
 66
     1
 10
0.0
 20
0.0
 30
0.0
  0
VERTEX
  5
387
330
386
100
AcDbEntity
  8
DIBUJOS
 62
     7
100
AcDbVertex
100
AcDb2dVertex
 10
86.57043589556278
 20
42.61961895126751
 30
0.0
  0
VERTEX
  5
388
330
386
100
AcDbEntity
  8
DIBUJOS
 62
     7
100
AcDbVertex
100
AcDb2dVertex
 10
86.56438396960337
 20
42.61961895126751
 30
0.0
  0
SEQEND
  5
389
330
386
100
AcDbEntity
  8
DIBUJOS
 62
     7
  0
POLYLINE
  5
38A
330
1F9
100
AcDbEntity
  8
DIBUJOS
 62
     7
100
AcDb2dPolyline
 66
     1
 10
0.0
 20
0.0
 30
0.0
  0
VERTEX
  5
38B
330
38A
100
AcDbEntity
  8
DIBUJOS
 62
     7
100
AcDbVertex
100
AcDb2dVertex
 10
86.57043589556278
 20
42.61961895126751
 30
0.0
  0
VERTEX
  5
38C
330
38A
100
AcDbEntity
  8
DIBUJOS
 62
     7
100
AcDbVertex
100
AcDb2dVertex
 10
86.57043589556278
 20
42.62567010656819
 30
0.0
  0
SEQEND
  5
38D
330
38A
100
AcDbEntity
  8
DIBUJOS
 62
     7
  0
POLYLINE
  5
38E
330
1F9
100
AcDbEntity
  8
DIBUJOS
 62
     7
100
AcDb2dPolyline
 66
     1
 10
0.0
 20
0.0
 30
0.0
  0
VERTEX
  5
38F
330
38E
100
AcDbEntity
  8
DIBUJOS
 62
     7
100
AcDbVertex
100
AcDb2dVertex
 10
86.57648782152283
 20
42.61961895126751
 30
0.0
  0
VERTEX
  5
390
330
38E
100
AcDbEntity
  8
DIBUJOS
 62
     7
100
AcDbVertex
100
AcDb2dVertex
 10
86.57043589556278
 20
42.61961895126751
 30
0.0
  0
SEQEND
  5
391
330
38E
100
AcDbEntity
  8
DIBUJOS
 62
     7
  0
POLYLINE
  5
392
330
1F9
100
AcDbEntity
  8
DIBUJOS
 62
     7
100
AcDb2dPolyline
 66
     1
 10
0.0
 20
0.0
 30
0.0
  0
VERTEX
  5
393
330
392
100
AcDbEntity
  8
DIBUJOS
 62
     7
100
AcDbVertex
100
AcDb2dVertex
 10
86.58253649025578
 20
42.61961895126751
 30
0.0
  0
VERTEX
  5
394
330
392
100
AcDbEntity
  8
DIBUJOS
 62
     7
100
AcDbVertex
100
AcDb2dVertex
 10
86.57648782152283
 20
42.61961895126751
 30
0.0
  0
SEQEND
  5
395
330
392
100
AcDbEntity
  8
DIBUJOS
 62
     7
  0
POLYLINE
  5
396
330
1F9
100
AcDbEntity
  8
DIBUJOS
 62
     7
100
AcDb2dPolyline
 66
     1
 10
0.0
 20
0.0
 30
0.0
  0
VERTEX
  5
397
330
396
100
AcDbEntity
  8
DIBUJOS
 62
     7
100
AcDbVertex
100
AcDb2dVertex
 10
86.58858841621583
 20
42.61961895126751
 30
0.0
  0
VERTEX
  5
398
330
396
100
AcDbEntity
  8
DIBUJOS
 62
     7
100
AcDbVertex
100
AcDb2dVertex
 10
86.58253649025578
 20
42.61961895126751
 30
0.0
  0
SEQEND
  5
399
330
396
100
AcDbEntity
  8
DIBUJOS
 62
     7
  0
POLYLINE
  5
39A
330
1F9
100
AcDbEntity
  8
DIBUJOS
 62
     7
100
AcDb2dPolyline
 66
     1
 10
0.0
 20
0.0
 30
0.0
  0
VERTEX
  5
39B
330
39A
100
AcDbEntity
  8
DIBUJOS
 62
     7
100
AcDbVertex
100
AcDb2dVertex
 10
86.58858841621583
 20
42.61961895126751
 30
0.0
  0
VERTEX
  5
39C
330
39A
100
AcDbEntity
  8
DIBUJOS
 62
     7
100
AcDbVertex
100
AcDb2dVertex
 10
86.58858841621583
 20
42.62567010656819
 30
0.0
  0
SEQEND
  5
39D
330
39A
100
AcDbEntity
  8
DIBUJOS
 62
     7
  0
POLYLINE
  5
39E
330
1F9
100
AcDbEntity
  8
DIBUJOS
 62
     7
100
AcDb2dPolyline
 66
     1
 10
0.0
 20
0.0
 30
0.0
  0
VERTEX
  5
39F
330
39E
100
AcDbEntity
  8
DIBUJOS
 62
     7
100
AcDbVertex
100
AcDb2dVertex
 10
86.59464034217459
 20
42.61961895126751
 30
0.0
  0
VERTEX
  5
3A0
330
39E
100
AcDbEntity
  8
DIBUJOS
 62
     7
100
AcDbVertex
100
AcDb2dVertex
 10
86.58858841621583
 20
42.61961895126751
 30
0.0
  0
SEQEND
  5
3A1
330
39E
100
AcDbEntity
  8
DIBUJOS
 62
     7
  0
POLYLINE
  5
3A2
330
1F9
100
AcDbEntity
  8
DIBUJOS
 62
     7
100
AcDb2dPolyline
 66
     1
 10
0.0
 20
0.0
 30
0.0
  0
VERTEX
  5
3A3
330
3A2
100
AcDbEntity
  8
DIBUJOS
 62
     7
100
AcDbVertex
100
AcDb2dVertex
 10
81.16689986354413
 20
42.61961895126751
 30
0.0
  0
VERTEX
  5
3A4
330
3A2
100
AcDbEntity
  8
DIBUJOS
 62
     7
100
AcDbVertex
100
AcDb2dVertex
 10
80.8704010926908
 20
42.61356616712258
 30
0.0
  0
VERTEX
  5
3A5
330
3A2
100
AcDbEntity
  8
DIBUJOS
 62
     7
100
AcDbVertex
100
AcDb2dVertex
 10
80.85224857203839
 20
42.58935991707627
 30
0.0
  0
VERTEX
  5
3A6
330
3A2
100
AcDbEntity
  8
DIBUJOS
 62
     7
100
AcDbVertex
100
AcDb2dVertex
 10
80.85224857203839
 20
42.45016705671949
 30
0.0
  0
VERTEX
  5
3A7
330
3A2
100
AcDbEntity
  8
DIBUJOS
 62
     7
100
AcDbVertex
100
AcDb2dVertex
 10
80.8583004979978
 20
42.43806311727452
 30
0.0
  0
VERTEX
  5
3A8
330
3A2
100
AcDbEntity
  8
DIBUJOS
 62
     7
100
AcDbVertex
100
AcDb2dVertex
 10
80.8825016873838
 20
42.41990802252856
 30
0.0
  0
VERTEX
  5
3A9
330
3A2
100
AcDbEntity
  8
DIBUJOS
 62
     7
100
AcDbVertex
100
AcDb2dVertex
 10
86.89113911302857
 20
42.41990802252856
 30
0.0
  0
VERTEX
  5
3AA
330
3A2
100
AcDbEntity
  8
DIBUJOS
 62
     7
100
AcDbVertex
100
AcDb2dVertex
 10
86.90323970772221
 20
42.42595917782924
 30
0.0
  0
VERTEX
  5
3AB
330
3A2
100
AcDbEntity
  8
DIBUJOS
 62
     7
100
AcDbVertex
100
AcDb2dVertex
 10
86.92139222837397
 20
42.44411427257488
 30
0.0
  0
VERTEX
  5
3AC
330
3A2
100
AcDbEntity
  8
DIBUJOS
 62
     7
100
AcDbVertex
100
AcDb2dVertex
 10
86.92139222837397
 20
42.59541107237663
 30
0.0
  0
VERTEX
  5
3AD
330
3A2
100
AcDbEntity
  8
DIBUJOS
 62
     7
100
AcDbVertex
100
AcDb2dVertex
 10
86.90323970772221
 20
42.61356616712258
 30
0.0
  0
VERTEX
  5
3AE
330
3A2
100
AcDbEntity
  8
DIBUJOS
 62
     7
100
AcDbVertex
100
AcDb2dVertex
 10
86.89108048295992
 20
42.61665445526555
 30
0.0
  0
VERTEX
  5
3AF
330
3A2
100
AcDbEntity
  8
DIBUJOS
 62
     7
100
AcDbVertex
100
AcDb2dVertex
 10
86.59464034217459
 20
42.61961895126751
 30
0.0
  0
SEQEND
  5
3B0
330
3A2
100
AcDbEntity
  8
DIBUJOS
 62
     7
  0
ENDBLK
  5
1FC
330
1F9
100
AcDbEntity
  8
0
100
AcDbBlockEnd
  0
BLOCK
  5
3B3
330
3B1
100
AcDbEntity
  8
0
100
AcDbBlockBegin
  2
BLOCK_4
 70
     0
 10
0.0
 20
0.0
 30
0.0
  3
BLOCK_4
  1

  0
POLYLINE
  5
3B5
330
3B1
100
AcDbEntity
  8
DIBUJOS
 62
     7
100
AcDb2dPolyline
 66
     1
 10
0.0
 20
0.0
 30
0.0
  0
VERTEX
  5
3B6
330
3B5
100
AcDbEntity
  8
DIBUJOS
 62
     7
100
AcDbVertex
100
AcDb2dVertex
 10
66.65190013923642
 20
31.18296290392361
 30
0.0
  0
VERTEX
  5
3B7
330
3B5
100
AcDbEntity
  8
DIBUJOS
 62
     7
100
AcDbVertex
100
AcDb2dVertex
 10
66.65795206519581
 20
31.18901405922493
 30
0.0
  0
SEQEND
  5
3B8
330
3B5
100
AcDbEntity
  8
DIBUJOS
 62
     7
  0
POLYLINE
  5
3B9
330
3B1
100
AcDbEntity
  8
DIBUJOS
 62
     7
100
AcDb2dPolyline
 66
     1
 10
0.0
 20
0.0
 30
0.0
  0
VERTEX
  5
3BA
330
3B9
100
AcDbEntity
  8
DIBUJOS
 62
     7
100
AcDbVertex
100
AcDb2dVertex
 10
66.63374761858368
 20
31.16480618033373
 30
0.0
  0
VERTEX
  5
3BB
330
3B9
100
AcDbEntity
  8
DIBUJOS
 62
     7
100
AcDbVertex
100
AcDb2dVertex
 10
66.63979791593019
 20
31.17085896447833
 30
0.0
  0
SEQEND
  5
3BC
330
3B9
100
AcDbEntity
  8
DIBUJOS
 62
     7
  0
POLYLINE
  5
3BD
330
3B1
100
AcDbEntity
  8
DIBUJOS
 62
     7
100
AcDb2dPolyline
 66
     1
 10
0.0
 20
0.0
 30
0.0
  0
VERTEX
  5
3BE
330
3BD
100
AcDbEntity
  8
DIBUJOS
 62
     7
100
AcDbVertex
100
AcDb2dVertex
 10
66.62164539527747
 20
31.14665108558712
 30
0.0
  0
VERTEX
  5
3BF
330
3BD
100
AcDbEntity
  8
DIBUJOS
 62
     7
100
AcDbVertex
100
AcDb2dVertex
 10
66.62769569262396
 20
31.15270386973237
 30
0.0
  0
SEQEND
  5
3C0
330
3BD
100
AcDbEntity
  8
DIBUJOS
 62
     7
  0
POLYLINE
  5
3C1
330
3B1
100
AcDbEntity
  8
DIBUJOS
 62
     7
100
AcDb2dPolyline
 66
     1
 10
0.0
 20
0.0
 30
0.0
  0
VERTEX
  5
3C2
330
3C1
100
AcDbEntity
  8
DIBUJOS
 62
     7
100
AcDbVertex
100
AcDb2dVertex
 10
66.57323813066611
 20
31.09218417250596
 30
0.0
  0
VERTEX
  5
3C3
330
3C1
100
AcDbEntity
  8
DIBUJOS
 62
     7
100
AcDbVertex
100
AcDb2dVertex
 10
66.5671862047067
 20
31.09218417250596
 30
0.0
  0
SEQEND
  5
3C4
330
3C1
100
AcDbEntity
  8
DIBUJOS
 62
     7
  0
POLYLINE
  5
3C5
330
3B1
100
AcDbEntity
  8
DIBUJOS
 62
     7
100
AcDb2dPolyline
 66
     1
 10
0.0
 20
0.0
 30
0.0
  0
VERTEX
  5
3C6
330
3C5
100
AcDbEntity
  8
DIBUJOS
 62
     7
100
AcDbVertex
100
AcDb2dVertex
 10
66.51877894009536
 20
31.03771888826679
 30
0.0
  0
VERTEX
  5
3C7
330
3C5
100
AcDbEntity
  8
DIBUJOS
 62
     7
100
AcDbVertex
100
AcDb2dVertex
 10
66.52482923744185
 20
31.04377004356811
 30
0.0
  0
SEQEND
  5
3C8
330
3C5
100
AcDbEntity
  8
DIBUJOS
 62
     7
  0
POLYLINE
  5
3C9
330
3B1
100
AcDbEntity
  8
DIBUJOS
 62
     7
100
AcDb2dPolyline
 66
     1
 10
0.0
 20
0.0
 30
0.0
  0
VERTEX
  5
3CA
330
3C9
100
AcDbEntity
  8
DIBUJOS
 62
     7
100
AcDbVertex
100
AcDb2dVertex
 10
62.28913413957285
 20
31.02561494882151
 30
0.0
  0
VERTEX
  5
3CB
330
3C9
100
AcDbEntity
  8
DIBUJOS
 62
     7
100
AcDbVertex
100
AcDb2dVertex
 10
62.28308384222635
 20
31.02561494882151
 30
0.0
  0
SEQEND
  5
3CC
330
3C9
100
AcDbEntity
  8
DIBUJOS
 62
     7
  0
POLYLINE
  5
3CD
330
3B1
100
AcDbEntity
  8
DIBUJOS
 62
     7
100
AcDb2dPolyline
 66
     1
 10
0.0
 20
0.0
 30
0.0
  0
VERTEX
  5
3CE
330
3CD
100
AcDbEntity
  8
DIBUJOS
 62
     7
100
AcDbVertex
100
AcDb2dVertex
 10
62.28913413957285
 20
31.02561494882151
 30
0.0
  0
VERTEX
  5
3CF
330
3CD
100
AcDbEntity
  8
DIBUJOS
 62
     7
100
AcDbVertex
100
AcDb2dVertex
 10
62.28913413957285
 20
31.03166610412219
 30
0.0
  0
SEQEND
  5
3D0
330
3CD
100
AcDbEntity
  8
DIBUJOS
 62
     7
  0
SPLINE
  5
3D1
330
3B1
100
AcDbEntity
  8
DIBUJOS
 62
     7
100
AcDbSpline
210
0.0
220
0.0
230
1.0
 70
     8
 71
     3
 72
     8
 73
     4
 74
     0
 42
0.0000000001
 43
0.0000000001
 12
1.0
 22
0.0
 32
0.0
 13
1.0
 23
0.0
 33
0.0
 40
0.0
 40
0.0
 40
0.0
 40
0.0
 40
1.0
 40
1.0
 40
1.0
 40
1.0
 10
62.31939051214439
 20
30.99535591463026
 30
0.0
 10
62.30840531793019
 20
31.00041108967515
 30
0.0
 10
62.29626902731479
 20
31.01302921097421
 30
0.0
 10
62.28913413957285
 20
31.02561494882151
 30
0.0
  0
POLYLINE
  5
3D2
330
3B1
100
AcDbEntity
  8
DIBUJOS
 62
     7
100
AcDb2dPolyline
 66
     1
 10
0.0
 20
0.0
 30
0.0
  0
VERTEX
  5
3D3
330
3D2
100
AcDbEntity
  8
DIBUJOS
 62
     7
100
AcDbVertex
100
AcDb2dVertex
 10
66.45221752621805
 20
30.96509525159446
 30
0.0
  0
VERTEX
  5
3D4
330
3D2
100
AcDbEntity
  8
DIBUJOS
 62
     7
100
AcDbVertex
100
AcDb2dVertex
 10
66.45826782356454
 20
30.97114803573906
 30
0.0
  0
SEQEND
  5
3D5
330
3D2
100
AcDbEntity
  8
DIBUJOS
 62
     7
  0
POLYLINE
  5
3D6
330
3B1
100
AcDbEntity
  8
DIBUJOS
 62
     7
100
AcDb2dPolyline
 66
     1
 10
0.0
 20
0.0
 30
0.0
  0
VERTEX
  5
3D7
330
3D6
100
AcDbEntity
  8
DIBUJOS
 62
     7
100
AcDbVertex
100
AcDb2dVertex
 10
66.42801307960623
 20
30.94088900154782
 30
0.0
  0
VERTEX
  5
3D8
330
3D6
100
AcDbEntity
  8
DIBUJOS
 62
     7
100
AcDbVertex
100
AcDb2dVertex
 10
66.44011530291215
 20
30.94694015684849
 30
0.0
  0
SEQEND
  5
3D9
330
3D6
100
AcDbEntity
  8
DIBUJOS
 62
     7
  0
POLYLINE
  5
3DA
330
3B1
100
AcDbEntity
  8
DIBUJOS
 62
     7
100
AcDb2dPolyline
 66
     1
 10
0.0
 20
0.0
 30
0.0
  0
VERTEX
  5
3DB
330
3DA
100
AcDbEntity
  8
DIBUJOS
 62
     7
100
AcDbVertex
100
AcDb2dVertex
 10
62.38595029740846
 20
30.92878506210253
 30
0.0
  0
VERTEX
  5
3DC
330
3DA
100
AcDbEntity
  8
DIBUJOS
 62
     7
100
AcDbVertex
100
AcDb2dVertex
 10
62.37384807410256
 20
30.94694015684849
 30
0.0
  0
SEQEND
  5
3DD
330
3DA
100
AcDbEntity
  8
DIBUJOS
 62
     7
  0
POLYLINE
  5
3DE
330
3B1
100
AcDbEntity
  8
DIBUJOS
 62
     7
100
AcDb2dPolyline
 66
     1
 10
0.0
 20
0.0
 30
0.0
  0
VERTEX
  5
3DF
330
3DE
100
AcDbEntity
  8
DIBUJOS
 62
     7
100
AcDbVertex
100
AcDb2dVertex
 10
62.4041044466741
 20
30.91062996735593
 30
0.0
  0
VERTEX
  5
3E0
330
3DE
100
AcDbEntity
  8
DIBUJOS
 62
     7
100
AcDbVertex
100
AcDb2dVertex
 10
62.39805252071437
 20
30.91668112265725
 30
0.0
  0
SEQEND
  5
3E1
330
3DE
100
AcDbEntity
  8
DIBUJOS
 62
     7
  0
POLYLINE
  5
3E2
330
3B1
100
AcDbEntity
  8
DIBUJOS
 62
     7
100
AcDb2dPolyline
 66
     1
 10
0.0
 20
0.0
 30
0.0
  0
VERTEX
  5
3E3
330
3E2
100
AcDbEntity
  8
DIBUJOS
 62
     7
100
AcDbVertex
100
AcDb2dVertex
 10
62.43435919063305
 20
30.88642208846601
 30
0.0
  0
VERTEX
  5
3E4
330
3E2
100
AcDbEntity
  8
DIBUJOS
 62
     7
100
AcDbVertex
100
AcDb2dVertex
 10
62.42830726467332
 20
30.89247324376604
 30
0.0
  0
SEQEND
  5
3E5
330
3E2
100
AcDbEntity
  8
DIBUJOS
 62
     7
  0
POLYLINE
  5
3E6
330
3B1
100
AcDbEntity
  8
DIBUJOS
 62
     7
100
AcDb2dPolyline
 66
     1
 10
0.0
 20
0.0
 30
0.0
  0
VERTEX
  5
3E7
330
3E6
100
AcDbEntity
  8
DIBUJOS
 62
     7
100
AcDbVertex
100
AcDb2dVertex
 10
62.45251171128545
 20
30.86826699372005
 30
0.0
  0
VERTEX
  5
3E8
330
3E6
100
AcDbEntity
  8
DIBUJOS
 62
     7
100
AcDbVertex
100
AcDb2dVertex
 10
62.45251171128545
 20
30.87431814902008
 30
0.0
  0
SEQEND
  5
3E9
330
3E6
100
AcDbEntity
  8
DIBUJOS
 62
     7
  0
SPLINE
  5
3EA
330
3B1
100
AcDbEntity
  8
DIBUJOS
 62
     7
100
AcDbSpline
210
0.0
220
0.0
230
1.0
 70
     8
 71
     3
 72
    11
 73
     7
 74
     0
 42
0.0000000001
 43
0.0000000001
 12
1.0
 22
0.0
 32
0.0
 13
1.0
 23
0.0
 33
0.0
 40
0.0
 40
0.0
 40
0.0
 40
0.0
 40
1.0
 40
1.0
 40
1.0
 40
2.0
 40
2.0
 40
2.0
 40
2.0
 10
66.95444920743657
 20
30.86826699372005
 30
0.0
 10
66.41637315722505
 20
31.52763994048539
 30
0.0
 10
65.60730814444493
 20
31.88368430970885
 30
0.0
 10
64.75493295887296
 20
31.93414037062906
 30
0.0
 10
63.79371841047801
 20
31.99103914083225
 30
0.0
 10
63.03911272993302
 20
31.585381418999
 30
0.0
 10
62.28913413957285
 20
31.03166610412219
 30
0.0
  0
POLYLINE
  5
3EB
330
3B1
100
AcDbEntity
  8
DIBUJOS
 62
     7
100
AcDb2dPolyline
 66
     1
 10
0.0
 20
0.0
 30
0.0
  0
VERTEX
  5
3EC
330
3EB
100
AcDbEntity
  8
DIBUJOS
 62
     7
100
AcDbVertex
100
AcDb2dVertex
 10
66.96050113339629
 20
30.86826699372005
 30
0.0
  0
VERTEX
  5
3ED
330
3EB
100
AcDbEntity
  8
DIBUJOS
 62
     7
100
AcDbVertex
100
AcDb2dVertex
 10
66.95444920743657
 20
30.86826699372005
 30
0.0
  0
SEQEND
  5
3EE
330
3EB
100
AcDbEntity
  8
DIBUJOS
 62
     7
  0
POLYLINE
  5
3EF
330
3B1
100
AcDbEntity
  8
DIBUJOS
 62
     7
100
AcDb2dPolyline
 66
     1
 10
0.0
 20
0.0
 30
0.0
  0
VERTEX
  5
3F0
330
3EF
100
AcDbEntity
  8
DIBUJOS
 62
     7
100
AcDbVertex
100
AcDb2dVertex
 10
66.95444920743657
 20
30.8622142095748
 30
0.0
  0
VERTEX
  5
3F1
330
3EF
100
AcDbEntity
  8
DIBUJOS
 62
     7
100
AcDbVertex
100
AcDb2dVertex
 10
66.95444920743657
 20
30.86826699372005
 30
0.0
  0
SEQEND
  5
3F2
330
3EF
100
AcDbEntity
  8
DIBUJOS
 62
     7
  0
POLYLINE
  5
3F3
330
3B1
100
AcDbEntity
  8
DIBUJOS
 62
     7
100
AcDb2dPolyline
 66
     1
 10
0.0
 20
0.0
 30
0.0
  0
VERTEX
  5
3F4
330
3F3
100
AcDbEntity
  8
DIBUJOS
 62
     7
100
AcDbVertex
100
AcDb2dVertex
 10
66.97260335670252
 20
30.8622142095748
 30
0.0
  0
VERTEX
  5
3F5
330
3F3
100
AcDbEntity
  8
DIBUJOS
 62
     7
100
AcDbVertex
100
AcDb2dVertex
 10
66.96050113339629
 20
30.86826699372005
 30
0.0
  0
SEQEND
  5
3F6
330
3F3
100
AcDbEntity
  8
DIBUJOS
 62
     7
  0
POLYLINE
  5
3F7
330
3B1
100
AcDbEntity
  8
DIBUJOS
 62
     7
100
AcDb2dPolyline
 66
     1
 10
0.0
 20
0.0
 30
0.0
  0
VERTEX
  5
3F8
330
3F7
100
AcDbEntity
  8
DIBUJOS
 62
     7
100
AcDbVertex
100
AcDb2dVertex
 10
66.96050113339629
 20
30.85616305427348
 30
0.0
  0
VERTEX
  5
3F9
330
3F7
100
AcDbEntity
  8
DIBUJOS
 62
     7
100
AcDbVertex
100
AcDb2dVertex
 10
66.95444920743657
 20
30.8622142095748
 30
0.0
  0
SEQEND
  5
3FA
330
3F7
100
AcDbEntity
  8
DIBUJOS
 62
     7
  0
POLYLINE
  5
3FB
330
3B1
100
AcDbEntity
  8
DIBUJOS
 62
     7
100
AcDb2dPolyline
 66
     1
 10
0.0
 20
0.0
 30
0.0
  0
VERTEX
  5
3FC
330
3FB
100
AcDbEntity
  8
DIBUJOS
 62
     7
100
AcDbVertex
100
AcDb2dVertex
 10
66.9665514307428
 20
30.85616305427348
 30
0.0
  0
VERTEX
  5
3FD
330
3FB
100
AcDbEntity
  8
DIBUJOS
 62
     7
100
AcDbVertex
100
AcDb2dVertex
 10
66.96050113339629
 20
30.85616305427348
 30
0.0
  0
SEQEND
  5
3FE
330
3FB
100
AcDbEntity
  8
DIBUJOS
 62
     7
  0
POLYLINE
  5
3FF
330
3B1
100
AcDbEntity
  8
DIBUJOS
 62
     7
100
AcDb2dPolyline
 66
     1
 10
0.0
 20
0.0
 30
0.0
  0
VERTEX
  5
400
330
3FF
100
AcDbEntity
  8
DIBUJOS
 62
     7
100
AcDbVertex
100
AcDb2dVertex
 10
66.9665514307428
 20
30.85616305427348
 30
0.0
  0
VERTEX
  5
401
330
3FF
100
AcDbEntity
  8
DIBUJOS
 62
     7
100
AcDbVertex
100
AcDb2dVertex
 10
66.97260335670252
 20
30.8622142095748
 30
0.0
  0
SEQEND
  5
402
330
3FF
100
AcDbEntity
  8
DIBUJOS
 62
     7
  0
POLYLINE
  5
403
330
3B1
100
AcDbEntity
  8
DIBUJOS
 62
     7
100
AcDb2dPolyline
 66
     1
 10
0.0
 20
0.0
 30
0.0
  0
VERTEX
  5
404
330
403
100
AcDbEntity
  8
DIBUJOS
 62
     7
100
AcDbVertex
100
AcDb2dVertex
 10
66.96050113339629
 20
30.85011027012952
 30
0.0
  0
VERTEX
  5
405
330
403
100
AcDbEntity
  8
DIBUJOS
 62
     7
100
AcDbVertex
100
AcDb2dVertex
 10
66.96050113339629
 20
30.85616305427348
 30
0.0
  0
SEQEND
  5
406
330
403
100
AcDbEntity
  8
DIBUJOS
 62
     7
  0
POLYLINE
  5
407
330
3B1
100
AcDbEntity
  8
DIBUJOS
 62
     7
100
AcDb2dPolyline
 66
     1
 10
0.0
 20
0.0
 30
0.0
  0
VERTEX
  5
408
330
407
100
AcDbEntity
  8
DIBUJOS
 62
     7
100
AcDbVertex
100
AcDb2dVertex
 10
66.31304440111758
 20
30.8138000806376
 30
0.0
  0
VERTEX
  5
409
330
407
100
AcDbEntity
  8
DIBUJOS
 62
     7
100
AcDbVertex
100
AcDb2dVertex
 10
66.3311969217703
 20
30.83195517538356
 30
0.0
  0
SEQEND
  5
40A
330
407
100
AcDbEntity
  8
DIBUJOS
 62
     7
  0
POLYLINE
  5
40B
330
3B1
100
AcDbEntity
  8
DIBUJOS
 62
     7
100
AcDb2dPolyline
 66
     1
 10
0.0
 20
0.0
 30
0.0
  0
VERTEX
  5
40C
330
40B
100
AcDbEntity
  8
DIBUJOS
 62
     7
100
AcDbVertex
100
AcDb2dVertex
 10
62.13786041977907
 20
30.80774729649236
 30
0.0
  0
VERTEX
  5
40D
330
40B
100
AcDbEntity
  8
DIBUJOS
 62
     7
100
AcDbVertex
100
AcDb2dVertex
 10
62.13180849381966
 20
30.80774729649236
 30
0.0
  0
SEQEND
  5
40E
330
40B
100
AcDbEntity
  8
DIBUJOS
 62
     7
  0
POLYLINE
  5
40F
330
3B1
100
AcDbEntity
  8
DIBUJOS
 62
     7
100
AcDb2dPolyline
 66
     1
 10
0.0
 20
0.0
 30
0.0
  0
VERTEX
  5
410
330
40F
100
AcDbEntity
  8
DIBUJOS
 62
     7
100
AcDbVertex
100
AcDb2dVertex
 10
62.13786041977907
 20
30.80774729649236
 30
0.0
  0
VERTEX
  5
411
330
40F
100
AcDbEntity
  8
DIBUJOS
 62
     7
100
AcDbVertex
100
AcDb2dVertex
 10
62.28308384222635
 20
31.02561494882151
 30
0.0
  0
SEQEND
  5
412
330
40F
100
AcDbEntity
  8
DIBUJOS
 62
     7
  0
POLYLINE
  5
413
330
3B1
100
AcDbEntity
  8
DIBUJOS
 62
     7
100
AcDb2dPolyline
 66
     1
 10
0.0
 20
0.0
 30
0.0
  0
VERTEX
  5
414
330
413
100
AcDbEntity
  8
DIBUJOS
 62
     7
100
AcDbVertex
100
AcDb2dVertex
 10
62.11970789912667
 20
30.80169614119167
 30
0.0
  0
VERTEX
  5
415
330
413
100
AcDbEntity
  8
DIBUJOS
 62
     7
100
AcDbVertex
100
AcDb2dVertex
 10
62.13180849381966
 20
30.80774729649236
 30
0.0
  0
SEQEND
  5
416
330
413
100
AcDbEntity
  8
DIBUJOS
 62
     7
  0
POLYLINE
  5
417
330
3B1
100
AcDbEntity
  8
DIBUJOS
 62
     7
100
AcDb2dPolyline
 66
     1
 10
0.0
 20
0.0
 30
0.0
  0
VERTEX
  5
418
330
417
100
AcDbEntity
  8
DIBUJOS
 62
     7
100
AcDbVertex
100
AcDb2dVertex
 10
62.13786041977907
 20
30.80169614119167
 30
0.0
  0
VERTEX
  5
419
330
417
100
AcDbEntity
  8
DIBUJOS
 62
     7
100
AcDbVertex
100
AcDb2dVertex
 10
62.13786041977907
 20
30.80774729649236
 30
0.0
  0
SEQEND
  5
41A
330
417
100
AcDbEntity
  8
DIBUJOS
 62
     7
  0
POLYLINE
  5
41B
330
3B1
100
AcDbEntity
  8
DIBUJOS
 62
     7
100
AcDb2dPolyline
 66
     1
 10
0.0
 20
0.0
 30
0.0
  0
VERTEX
  5
41C
330
41B
100
AcDbEntity
  8
DIBUJOS
 62
     7
100
AcDbVertex
100
AcDb2dVertex
 10
62.11970789912667
 20
30.79564498589099
 30
0.0
  0
VERTEX
  5
41D
330
41B
100
AcDbEntity
  8
DIBUJOS
 62
     7
100
AcDbVertex
100
AcDb2dVertex
 10
62.11365597316694
 20
30.79564498589099
 30
0.0
  0
SEQEND
  5
41E
330
41B
100
AcDbEntity
  8
DIBUJOS
 62
     7
  0
POLYLINE
  5
41F
330
3B1
100
AcDbEntity
  8
DIBUJOS
 62
     7
100
AcDb2dPolyline
 66
     1
 10
0.0
 20
0.0
 30
0.0
  0
VERTEX
  5
420
330
41F
100
AcDbEntity
  8
DIBUJOS
 62
     7
100
AcDbVertex
100
AcDb2dVertex
 10
62.11970789912667
 20
30.79564498589099
 30
0.0
  0
VERTEX
  5
421
330
41F
100
AcDbEntity
  8
DIBUJOS
 62
     7
100
AcDbVertex
100
AcDb2dVertex
 10
62.11970789912667
 20
30.80169614119167
 30
0.0
  0
SEQEND
  5
422
330
41F
100
AcDbEntity
  8
DIBUJOS
 62
     7
  0
POLYLINE
  5
423
330
3B1
100
AcDbEntity
  8
DIBUJOS
 62
     7
100
AcDb2dPolyline
 66
     1
 10
0.0
 20
0.0
 30
0.0
  0
VERTEX
  5
424
330
423
100
AcDbEntity
  8
DIBUJOS
 62
     7
100
AcDbVertex
100
AcDb2dVertex
 10
62.53117534846866
 20
30.79564498589099
 30
0.0
  0
VERTEX
  5
425
330
423
100
AcDbEntity
  8
DIBUJOS
 62
     7
100
AcDbVertex
100
AcDb2dVertex
 10
62.52512342250925
 20
30.80169614119167
 30
0.0
  0
SEQEND
  5
426
330
423
100
AcDbEntity
  8
DIBUJOS
 62
     7
  0
POLYLINE
  5
427
330
3B1
100
AcDbEntity
  8
DIBUJOS
 62
     7
100
AcDb2dPolyline
 66
     1
 10
0.0
 20
0.0
 30
0.0
  0
VERTEX
  5
428
330
427
100
AcDbEntity
  8
DIBUJOS
 62
     7
100
AcDbVertex
100
AcDb2dVertex
 10
62.12575819647316
 20
30.78959220174575
 30
0.0
  0
VERTEX
  5
429
330
427
100
AcDbEntity
  8
DIBUJOS
 62
     7
100
AcDbVertex
100
AcDb2dVertex
 10
62.11970789912667
 20
30.79564498589099
 30
0.0
  0
SEQEND
  5
42A
330
427
100
AcDbEntity
  8
DIBUJOS
 62
     7
  0
POLYLINE
  5
42B
330
3B1
100
AcDbEntity
  8
DIBUJOS
 62
     7
100
AcDb2dPolyline
 66
     1
 10
0.0
 20
0.0
 30
0.0
  0
VERTEX
  5
42C
330
42B
100
AcDbEntity
  8
DIBUJOS
 62
     7
100
AcDbVertex
100
AcDb2dVertex
 10
62.13180849381966
 20
30.78959220174575
 30
0.0
  0
VERTEX
  5
42D
330
42B
100
AcDbEntity
  8
DIBUJOS
 62
     7
100
AcDbVertex
100
AcDb2dVertex
 10
62.12575819647316
 20
30.78959220174575
 30
0.0
  0
SEQEND
  5
42E
330
42B
100
AcDbEntity
  8
DIBUJOS
 62
     7
  0
POLYLINE
  5
42F
330
3B1
100
AcDbEntity
  8
DIBUJOS
 62
     7
100
AcDb2dPolyline
 66
     1
 10
0.0
 20
0.0
 30
0.0
  0
VERTEX
  5
430
330
42F
100
AcDbEntity
  8
DIBUJOS
 62
     7
100
AcDbVertex
100
AcDb2dVertex
 10
62.13180849381966
 20
30.78959220174575
 30
0.0
  0
VERTEX
  5
431
330
42F
100
AcDbEntity
  8
DIBUJOS
 62
     7
100
AcDbVertex
100
AcDb2dVertex
 10
62.13786041977907
 20
30.80169614119167
 30
0.0
  0
SEQEND
  5
432
330
42F
100
AcDbEntity
  8
DIBUJOS
 62
     7
  0
POLYLINE
  5
433
330
3B1
100
AcDbEntity
  8
DIBUJOS
 62
     7
100
AcDb2dPolyline
 66
     1
 10
0.0
 20
0.0
 30
0.0
  0
VERTEX
  5
434
330
433
100
AcDbEntity
  8
DIBUJOS
 62
     7
100
AcDbVertex
100
AcDb2dVertex
 10
62.13180849381966
 20
30.78354104644571
 30
0.0
  0
VERTEX
  5
435
330
433
100
AcDbEntity
  8
DIBUJOS
 62
     7
100
AcDbVertex
100
AcDb2dVertex
 10
62.13180849381966
 20
30.78959220174575
 30
0.0
  0
SEQEND
  5
436
330
433
100
AcDbEntity
  8
DIBUJOS
 62
     7
  0
SPLINE
  5
437
330
3B1
100
AcDbEntity
  8
DIBUJOS
 62
     7
100
AcDbSpline
210
0.0
220
0.0
230
1.0
 70
     8
 71
     3
 72
     8
 73
     4
 74
     0
 42
0.0000000001
 43
0.0000000001
 12
1.0
 22
0.0
 32
0.0
 13
1.0
 23
0.0
 33
0.0
 40
0.0
 40
0.0
 40
0.0
 40
0.0
 40
1.0
 40
1.0
 40
1.0
 40
1.0
 10
62.55537816646756
 20
30.77143710700043
 30
0.0
 10
62.55718217267917
 20
30.77907943979994
 30
0.0
 10
62.55314809824397
 20
30.78311408628128
 30
0.0
 10
62.54327594316166
 20
30.78354104644571
 30
0.0
  0
POLYLINE
  5
438
330
3B1
100
AcDbEntity
  8
DIBUJOS
 62
     7
100
AcDb2dPolyline
 66
     1
 10
0.0
 20
0.0
 30
0.0
  0
VERTEX
  5
439
330
438
100
AcDbEntity
  8
DIBUJOS
 62
     7
100
AcDbVertex
100
AcDb2dVertex
 10
62.60378705969215
 20
30.72907413336326
 30
0.0
  0
VERTEX
  5
43A
330
438
100
AcDbEntity
  8
DIBUJOS
 62
     7
100
AcDbVertex
100
AcDb2dVertex
 10
62.60378705969215
 20
30.73512528866394
 30
0.0
  0
SEQEND
  5
43B
330
438
100
AcDbEntity
  8
DIBUJOS
 62
     7
  0
POLYLINE
  5
43C
330
3B1
100
AcDbEntity
  8
DIBUJOS
 62
     7
100
AcDb2dPolyline
 66
     1
 10
0.0
 20
0.0
 30
0.0
  0
VERTEX
  5
43D
330
43C
100
AcDbEntity
  8
DIBUJOS
 62
     7
100
AcDbVertex
100
AcDb2dVertex
 10
62.61588765438546
 20
30.71697019391798
 30
0.0
  0
VERTEX
  5
43E
330
43C
100
AcDbEntity
  8
DIBUJOS
 62
     7
100
AcDbVertex
100
AcDb2dVertex
 10
62.61588765438546
 20
30.72302134921866
 30
0.0
  0
SEQEND
  5
43F
330
43C
100
AcDbEntity
  8
DIBUJOS
 62
     7
  0
POLYLINE
  5
440
330
3B1
100
AcDbEntity
  8
DIBUJOS
 62
     7
100
AcDb2dPolyline
 66
     1
 10
0.0
 20
0.0
 30
0.0
  0
VERTEX
  5
441
330
440
100
AcDbEntity
  8
DIBUJOS
 62
     7
100
AcDbVertex
100
AcDb2dVertex
 10
62.66429654760972
 20
30.67460722028146
 30
0.0
  0
VERTEX
  5
442
330
440
100
AcDbEntity
  8
DIBUJOS
 62
     7
100
AcDbVertex
100
AcDb2dVertex
 10
62.66429654760972
 20
30.68065837558214
 30
0.0
  0
SEQEND
  5
443
330
440
100
AcDbEntity
  8
DIBUJOS
 62
     7
  0
POLYLINE
  5
444
330
3B1
100
AcDbEntity
  8
DIBUJOS
 62
     7
100
AcDb2dPolyline
 66
     1
 10
0.0
 20
0.0
 30
0.0
  0
VERTEX
  5
445
330
444
100
AcDbEntity
  8
DIBUJOS
 62
     7
100
AcDbVertex
100
AcDb2dVertex
 10
62.68244906826212
 20
30.65645212553549
 30
0.0
  0
VERTEX
  5
446
330
444
100
AcDbEntity
  8
DIBUJOS
 62
     7
100
AcDbVertex
100
AcDb2dVertex
 10
62.68244906826212
 20
30.66250328083553
 30
0.0
  0
SEQEND
  5
447
330
444
100
AcDbEntity
  8
DIBUJOS
 62
     7
  0
POLYLINE
  5
448
330
3B1
100
AcDbEntity
  8
DIBUJOS
 62
     7
100
AcDb2dPolyline
 66
     1
 10
0.0
 20
0.0
 30
0.0
  0
VERTEX
  5
449
330
448
100
AcDbEntity
  8
DIBUJOS
 62
     7
100
AcDbVertex
100
AcDb2dVertex
 10
62.7369082588332
 20
30.61408915189833
 30
0.0
  0
VERTEX
  5
44A
330
448
100
AcDbEntity
  8
DIBUJOS
 62
     7
100
AcDbVertex
100
AcDb2dVertex
 10
62.72480603552698
 20
30.62619309134361
 30
0.0
  0
SEQEND
  5
44B
330
448
100
AcDbEntity
  8
DIBUJOS
 62
     7
  0
POLYLINE
  5
44C
330
3B1
100
AcDbEntity
  8
DIBUJOS
 62
     7
100
AcDb2dPolyline
 66
     1
 10
0.0
 20
0.0
 30
0.0
  0
VERTEX
  5
44D
330
44C
100
AcDbEntity
  8
DIBUJOS
 62
     7
100
AcDbVertex
100
AcDb2dVertex
 10
62.77321492875156
 20
30.57777733356248
 30
0.0
  0
VERTEX
  5
44E
330
44C
100
AcDbEntity
  8
DIBUJOS
 62
     7
100
AcDbVertex
100
AcDb2dVertex
 10
62.75506077948593
 20
30.5959324283078
 30
0.0
  0
SEQEND
  5
44F
330
44C
100
AcDbEntity
  8
DIBUJOS
 62
     7
  0
SPLINE
  5
450
330
3B1
100
AcDbEntity
  8
DIBUJOS
 62
     7
100
AcDbSpline
210
0.0
220
0.0
230
1.0
 70
     8
 71
     3
 72
    17
 73
    13
 74
     0
 42
0.0000000001
 43
0.0000000001
 12
1.0
 22
0.0
 32
0.0
 13
1.0
 23
0.0
 33
0.0
 40
0.0
 40
0.0
 40
0.0
 40
0.0
 40
1.0
 40
1.0
 40
1.0
 40
2.0
 40
2.0
 40
2.0
 40
3.0
 40
3.0
 40
3.0
 40
4.0
 40
4.0
 40
4.0
 40
4.0
 10
60.79453969061092
 20
30.3054443969948
 30
0.0
 10
60.65166558990836
 20
30.83569780399468
 30
0.0
 10
61.23239524025274
 20
31.57776183229165
 30
0.0
 10
61.55924271667755
 20
31.94311017299061
 30
0.0
 10
62.02372833633012
 20
32.46230968548193
 30
0.0
 10
62.62260164971346
 20
32.88362039186368
 30
0.0
 10
63.28657685667147
 20
33.10666849109084
 30
0.0
 10
64.720863533278
 20
33.58848605537864
 30
0.0
 10
66.31757892211422
 20
33.21631354466202
 30
0.0
 10
67.40468838329113
 20
32.16694862431833
 30
0.0
 10
67.78994142702535
 20
31.7950716018214
 30
0.0
 10
68.53486093488888
 20
30.91961991840637
 30
0.0
 10
68.37038164782821
 20
30.32359949174012
 30
0.0
  0
POLYLINE
  5
451
330
3B1
100
AcDbEntity
  8
DIBUJOS
 62
     7
100
AcDb2dPolyline
 66
     1
 10
0.0
 20
0.0
 30
0.0
  0
VERTEX
  5
452
330
451
100
AcDbEntity
  8
DIBUJOS
 62
     7
100
AcDbVertex
100
AcDb2dVertex
 10
65.76845575263452
 20
30.21466729441979
 30
0.0
  0
VERTEX
  5
453
330
451
100
AcDbEntity
  8
DIBUJOS
 62
     7
100
AcDbVertex
100
AcDb2dVertex
 10
66.20412764858897
 20
30.69276231502742
 30
0.0
  0
SEQEND
  5
454
330
451
100
AcDbEntity
  8
DIBUJOS
 62
     7
  0
SPLINE
  5
455
330
3B1
100
AcDbEntity
  8
DIBUJOS
 62
     7
100
AcDbSpline
210
0.0
220
0.0
230
1.0
 70
     8
 71
     3
 72
    23
 73
    19
 74
     0
 42
0.0000000001
 43
0.0000000001
 12
1.0
 22
0.0
 32
0.0
 13
1.0
 23
0.0
 33
0.0
 40
0.0
 40
0.0
 40
0.0
 40
0.0
 40
1.0
 40
1.0
 40
1.0
 40
2.0
 40
2.0
 40
2.0
 40
3.0
 40
3.0
 40
3.0
 40
4.0
 40
4.0
 40
4.0
 40
5.0
 40
5.0
 40
5.0
 40
6.0
 40
6.0
 40
6.0
 40
6.0
 10
66.97260335670252
 20
30.8622142095748
 30
0.0
 10
67.32199427378163
 20
30.64810022171407
 30
0.0
 10
67.71749849635881
 20
30.05546593408602
 30
0.0
 10
68.19191416223565
 20
30.18759346458684
 30
0.0
 10
68.61008456283942
 20
30.30405636059642
 30
0.0
 10
68.67529711045742
 20
30.82548831273291
 30
0.0
 10
68.56821975482006
 20
31.17421102353957
 30
0.0
 10
68.2673252215563
 20
32.15414517191182
 30
0.0
 10
67.40098960753346
 20
32.93585063264704
 30
0.0
 10
66.49396864944211
 20
33.353760708994
 30
0.0
 10
64.4669774180561
 20
34.28769729855828
 30
0.0
 10
61.64409167260051
 20
33.59224358995385
 30
0.0
 10
60.6934875103263
 20
31.43048366049256
 30
0.0
 10
60.52991934090127
 20
31.05851483431718
 30
0.0
 10
60.42040785587662
 20
30.52374898452863
 30
0.0
 10
60.81967407525431
 20
30.25237340318366
 30
0.0
 10
61.30077855552211
 20
29.92537351768468
 30
0.0
 10
61.75401818157721
 20
30.54550881894736
 30
0.0
 10
62.11365597316694
 20
30.79564498589099
 30
0.0
  0
POLYLINE
  5
456
330
3B1
100
AcDbEntity
  8
DIBUJOS
 62
     7
100
AcDb2dPolyline
 66
     1
 10
0.0
 20
0.0
 30
0.0
  0
VERTEX
  5
457
330
456
100
AcDbEntity
  8
DIBUJOS
 62
     7
100
AcDbVertex
100
AcDb2dVertex
 10
63.29359913062249
 20
30.10573346825554
 30
0.0
  0
VERTEX
  5
458
330
456
100
AcDbEntity
  8
DIBUJOS
 62
     7
100
AcDbVertex
100
AcDb2dVertex
 10
62.80951997005669
 20
30.54146714406992
 30
0.0
  0
SEQEND
  5
459
330
456
100
AcDbEntity
  8
DIBUJOS
 62
     7
  0
POLYLINE
  5
45A
330
3B1
100
AcDbEntity
  8
DIBUJOS
 62
     7
100
AcDb2dPolyline
 66
     1
 10
0.0
 20
0.0
 30
0.0
  0
VERTEX
  5
45B
330
45A
100
AcDbEntity
  8
DIBUJOS
 62
     7
100
AcDbVertex
100
AcDb2dVertex
 10
65.85316968716423
 20
27.7576148234808
 30
0.0
  0
VERTEX
  5
45C
330
45A
100
AcDbEntity
  8
DIBUJOS
 62
     7
100
AcDbVertex
100
AcDb2dVertex
 10
65.8471177612045
 20
27.76366679320344
 30
0.0
  0
SEQEND
  5
45D
330
45A
100
AcDbEntity
  8
DIBUJOS
 62
     7
  0
SPLINE
  5
45E
330
3B1
100
AcDbEntity
  8
DIBUJOS
 62
     7
100
AcDbSpline
210
0.0
220
0.0
230
1.0
 70
     8
 71
     3
 72
     8
 73
     4
 74
     0
 42
0.0000000001
 43
0.0000000001
 12
1.0
 22
0.0
 32
0.0
 13
1.0
 23
0.0
 33
0.0
 40
0.0
 40
0.0
 40
0.0
 40
0.0
 40
1.0
 40
1.0
 40
1.0
 40
1.0
 10
66.34935107103594
 20
27.29767489761977
 30
0.0
 10
66.19234946275462
 20
27.4453913293342
 30
0.0
 10
66.03092536647412
 20
27.58851112340594
 30
0.0
 10
65.87132220781663
 20
27.73340775901219
 30
0.0
  0
POLYLINE
  5
45F
330
3B1
100
AcDbEntity
  8
DIBUJOS
 62
     7
100
AcDb2dPolyline
 66
     1
 10
0.0
 20
0.0
 30
0.0
  0
VERTEX
  5
460
330
45F
100
AcDbEntity
  8
DIBUJOS
 62
     7
100
AcDbVertex
100
AcDb2dVertex
 10
66.36750359168866
 20
27.27951898845185
 30
0.0
  0
VERTEX
  5
461
330
45F
100
AcDbEntity
  8
DIBUJOS
 62
     7
100
AcDbVertex
100
AcDb2dVertex
 10
66.36145329434216
 20
27.28557095817385
 30
0.0
  0
SEQEND
  5
462
330
45F
100
AcDbEntity
  8
DIBUJOS
 62
     7
  0
POLYLINE
  5
463
330
3B1
100
AcDbEntity
  8
DIBUJOS
 62
     7
100
AcDb2dPolyline
 66
     1
 10
0.0
 20
0.0
 30
0.0
  0
VERTEX
  5
464
330
463
100
AcDbEntity
  8
DIBUJOS
 62
     7
100
AcDbVertex
100
AcDb2dVertex
 10
66.38565611234138
 20
27.26136389370524
 30
0.0
  0
VERTEX
  5
465
330
463
100
AcDbEntity
  8
DIBUJOS
 62
     7
100
AcDbVertex
100
AcDb2dVertex
 10
66.37960581499489
 20
27.27346701872856
 30
0.0
  0
SEQEND
  5
466
330
463
100
AcDbEntity
  8
DIBUJOS
 62
     7
  0
POLYLINE
  5
467
330
3B1
100
AcDbEntity
  8
DIBUJOS
 62
     7
100
AcDb2dPolyline
 66
     1
 10
0.0
 20
0.0
 30
0.0
  0
VERTEX
  5
468
330
467
100
AcDbEntity
  8
DIBUJOS
 62
     7
100
AcDbVertex
100
AcDb2dVertex
 10
66.44616722887154
 20
27.21294895034608
 30
0.0
  0
VERTEX
  5
469
330
467
100
AcDbEntity
  8
DIBUJOS
 62
     7
100
AcDbVertex
100
AcDb2dVertex
 10
66.44011530291215
 20
27.21294895034608
 30
0.0
  0
SEQEND
  5
46A
330
467
100
AcDbEntity
  8
DIBUJOS
 62
     7
  0
POLYLINE
  5
46B
330
3B1
100
AcDbEntity
  8
DIBUJOS
 62
     7
100
AcDb2dPolyline
 66
     1
 10
0.0
 20
0.0
 30
0.0
  0
VERTEX
  5
46C
330
46B
100
AcDbEntity
  8
DIBUJOS
 62
     7
100
AcDbVertex
100
AcDb2dVertex
 10
66.49457449348323
 20
27.17058597670891
 30
0.0
  0
VERTEX
  5
46D
330
46B
100
AcDbEntity
  8
DIBUJOS
 62
     7
100
AcDbVertex
100
AcDb2dVertex
 10
66.48852419613672
 20
27.17663794643155
 30
0.0
  0
SEQEND
  5
46E
330
46B
100
AcDbEntity
  8
DIBUJOS
 62
     7
  0
POLYLINE
  5
46F
330
3B1
100
AcDbEntity
  8
DIBUJOS
 62
     7
100
AcDb2dPolyline
 66
     1
 10
0.0
 20
0.0
 30
0.0
  0
VERTEX
  5
470
330
46F
100
AcDbEntity
  8
DIBUJOS
 62
     7
100
AcDbVertex
100
AcDb2dVertex
 10
62.96684561580988
 20
27.15848203726363
 30
0.0
  0
VERTEX
  5
471
330
46F
100
AcDbEntity
  8
DIBUJOS
 62
     7
100
AcDbVertex
100
AcDb2dVertex
 10
63.3904152884581
 20
27.62447474726926
 30
0.0
  0
SEQEND
  5
472
330
46F
100
AcDbEntity
  8
DIBUJOS
 62
     7
  0
POLYLINE
  5
473
330
3B1
100
AcDbEntity
  8
DIBUJOS
 62
     7
100
AcDb2dPolyline
 66
     1
 10
0.0
 20
0.0
 30
0.0
  0
VERTEX
  5
474
330
473
100
AcDbEntity
  8
DIBUJOS
 62
     7
100
AcDbVertex
100
AcDb2dVertex
 10
66.51272701413562
 20
27.15243006754099
 30
0.0
  0
VERTEX
  5
475
330
473
100
AcDbEntity
  8
DIBUJOS
 62
     7
100
AcDbVertex
100
AcDb2dVertex
 10
66.50062479082972
 20
27.15848203726363
 30
0.0
  0
SEQEND
  5
476
330
473
100
AcDbEntity
  8
DIBUJOS
 62
     7
  0
POLYLINE
  5
477
330
3B1
100
AcDbEntity
  8
DIBUJOS
 62
     7
100
AcDb2dPolyline
 66
     1
 10
0.0
 20
0.0
 30
0.0
  0
VERTEX
  5
478
330
477
100
AcDbEntity
  8
DIBUJOS
 62
     7
100
AcDbVertex
100
AcDb2dVertex
 10
66.53088116340157
 20
27.13427415837307
 30
0.0
  0
VERTEX
  5
479
330
477
100
AcDbEntity
  8
DIBUJOS
 62
     7
100
AcDbVertex
100
AcDb2dVertex
 10
66.52482923744185
 20
27.14032612809507
 30
0.0
  0
SEQEND
  5
47A
330
477
100
AcDbEntity
  8
DIBUJOS
 62
     7
  0
POLYLINE
  5
47B
330
3B1
100
AcDbEntity
  8
DIBUJOS
 62
     7
100
AcDb2dPolyline
 66
     1
 10
0.0
 20
0.0
 30
0.0
  0
VERTEX
  5
47C
330
47B
100
AcDbEntity
  8
DIBUJOS
 62
     7
100
AcDbVertex
100
AcDb2dVertex
 10
62.92448864854503
 20
27.11611906362646
 30
0.0
  0
VERTEX
  5
47D
330
47B
100
AcDbEntity
  8
DIBUJOS
 62
     7
100
AcDbVertex
100
AcDb2dVertex
 10
62.93659087185125
 20
27.12217103334974
 30
0.0
  0
SEQEND
  5
47E
330
47B
100
AcDbEntity
  8
DIBUJOS
 62
     7
  0
POLYLINE
  5
47F
330
3B1
100
AcDbEntity
  8
DIBUJOS
 62
     7
100
AcDb2dPolyline
 66
     1
 10
0.0
 20
0.0
 30
0.0
  0
VERTEX
  5
480
330
47F
100
AcDbEntity
  8
DIBUJOS
 62
     7
100
AcDbVertex
100
AcDb2dVertex
 10
66.56113590735988
 20
27.10401512418182
 30
0.0
  0
VERTEX
  5
481
330
47F
100
AcDbEntity
  8
DIBUJOS
 62
     7
100
AcDbVertex
100
AcDb2dVertex
 10
66.5550839814008
 20
27.11006709390382
 30
0.0
  0
SEQEND
  5
482
330
47F
100
AcDbEntity
  8
DIBUJOS
 62
     7
  0
POLYLINE
  5
483
330
3B1
100
AcDbEntity
  8
DIBUJOS
 62
     7
100
AcDb2dPolyline
 66
     1
 10
0.0
 20
0.0
 30
0.0
  0
VERTEX
  5
484
330
483
100
AcDbEntity
  8
DIBUJOS
 62
     7
100
AcDbVertex
100
AcDb2dVertex
 10
62.9002842019329
 20
27.08586002943522
 30
0.0
  0
VERTEX
  5
485
330
483
100
AcDbEntity
  8
DIBUJOS
 62
     7
100
AcDbVertex
100
AcDb2dVertex
 10
62.9063361278923
 20
27.09191199915786
 30
0.0
  0
SEQEND
  5
486
330
483
100
AcDbEntity
  8
DIBUJOS
 62
     7
  0
POLYLINE
  5
487
330
3B1
100
AcDbEntity
  8
DIBUJOS
 62
     7
100
AcDb2dPolyline
 66
     1
 10
0.0
 20
0.0
 30
0.0
  0
VERTEX
  5
488
330
487
100
AcDbEntity
  8
DIBUJOS
 62
     7
100
AcDbVertex
100
AcDb2dVertex
 10
66.59139065131883
 20
27.07375608999058
 30
0.0
  0
VERTEX
  5
489
330
487
100
AcDbEntity
  8
DIBUJOS
 62
     7
100
AcDbVertex
100
AcDb2dVertex
 10
66.58533872535911
 20
27.07980805971258
 30
0.0
  0
SEQEND
  5
48A
330
487
100
AcDbEntity
  8
DIBUJOS
 62
     7
  0
POLYLINE
  5
48B
330
3B1
100
AcDbEntity
  8
DIBUJOS
 62
     7
100
AcDb2dPolyline
 66
     1
 10
0.0
 20
0.0
 30
0.0
  0
VERTEX
  5
48C
330
48B
100
AcDbEntity
  8
DIBUJOS
 62
     7
100
AcDbVertex
100
AcDb2dVertex
 10
62.87608138393367
 20
27.05560018082202
 30
0.0
  0
VERTEX
  5
48D
330
48B
100
AcDbEntity
  8
DIBUJOS
 62
     7
100
AcDbVertex
100
AcDb2dVertex
 10
62.87002945797427
 20
27.05560018082202
 30
0.0
  0
SEQEND
  5
48E
330
48B
100
AcDbEntity
  8
DIBUJOS
 62
     7
  0
POLYLINE
  5
48F
330
3B1
100
AcDbEntity
  8
DIBUJOS
 62
     7
100
AcDb2dPolyline
 66
     1
 10
0.0
 20
0.0
 30
0.0
  0
VERTEX
  5
490
330
48F
100
AcDbEntity
  8
DIBUJOS
 62
     7
100
AcDbVertex
100
AcDb2dVertex
 10
62.85187693732154
 20
27.03139311635277
 30
0.0
  0
VERTEX
  5
491
330
48F
100
AcDbEntity
  8
DIBUJOS
 62
     7
100
AcDbVertex
100
AcDb2dVertex
 10
62.85187693732154
 20
27.03744508607541
 30
0.0
  0
SEQEND
  5
492
330
48F
100
AcDbEntity
  8
DIBUJOS
 62
     7
  0
POLYLINE
  5
493
330
3B1
100
AcDbEntity
  8
DIBUJOS
 62
     7
100
AcDb2dPolyline
 66
     1
 10
0.0
 20
0.0
 30
0.0
  0
VERTEX
  5
494
330
493
100
AcDbEntity
  8
DIBUJOS
 62
     7
100
AcDbVertex
100
AcDb2dVertex
 10
66.65190013923642
 20
27.02534114663013
 30
0.0
  0
VERTEX
  5
495
330
493
100
AcDbEntity
  8
DIBUJOS
 62
     7
100
AcDbVertex
100
AcDb2dVertex
 10
66.64584984188991
 20
27.03139311635277
 30
0.0
  0
SEQEND
  5
496
330
493
100
AcDbEntity
  8
DIBUJOS
 62
     7
  0
POLYLINE
  5
497
330
3B1
100
AcDbEntity
  8
DIBUJOS
 62
     7
100
AcDb2dPolyline
 66
     1
 10
0.0
 20
0.0
 30
0.0
  0
VERTEX
  5
498
330
497
100
AcDbEntity
  8
DIBUJOS
 62
     7
100
AcDbVertex
100
AcDb2dVertex
 10
62.83977471401532
 20
27.01928917690813
 30
0.0
  0
VERTEX
  5
499
330
497
100
AcDbEntity
  8
DIBUJOS
 62
     7
100
AcDbVertex
100
AcDb2dVertex
 10
62.83977471401532
 20
27.02534114663013
 30
0.0
  0
SEQEND
  5
49A
330
497
100
AcDbEntity
  8
DIBUJOS
 62
     7
  0
POLYLINE
  5
49B
330
3B1
100
AcDbEntity
  8
DIBUJOS
 62
     7
100
AcDb2dPolyline
 66
     1
 10
0.0
 20
0.0
 30
0.0
  0
VERTEX
  5
49C
330
49B
100
AcDbEntity
  8
DIBUJOS
 62
     7
100
AcDbVertex
100
AcDb2dVertex
 10
62.80951997005669
 20
26.98297817299296
 30
0.0
  0
VERTEX
  5
49D
330
49B
100
AcDbEntity
  8
DIBUJOS
 62
     7
100
AcDbVertex
100
AcDb2dVertex
 10
62.8155718960161
 20
26.99508211243953
 30
0.0
  0
SEQEND
  5
49E
330
49B
100
AcDbEntity
  8
DIBUJOS
 62
     7
  0
POLYLINE
  5
49F
330
3B1
100
AcDbEntity
  8
DIBUJOS
 62
     7
100
AcDb2dPolyline
 66
     1
 10
0.0
 20
0.0
 30
0.0
  0
VERTEX
  5
4A0
330
49F
100
AcDbEntity
  8
DIBUJOS
 62
     7
100
AcDbVertex
100
AcDb2dVertex
 10
62.78531552344456
 20
26.958771108525
 30
0.0
  0
VERTEX
  5
4A1
330
49F
100
AcDbEntity
  8
DIBUJOS
 62
     7
100
AcDbVertex
100
AcDb2dVertex
 10
62.78531552344456
 20
26.964823078247
 30
0.0
  0
SEQEND
  5
4A2
330
49F
100
AcDbEntity
  8
DIBUJOS
 62
     7
  0
POLYLINE
  5
4A3
330
3B1
100
AcDbEntity
  8
DIBUJOS
 62
     7
100
AcDb2dPolyline
 66
     1
 10
0.0
 20
0.0
 30
0.0
  0
VERTEX
  5
4A4
330
4A3
100
AcDbEntity
  8
DIBUJOS
 62
     7
100
AcDbVertex
100
AcDb2dVertex
 10
66.72451185045958
 20
26.95271913880172
 30
0.0
  0
VERTEX
  5
4A5
330
4A3
100
AcDbEntity
  8
DIBUJOS
 62
     7
100
AcDbVertex
100
AcDb2dVertex
 10
66.71846155311307
 20
26.964823078247
 30
0.0
  0
SEQEND
  5
4A6
330
4A3
100
AcDbEntity
  8
DIBUJOS
 62
     7
  0
POLYLINE
  5
4A7
330
3B1
100
AcDbEntity
  8
DIBUJOS
 62
     7
100
AcDb2dPolyline
 66
     1
 10
0.0
 20
0.0
 30
0.0
  0
VERTEX
  5
4A8
330
4A7
100
AcDbEntity
  8
DIBUJOS
 62
     7
100
AcDbVertex
100
AcDb2dVertex
 10
66.74871629707202
 20
26.92851207433312
 30
0.0
  0
VERTEX
  5
4A9
330
4A7
100
AcDbEntity
  8
DIBUJOS
 62
     7
100
AcDbVertex
100
AcDb2dVertex
 10
66.7426643711123
 20
26.94061519935644
 30
0.0
  0
SEQEND
  5
4AA
330
4A7
100
AcDbEntity
  8
DIBUJOS
 62
     7
  0
SPLINE
  5
4AB
330
3B1
100
AcDbEntity
  8
DIBUJOS
 62
     7
100
AcDbSpline
210
0.0
220
0.0
230
1.0
 70
     8
 71
     3
 72
     8
 73
     4
 74
     0
 42
0.0000000001
 43
0.0000000001
 12
1.0
 22
0.0
 32
0.0
 13
1.0
 23
0.0
 33
0.0
 40
0.0
 40
0.0
 40
0.0
 40
0.0
 40
1.0
 40
1.0
 40
1.0
 40
1.0
 10
62.73085796148671
 20
26.89825222571991
 30
0.0
 10
62.72905371248121
 20
26.90589437305493
 30
0.0
 10
62.73308724404576
 20
26.9099290195369
 30
0.0
 10
62.7429585561797
 20
26.91035616516519
 30
0.0
  0
POLYLINE
  5
4AC
330
3B1
100
AcDbEntity
  8
DIBUJOS
 62
     7
100
AcDb2dPolyline
 66
     1
 10
0.0
 20
0.0
 30
0.0
  0
VERTEX
  5
4AD
330
4AC
100
AcDbEntity
  8
DIBUJOS
 62
     7
100
AcDbVertex
100
AcDb2dVertex
 10
66.78502296699038
 20
26.89825222571991
 30
0.0
  0
VERTEX
  5
4AE
330
4AC
100
AcDbEntity
  8
DIBUJOS
 62
     7
100
AcDbVertex
100
AcDb2dVertex
 10
66.78502296699038
 20
26.90430419544255
 30
0.0
  0
SEQEND
  5
4AF
330
4AC
100
AcDbEntity
  8
DIBUJOS
 62
     7
  0
POLYLINE
  5
4B0
330
3B1
100
AcDbEntity
  8
DIBUJOS
 62
     7
100
AcDb2dPolyline
 66
     1
 10
0.0
 20
0.0
 30
0.0
  0
VERTEX
  5
4B1
330
4B0
100
AcDbEntity
  8
DIBUJOS
 62
     7
100
AcDbVertex
100
AcDb2dVertex
 10
66.81527771094933
 20
26.86799319152739
 30
0.0
  0
VERTEX
  5
4B2
330
4B0
100
AcDbEntity
  8
DIBUJOS
 62
     7
100
AcDbVertex
100
AcDb2dVertex
 10
66.80922578498961
 20
26.87404516125067
 30
0.0
  0
SEQEND
  5
4B3
330
4B0
100
AcDbEntity
  8
DIBUJOS
 62
     7
  0
POLYLINE
  5
4B4
330
3B1
100
AcDbEntity
  8
DIBUJOS
 62
     7
100
AcDb2dPolyline
 66
     1
 10
0.0
 20
0.0
 30
0.0
  0
VERTEX
  5
4B5
330
4B4
100
AcDbEntity
  8
DIBUJOS
 62
     7
100
AcDbVertex
100
AcDb2dVertex
 10
66.86368497556005
 20
26.83168218761414
 30
0.0
  0
VERTEX
  5
4B6
330
4B4
100
AcDbEntity
  8
DIBUJOS
 62
     7
100
AcDbVertex
100
AcDb2dVertex
 10
66.85763467821354
 20
26.83168218761414
 30
0.0
  0
SEQEND
  5
4B7
330
4B4
100
AcDbEntity
  8
DIBUJOS
 62
     7
  0
POLYLINE
  5
4B8
330
3B1
100
AcDbEntity
  8
DIBUJOS
 62
     7
100
AcDb2dPolyline
 66
     1
 10
0.0
 20
0.0
 30
0.0
  0
VERTEX
  5
4B9
330
4B8
100
AcDbEntity
  8
DIBUJOS
 62
     7
100
AcDbVertex
100
AcDb2dVertex
 10
62.66429654760972
 20
26.8256302178915
 30
0.0
  0
VERTEX
  5
4BA
330
4B8
100
AcDbEntity
  8
DIBUJOS
 62
     7
100
AcDbVertex
100
AcDb2dVertex
 10
62.67034684495622
 20
26.83168218761414
 30
0.0
  0
SEQEND
  5
4BB
330
4B8
100
AcDbEntity
  8
DIBUJOS
 62
     7
  0
POLYLINE
  5
4BC
330
3B1
100
AcDbEntity
  8
DIBUJOS
 62
     7
100
AcDb2dPolyline
 66
     1
 10
0.0
 20
0.0
 30
0.0
  0
VERTEX
  5
4BD
330
4BC
100
AcDbEntity
  8
DIBUJOS
 62
     7
100
AcDbVertex
100
AcDb2dVertex
 10
62.58563291042651
 20
26.74695624034045
 30
0.0
  0
VERTEX
  5
4BE
330
4BC
100
AcDbEntity
  8
DIBUJOS
 62
     7
100
AcDbVertex
100
AcDb2dVertex
 10
62.59168483638624
 20
26.75300821006309
 30
0.0
  0
SEQEND
  5
4BF
330
4BC
100
AcDbEntity
  8
DIBUJOS
 62
     7
  0
SPLINE
  5
4C0
330
3B1
100
AcDbEntity
  8
DIBUJOS
 62
     7
100
AcDbSpline
210
0.0
220
0.0
230
1.0
 70
     8
 71
     3
 72
    23
 73
    19
 74
     0
 42
0.0000000001
 43
0.0000000001
 12
1.0
 22
0.0
 32
0.0
 13
1.0
 23
0.0
 33
0.0
 40
0.0
 40
0.0
 40
0.0
 40
0.0
 40
1.0
 40
1.0
 40
1.0
 40
2.0
 40
2.0
 40
2.0
 40
3.0
 40
3.0
 40
3.0
 40
4.0
 40
4.0
 40
4.0
 40
5.0
 40
5.0
 40
5.0
 40
6.0
 40
6.0
 40
6.0
 40
6.0
 10
62.13180849381966
 20
30.78354104644571
 30
0.0
 10
61.64204070465183
 20
29.99726555505775
 30
0.0
 10
61.38212927635318
 20
29.11089450189022
 30
0.0
 10
61.60782668580099
 20
28.18770618382745
 30
0.0
 10
61.71426146329368
 20
27.75234742868204
 30
0.0
 10
61.93864575581673
 20
27.36487812782625
 30
0.0
 10
62.19244012771295
 20
27.00137596548983
 30
0.0
 10
62.47113933555892
 20
26.60220334421916
 30
0.0
 10
62.78197156824359
 20
26.40469391649976
 30
0.0
 10
63.21993376709786
 20
26.19076895062096
 30
0.0
 10
64.03808144514218
 20
25.79114036494049
 30
0.0
 10
64.99739148534633
 20
25.75273763788511
 30
0.0
 10
65.8344113224704
 20
26.13118074099167
 30
0.0
 10
66.65013825282271
 20
26.49999664847519
 30
0.0
 10
67.20848549415535
 20
27.10976162632205
 30
0.0
 10
67.483022075541
 20
27.96284427554646
 30
0.0
 10
67.79809651051075
 20
28.94189243127998
 30
0.0
 10
67.60679786847531
 20
30.04328526709536
 30
0.0
 10
66.96050113339629
 20
30.85011027012952
 30
0.0
  0
ENDBLK
  5
3B4
330
3B1
100
AcDbEntity
  8
0
100
AcDbBlockEnd
  0
ENDSEC
  0
SECTION
  2
ENTITIES
  0
MTEXT
  5
41
330
1F
100
AcDbEntity
  8
REFERENCIAS
 62
   255
100
AcDbMText
 10
61.49112712594395
 20
54.85563098807646
 30
0.0
 40
1.49859999962535
 41
0.0
 71
     7
 72
     1
  1
\fMyriad Pro|b0|i0|c0|p34;\W1;PEACH_9438__LOUNGE_CHAIR
  0
MTEXT
  5
43
330
1F
100
AcDbEntity
  8
M_U_00C1RGENES
 62
   255
100
AcDbMText
 10
90.14127864703391
 20
23.7555119243149
 30
0.0
 40
1.748366666229575
 41
0.0
 71
     7
 72
     1
  1
\fMyriad Pro|b0|i0|c0|p34;\W1;400
  0
MTEXT
  5
44
330
1F
100
AcDbEntity
  8
M_U_00C1RGENES
 62
   255
100
AcDbMText
 10
84.21176331851954
 20
20.50332059082737
 30
0.0
 40
1.748366666229575
 41
0.0
 71
     7
 72
     1
  1
\fMyriad Pro|b0|i0|c0|p34;\W1;400
  0
POLYLINE
  5
45
330
1F
100
AcDbEntity
  8
M_U_00C1RGENES
 62
   255
100
AcDb2dPolyline
 66
     1
 10
0.0
 20
0.0
 30
0.0
  0
VERTEX
  5
46
330
45
100
AcDbEntity
  8
M_U_00C1RGENES
 62
   255
100
AcDbVertex
100
AcDb2dVertex
 10
84.41666477502157
 20
24.76314475783758
 30
0.0
  0
VERTEX
  5
47
330
45
100
AcDbEntity
  8
M_U_00C1RGENES
 62
   255
100
AcDbVertex
100
AcDb2dVertex
 10
94.99999810570907
 20
19.74726776251925
 30
0.0
  0
SEQEND
  5
48
330
45
100
AcDbEntity
  8
M_U_00C1RGENES
 62
   255
  0
POLYLINE
  5
49
330
1F
100
AcDbEntity
  8
M_U_00C1RGENES
 62
   254
100
AcDb2dPolyline
 66
     1
 10
0.0
 20
0.0
 30
0.0
  0
VERTEX
  5
4A
330
49
100
AcDbEntity
  8
M_U_00C1RGENES
 62
   254
100
AcDbVertex
100
AcDb2dVertex
 10
54.99999767595828
 20
20.88258920325216
 30
0.0
  0
VERTEX
  5
4B
330
49
100
AcDbEntity
  8
M_U_00C1RGENES
 62
   254
100
AcDbVertex
100
AcDb2dVertex
 10
54.99999767595828
 20
19.74726776251925
 30
0.0
  0
SEQEND
  5
4C
330
49
100
AcDbEntity
  8
M_U_00C1RGENES
 62
   254
  0
POLYLINE
  5
4D
330
1F
100
AcDbEntity
  8
M_U_00C1RGENES
 62
   255
100
AcDb2dPolyline
 66
     1
 10
0.0
 20
0.0
 30
0.0
  0
VERTEX
  5
4E
330
4D
100
AcDbEntity
  8
M_U_00C1RGENES
 62
   255
100
AcDbVertex
100
AcDb2dVertex
 10
94.99999797321169
 20
59.74726768656564
 30
0.0
  0
VERTEX
  5
4F
330
4D
100
AcDbEntity
  8
M_U_00C1RGENES
 62
   255
100
AcDbVertex
100
AcDb2dVertex
 10
93.86467653247878
 20
59.74726768651462
 30
0.0
  0
SEQEND
  5
50
330
4D
100
AcDbEntity
  8
M_U_00C1RGENES
 62
   255
  0
INSERT
  5
53
330
1F
100
AcDbEntity
  8
DIBUJOS
100
AcDbBlockReference
  2
BLOCK_2
 10
0.0
 20
0.0
 30
0.0
  0
INSERT
  5
1FA
330
1F
100
AcDbEntity
  8
DIBUJOS
100
AcDbBlockReference
  2
BLOCK_3
 10
0.0
 20
0.0
 30
0.0
  0
INSERT
  5
3B2
330
1F
100
AcDbEntity
  8
DIBUJOS
100
AcDbBlockReference
  2
BLOCK_4
 10
0.0
 20
0.0
 30
0.0
  0
POLYLINE
  5
4C2
330
1F
100
AcDbEntity
  8
COTAS_LINEA
 62
     7
100
AcDb2dPolyline
 66
     1
 10
0.0
 20
0.0
 30
0.0
  0
VERTEX
  5
4C3
330
4C2
100
AcDbEntity
  8
COTAS_LINEA
 62
     7
100
AcDbVertex
100
AcDb2dVertex
 10
70.09929298029509
 20
50.44466187695796
 30
0.0
  0
VERTEX
  5
4C4
330
4C2
100
AcDbEntity
  8
COTAS_LINEA
 62
     7
100
AcDbVertex
100
AcDb2dVertex
 10
70.0992929811585
 20
42.33144090531743
 30
0.0
  0
SEQEND
  5
4C5
330
4C2
100
AcDbEntity
  8
COTAS_LINEA
 62
     7
  0
POLYLINE
  5
4C6
330
1F
100
AcDbEntity
  8
COTAS_LINEA
 62
     7
100
AcDb2dPolyline
 66
     1
 10
0.0
 20
0.0
 30
0.0
  0
VERTEX
  5
4C7
330
4C6
100
AcDbEntity
  8
COTAS_LINEA
 62
     7
100
AcDbVertex
100
AcDb2dVertex
 10
88.56763180939002
 20
45.949318484247
 30
0.0
  0
VERTEX
  5
4C8
330
4C6
100
AcDbEntity
  8
COTAS_LINEA
 62
     7
100
AcDbVertex
100
AcDb2dVertex
 10
88.56763181069653
 20
42.33143791450131
 30
0.0
  0
SEQEND
  5
4C9
330
4C6
100
AcDbEntity
  8
COTAS_LINEA
 62
     7
  0
POLYLINE
  5
4CA
330
1F
100
AcDbEntity
  8
COTAS_LINEA
 62
     7
100
AcDb2dPolyline
 66
     1
 10
0.0
 20
0.0
 30
0.0
  0
VERTEX
  5
4CB
330
4CA
100
AcDbEntity
  8
COTAS_LINEA
 62
     7
100
AcDbVertex
100
AcDb2dVertex
 10
79.26793728705994
 20
38.66119575631178
 30
0.0
  0
VERTEX
  5
4CC
330
4CA
100
AcDbEntity
  8
COTAS_LINEA
 62
     7
100
AcDbVertex
100
AcDb2dVertex
 10
87.25892328953054
 20
38.66119575631178
 30
0.0
  0
SEQEND
  5
4CD
330
4CA
100
AcDbEntity
  8
COTAS_LINEA
 62
     7
  0
POLYLINE
  5
4CE
330
1F
100
AcDbEntity
  8
COTAS_LINEA
 62
     7
100
AcDb2dPolyline
 66
     1
 10
0.0
 20
0.0
 30
0.0
  0
VERTEX
  5
4CF
330
4CE
100
AcDbEntity
  8
COTAS_LINEA
 62
     7
100
AcDbVertex
100
AcDb2dVertex
 10
61.60456795805398
 20
38.66119575631178
 30
0.0
  0
VERTEX
  5
4D0
330
4CE
100
AcDbEntity
  8
COTAS_LINEA
 62
     7
100
AcDbVertex
100
AcDb2dVertex
 10
67.80351820943932
 20
38.66119575631178
 30
0.0
  0
SEQEND
  5
4D1
330
4CE
100
AcDbEntity
  8
COTAS_LINEA
 62
     7
  0
MTEXT
  5
4D3
330
1F
100
AcDbEntity
  8
COTAS_N_U_00DAMERO
 62
     7
100
AcDbMText
 10
70.87459829465928
 20
44.07784893205508
 30
0.0
 40
1.998533025814148
 41
0.0
 71
     7
 72
     1
  1
\fMyriad Pro|b0|i0|c0|p34;\W1;81
  0
MTEXT
  5
4D4
330
1F
100
AcDbEntity
  8
COTAS_N_U_00DAMERO
 62
     7
100
AcDbMText
 10
89.32618520410888
 20
43.35631136340137
 30
0.0
 40
1.998533025814148
 41
0.0
 71
     7
 72
     1
  1
\fMyriad Pro|b0|i0|c0|p34;\W1;45
  0
MTEXT
  5
4D5
330
1F
100
AcDbEntity
  8
COTAS_N_U_00DAMERO
 62
     7
100
AcDbMText
 10
81.68668596556738
 20
39.21634011877664
 30
0.0
 40
1.998533025814148
 41
0.0
 71
     7
 72
     1
  1
\fMyriad Pro|b0|i0|c0|p34;\W1;76
  0
MTEXT
  5
4D6
330
1F
100
AcDbEntity
  8
COTAS_N_U_00DAMERO
 62
     7
100
AcDbMText
 10
63.19841417216156
 20
39.21616786400239
 30
0.0
 40
1.998533025814148
 41
0.0
 71
     7
 72
     1
  1
\fMyriad Pro|b0|i0|c0|p34;\W1;82
  0
ENDSEC
  0
SECTION
  2
OBJECTS
  0
DICTIONARY
  5
C
330
0
100
AcDbDictionary
  3
ACAD_GROUP
350
D
  3
ACAD_LAYOUT
350
1A
  3
ACAD_MATERIAL
350
3B
  3
ACAD_MLEADERSTYLE
350
4F9
  3
ACAD_MLINESTYLE
350
17
  3
ACAD_PLOTSETTINGS
350
19
  3
ACAD_VISUALSTYLE
350
2A
  3
ACDBHEADERROUNDTRIPXREC
350
4D7
  3
ACDBVARIABLEDICTIONARY
350
4F7
  0
DICTIONARY
  5
D
102
{ACAD_REACTORS
330
C
102
}
330
C
100
AcDbDictionary
  0
DICTIONARY
  5
1A
102
{ACAD_REACTORS
330
C
102
}
330
C
100
AcDbDictionary
  0
DICTIONARY
  5
3B
102
{ACAD_REACTORS
330
C
102
}
330
C
100
AcDbDictionary
  3
BYBLOCK
350
3D
  3
BYLAYER
350
3C
  3
GLOBAL
350
3E
  0
DICTIONARY
  5
4F9
102
{ACAD_REACTORS
330
C
102
}
330
C
100
AcDbDictionary
  0
DICTIONARY
  5
17
102
{ACAD_REACTORS
330
C
102
}
330
C
100
AcDbDictionary
  3
STANDARD
350
18
  0
DICTIONARY
  5
19
102
{ACAD_REACTORS
330
C
102
}
330
C
100
AcDbDictionary
  0
DICTIONARY
  5
2A
102
{ACAD_REACTORS
330
C
102
}
330
C
100
AcDbDictionary
  3
2DWIREFRAME
350
2F
  3
3D_HIDDEN
350
31
  3
3DWIREFRAME
350
30
  3
BASIC
350
32
  3
BRIGHTEN
350
36
  3
COLORCHANGE
350
3A
  3
CONCEPTUAL
350
34
  3
DIM
350
35
  3
FACEPATTERN
350
39
  3
FLAT
350
2B
  3
FLATWITHEDGES
350
2C
  3
GOURAUD
350
2D
  3
GOURAUDWITHEDGES
350
2E
  3
LINEPATTERN
350
38
  3
REALISTIC
350
33
  3
THICKEN
350
37
  0
DICTIONARY
  5
4D7
102
{ACAD_REACTORS
330
C
102
}
330
C
100
AcDbDictionary
  3
CEPSNTYPE
350
4E0
  3
DIMSTYLEDATA
350
4F6
  3
FINGERPRINTGUID
350
4E1
  3
HYPERLINKBASE
350
4DA
  3
INSUNITS
350
4DF
  3
LAYOUTDICT
350
4DC
  3
LWETCUNION
350
4DE
  3
PLOTSETDICT
350
4DD
  3
PSVPSCALE
350
4E3
  3
PUCSBASE
350
4E6
  3
PUCSORGBACK
350
4EC
  3
PUCSORGBOTTOM
350
4E8
  3
PUCSORGFRONT
350
4EB
  3
PUCSORGLEFT
350
4E9
  3
PUCSORGRIGHT
350
4EA
  3
PUCSORGTOP
350
4E7
  3
PUCSORTHOREF
350
4E4
  3
PUCSORTHOVIEW
350
4E5
  3
STYLESHEET
350
4DB
  3
TSTACKALIGN
350
4D8
  3
TSTACKSIZE
350
4D9
  3
UCSBASE
350
4EF
  3
UCSORGBACK
350
4F5
  3
UCSORGBOTTOM
350
4F1
  3
UCSORGFRONT
350
4F4
  3
UCSORGLEFT
350
4F2
  3
UCSORGRIGHT
350
4F3
  3
UCSORGTOP
350
4F0
  3
UCSORTHOREF
350
4ED
  3
UCSORTHOVIEW
350
4EE
  3
VERSIONGUID
350
4E2
  0
DICTIONARY
  5
4F7
102
{ACAD_REACTORS
330
C
102
}
330
C
100
AcDbDictionary
  3
DIMASSOC
350
4FA
  3
HIDETEXT
350
4FB
  0
MATERIAL
  5
3D
102
{ACAD_REACTORS
330
3B
102
}
102
{ACAD_XDICTIONARY
360
4FE
102
}
330
3B
100
AcDbMaterial
  1
ByBlock
  0
MATERIAL
  5
3C
102
{ACAD_REACTORS
330
3B
102
}
102
{ACAD_XDICTIONARY
360
4FC
102
}
330
3B
100
AcDbMaterial
  1
ByLayer
  0
MATERIAL
  5
3E
102
{ACAD_REACTORS
330
3B
102
}
102
{ACAD_XDICTIONARY
360
500
102
}
330
3B
100
AcDbMaterial
  1
Global
  0
MLINESTYLE
  5
18
102
{ACAD_REACTORS
330
17
102
}
330
17
100
AcDbMlineStyle
  2
Standard
 70
     0
  3

 62
   256
 51
90.0
 52
90.0
 71
     2
 49
0.5
 62
   256
  6
BYLAYER
 49
-0.5
 62
   256
  6
BYLAYER
  0
ACAD_PROXY_OBJECT
  5
2F
102
{ACAD_REACTORS
330
2A
102
}
330
2A
100
AcDbProxyObject
 90
      499
 91
      501
 93
      436
310
42CC9915DA5C99599C985B595049028333333333333E3BF0000000000000FB0107901411070040501600405405064090741402480A0340
1001
ACAD
1000
AcDbSavedByObjectVersion
1070
     0
  0
ACAD_PROXY_OBJECT
  5
31
102
{ACAD_REACTORS
330
2A
102
}
330
2A
100
AcDbProxyObject
 90
      499
 91
      501
 93
      500
310
424CD108121A5919195B90640502408333333333333E3BF0000000000000FB01079024090700405020000000000001110200405405064090740C02480A0340
1001
ACAD
1000
AcDbSavedByObjectVersion
1070
     0
  0
ACAD_PROXY_OBJECT
  5
30
102
{ACAD_REACTORS
330
2A
102
}
330
2A
100
AcDbProxyObject
 90
      499
 91
      501
 93
      436
310
42CCD915DA5C99599C985B595059028333333333333E3BF0000000000000FB0107901411070040501600405405064090741402480A0340
1001
ACAD
1000
AcDbSavedByObjectVersion
1070
     0
  0
ACAD_PROXY_OBJECT
  5
32
102
{ACAD_REACTORS
330
2A
102
}
330
2A
100
AcDbProxyObject
 90
      499
 91
      501
 93
      388
310
4150985CDA58D07406404333333333333E3BF0000000000000FB0107A41107004050150841D405064090741402480A0350
1001
ACAD
1000
AcDbSavedByObjectVersion
1070
     0
  0
ACAD_PROXY_OBJECT
  5
36
102
{ACAD_REACTORS
330
2A
102
}
330
2A
100
AcDbProxyObject
 90
      499
 91
      501
 93
      428
310
42109C9A59DA1D195B90C409028333333333333E3BF0000000000000FB010790141107004050150841D405064090741402480A029950
1001
ACAD
1000
AcDbSavedByObjectVersion
1070
     0
  0
ACAD_PROXY_OBJECT
  5
3A
102
{ACAD_REACTORS
330
2A
102
}
330
2A
100
AcDbProxyObject
 90
      499
 91
      501
 93
      452
310
42D0DBDB1BDC90DA185B99D95104090240C333333333333E3BF0000000000000FB0108901411070040501508421405064090741402480A0350
1001
ACAD
1000
AcDbSavedByObjectVersion
1070
     0
  0
ACAD_PROXY_OBJECT
  5
34
102
{ACAD_REACTORS
330
2A
102
}
330
2A
100
AcDbProxyObject
 90
      499
 91
      501
 93
      500
310
4290DBDB98D95C1D1D585B10940D028333333333333E3BF0000000000000FB0107902409070040501000000000000111010841D405064090740C02480A0340
1001
ACAD
1000
AcDbSavedByObjectVersion
1070
     0
  0
ACAD_PROXY_OBJECT
  5
35
102
{ACAD_REACTORS
330
2A
102
}
330
2A
100
AcDbProxyObject
 90
      499
 91
      501
 93
      412
310
40D11A5B50B409028333333333333E3BF0000000000000FB010790141107004050150841D405064090741402480A02677FFFFFD0
1001
ACAD
1000
AcDbSavedByObjectVersion
1070
     0
  0
ACAD_PROXY_OBJECT
  5
39
102
{ACAD_REACTORS
330
2A
102
}
330
2A
100
AcDbProxyObject
 90
      499
 91
      501
 93
      444
310
42D19858D95C185D1D195C9B90F409028333333333333E3BF0000000000000FB010790141107004050150841D405064090741402480A0350
1001
ACAD
1000
AcDbSavedByObjectVersion
1070
     0
  0
ACAD_PROXY_OBJECT
  5
2B
102
{ACAD_REACTORS
330
2A
102
}
330
2A
100
AcDbProxyObject
 90
      499
 91
      501
 93
      388
310
41119B185D240901404333333333333E3BF0000000000000F9010740A41107004050150841D405064090741402480A1B50
1001
ACAD
1000
AcDbSavedByObjectVersion
1070
     0
  0
ACAD_PROXY_OBJECT
  5
2C
102
{ACAD_REACTORS
330
2A
102
}
330
2A
100
AcDbProxyObject
 90
      499
 91
      501
 93
      476
310
43519B185D15DA5D1A115919D95CD0140901404333333333333E3BF0000000000000F9010740901411070040501600405405064090741402480A1B50
1001
ACAD
1000
AcDbSavedByObjectVersion
1070
     0
  0
ACAD_PROXY_OBJECT
  5
2D
102
{ACAD_REACTORS
330
2A
102
}
330
2A
100
AcDbProxyObject
 90
      499
 91
      501
 93
      412
310
41D1DBDD5C985D5910240902404333333333333E3BF0000000000000F9010740A411070040501641D405064090741402480A1B50
1001
ACAD
1000
AcDbSavedByObjectVersion
1070
     0
  0
ACAD_PROXY_OBJECT
  5
2E
102
{ACAD_REACTORS
330
2A
102
}
330
2A
100
AcDbProxyObject
 90
      499
 91
      501
 93
      500
310
4411DBDD5C985D5915DA5D1A115919D95CD0340902404333333333333E3BF0000000000000F9010740901411070040501600405405064090741402480A1B50
1001
ACAD
1000
AcDbSavedByObjectVersion
1070
     0
  0
ACAD_PROXY_OBJECT
  5
38
102
{ACAD_REACTORS
330
2A
102
}
330
2A
100
AcDbProxyObject
 90
      499
 91
      501
 93
      444
310
42D31A5B995C185D1D195C9B90E409028333333333333E3BF0000000000000FB010790141107004050750841D405064090741402483A0350
1001
ACAD
1000
AcDbSavedByObjectVersion
1070
     0
  0
ACAD_PROXY_OBJECT
  5
33
102
{ACAD_REACTORS
330
2A
102
}
330
2A
100
AcDbProxyObject
 90
      499
 91
      501
 93
      420
310
425499585B1A5CDD1A58D08409028333333333333E3BF0000000000000FB01079019070040501508421405064090741402480A1B40
1001
ACAD
1000
AcDbSavedByObjectVersion
1070
     0
  0
ACAD_PROXY_OBJECT
  5
37
102
{ACAD_REACTORS
330
2A
102
}
330
2A
100
AcDbProxyObject
 90
      499
 91
      501
 93
      412
310
41D51A1A58DAD95B90D409028333333333333E3BF0000000000000FB010790141107004050150C41D405064090741402480A0350
1001
ACAD
1000
AcDbSavedByObjectVersion
1070
     0
  0
XRECORD
  5
4E0
102
{ACAD_REACTORS
330
4D7
102
}
330
4D7
100
AcDbXrecord
 90
        0
  0
XRECORD
  5
4F6
102
{ACAD_REACTORS
330
4D7
102
}
330
4D7
100
AcDbXrecord
1000
DSTYLE
1002
{
1070
   340
340
11
1002
}
  0
XRECORD
  5
4E1
102
{ACAD_REACTORS
330
4D7
102
}
330
4D7
100
AcDbXrecord
  1
{A7C78A99-83F5-424B-A784-DD8FA678036C}
  0
XRECORD
  5
4DA
102
{ACAD_REACTORS
330
4D7
102
}
330
4D7
100
AcDbXrecord
  1

  0
XRECORD
  5
4DF
102
{ACAD_REACTORS
330
4D7
102
}
330
4D7
100
AcDbXrecord
 90
        1
  0
XRECORD
  5
4DC
102
{ACAD_REACTORS
330
4D7
102
}
330
4D7
100
AcDbXrecord
340
1A
  0
XRECORD
  5
4DE
102
{ACAD_REACTORS
330
4D7
102
}
330
4D7
100
AcDbXrecord
 90
    10269
  0
XRECORD
  5
4DD
102
{ACAD_REACTORS
330
4D7
102
}
330
4D7
100
AcDbXrecord
340
19
  0
XRECORD
  5
4E3
102
{ACAD_REACTORS
330
4D7
102
}
330
4D7
100
AcDbXrecord
 40
0.0
  0
XRECORD
  5
4E6
102
{ACAD_REACTORS
330
4D7
102
}
330
4D7
100
AcDbXrecord
340
0
  0
XRECORD
  5
4EC
102
{ACAD_REACTORS
330
4D7
102
}
330
4D7
100
AcDbXrecord
 10
0.0
 20
0.0
 30
0.0
  0
XRECORD
  5
4E8
102
{ACAD_REACTORS
330
4D7
102
}
330
4D7
100
AcDbXrecord
 10
0.0
 20
0.0
 30
0.0
  0
XRECORD
  5
4EB
102
{ACAD_REACTORS
330
4D7
102
}
330
4D7
100
AcDbXrecord
 10
0.0
 20
0.0
 30
0.0
  0
XRECORD
  5
4E9
102
{ACAD_REACTORS
330
4D7
102
}
330
4D7
100
AcDbXrecord
 10
0.0
 20
0.0
 30
0.0
  0
XRECORD
  5
4EA
102
{ACAD_REACTORS
330
4D7
102
}
330
4D7
100
AcDbXrecord
 10
0.0
 20
0.0
 30
0.0
  0
XRECORD
  5
4E7
102
{ACAD_REACTORS
330
4D7
102
}
330
4D7
100
AcDbXrecord
 10
0.0
 20
0.0
 30
0.0
  0
XRECORD
  5
4E4
102
{ACAD_REACTORS
330
4D7
102
}
330
4D7
100
AcDbXrecord
340
0
  0
XRECORD
  5
4E5
102
{ACAD_REACTORS
330
4D7
102
}
330
4D7
100
AcDbXrecord
 70
     0
  0
XRECORD
  5
4DB
102
{ACAD_REACTORS
330
4D7
102
}
330
4D7
100
AcDbXrecord
  1

  0
XRECORD
  5
4D8
102
{ACAD_REACTORS
330
4D7
102
}
330
4D7
100
AcDbXrecord
 90
        1
  0
XRECORD
  5
4D9
102
{ACAD_REACTORS
330
4D7
102
}
330
4D7
100
AcDbXrecord
 90
       70
  0
XRECORD
  5
4EF
102
{ACAD_REACTORS
330
4D7
102
}
330
4D7
100
AcDbXrecord
340
0
  0
XRECORD
  5
4F5
102
{ACAD_REACTORS
330
4D7
102
}
330
4D7
100
AcDbXrecord
 10
0.0
 20
0.0
 30
0.0
  0
XRECORD
  5
4F1
102
{ACAD_REACTORS
330
4D7
102
}
330
4D7
100
AcDbXrecord
 10
0.0
 20
0.0
 30
0.0
  0
XRECORD
  5
4F4
102
{ACAD_REACTORS
330
4D7
102
}
330
4D7
100
AcDbXrecord
 10
0.0
 20
0.0
 30
0.0
  0
XRECORD
  5
4F2
102
{ACAD_REACTORS
330
4D7
102
}
330
4D7
100
AcDbXrecord
 10
0.0
 20
0.0
 30
0.0
  0
XRECORD
  5
4F3
102
{ACAD_REACTORS
330
4D7
102
}
330
4D7
100
AcDbXrecord
 10
0.0
 20
0.0
 30
0.0
  0
XRECORD
  5
4F0
102
{ACAD_REACTORS
330
4D7
102
}
330
4D7
100
AcDbXrecord
 10
0.0
 20
0.0
 30
0.0
  0
XRECORD
  5
4ED
102
{ACAD_REACTORS
330
4D7
102
}
330
4D7
100
AcDbXrecord
340
0
  0
XRECORD
  5
4EE
102
{ACAD_REACTORS
330
4D7
102
}
330
4D7
100
AcDbXrecord
 70
     0
  0
XRECORD
  5
4E2
102
{ACAD_REACTORS
330
4D7
102
}
330
4D7
100
AcDbXrecord
  1
{FAEB1C32-E019-11D5-929B-00C0DF256EC4}
  0
DICTIONARYVAR
  5
4FA
102
{ACAD_REACTORS
330
4F7
102
}
330
4F7
100
DictionaryVariables
280
     0
  1
2
  0
DICTIONARYVAR
  5
4FB
102
{ACAD_REACTORS
330
4F7
102
}
330
4F7
100
DictionaryVariables
280
     0
  1
1
  0
DICTIONARY
  5
4FE
330
3D
100
AcDbDictionary
280
     1
  3
ACAD_XREC_ROUNDTRIP
360
4FF
  0
DICTIONARY
  5
4FC
330
3C
100
AcDbDictionary
280
     1
  3
ACAD_XREC_ROUNDTRIP
360
4FD
  0
DICTIONARY
  5
500
330
3E
100
AcDbDictionary
280
     1
  3
ACAD_XREC_ROUNDTRIP
360
501
  0
XRECORD
  5
4FF
102
{ACAD_REACTORS
330
4FE
102
}
330
4FE
100
AcDbXrecord
102
MATERIAL
148
0.0
149
0.0
149
0.0
 93
        0
 94
      127
282
     0
 72
     1
 77
     1
171
     1
175
     1
179
     1
273
     0
  0
XRECORD
  5
4FD
102
{ACAD_REACTORS
330
4FC
102
}
330
4FC
100
AcDbXrecord
102
MATERIAL
148
0.0
149
0.0
149
0.0
 93
        0
 94
      127
282
     0
 72
     1
 77
     1
171
     1
175
     1
179
     1
273
     0
  0
XRECORD
  5
501
102
{ACAD_REACTORS
330
500
102
}
330
500
100
AcDbXrecord
102
MATERIAL
148
0.0
149
0.0
149
0.0
 93
        0
 94
      127
282
     0
 72
     1
 77
     1
171
     1
175
     1
179
     1
273
     0
  0
ENDSEC
  0
EOF
