  0
SECTION
  2
HEADER
  9
$ACADVER
  1
AC1014
  9
$ACADMAINTVER
 70
     9
  9
$DWGCODEPAGE
  3
ANSI_1252
  9
$INSBASE
 10
0.0
 20
0.0
 30
0.0
  9
$EXTMIN
 10
1.000000000000000E+20
 20
1.000000000000000E+20
 30
1.000000000000000E+20
  9
$EXTMAX
 10
-1.000000000000000E+20
 20
-1.000000000000000E+20
 30
-1.000000000000000E+20
  9
$LIMMIN
 10
0.0
 20
0.0
  9
$LIMMAX
 10
12.0
 20
9.0
  9
$ORTHOMODE
 70
     0
  9
$REGENMODE
 70
     1
  9
$FILLMODE
 70
     1
  9
$QTEXTMODE
 70
     0
  9
$MIRRTEXT
 70
     1
  9
$DRAGMODE
 70
     2
  9
$LTSCALE
 40
1.0
  9
$OSMODE
 70
    37
  9
$ATTMODE
 70
     1
  9
$TEXTSIZE
 40
0.2
  9
$TRACEWID
 40
0.05
  9
$TEXTSTYLE
  7
STANDARD
  9
$CLAYER
  8
0
  9
$CELTYPE
  6
BYLAYER
  9
$CECOLOR
 62
   256
  9
$CELTSCALE
 40
1.0
  9
$DELOBJ
 70
     1
  9
$DISPSILH
 70
     0
  9
$DIMSCALE
 40
1.0
  9
$DIMASZ
 40
0.18
  9
$DIMEXO
 40
0.0625
  9
$DIMDLI
 40
0.38
  9
$DIMRND
 40
0.0
  9
$DIMDLE
 40
0.0
  9
$DIMEXE
 40
0.18
  9
$DIMTP
 40
0.0
  9
$DIMTM
 40
0.0
  9
$DIMTXT
 40
0.18
  9
$DIMCEN
 40
0.09
  9
$DIMTSZ
 40
0.0
  9
$DIMTOL
 70
     0
  9
$DIMLIM
 70
     0
  9
$DIMTIH
 70
     1
  9
$DIMTOH
 70
     1
  9
$DIMSE1
 70
     0
  9
$DIMSE2
 70
     0
  9
$DIMTAD
 70
     0
  9
$DIMZIN
 70
     0
  9
$DIMBLK
  1

  9
$DIMASO
 70
     1
  9
$DIMSHO
 70
     1
  9
$DIMPOST
  1

  9
$DIMAPOST
  1

  9
$DIMALT
 70
     0
  9
$DIMALTD
 70
     2
  9
$DIMALTF
 40
25.4
  9
$DIMLFAC
 40
1.0
  9
$DIMTOFL
 70
     0
  9
$DIMTVP
 40
0.0
  9
$DIMTIX
 70
     0
  9
$DIMSOXD
 70
     0
  9
$DIMSAH
 70
     0
  9
$DIMBLK1
  1

  9
$DIMBLK2
  1

  9
$DIMSTYLE
  2
STANDARD
  9
$DIMCLRD
 70
     0
  9
$DIMCLRE
 70
     0
  9
$DIMCLRT
 70
     0
  9
$DIMTFAC
 40
1.0
  9
$DIMGAP
 40
0.09
  9
$DIMJUST
 70
     0
  9
$DIMSD1
 70
     0
  9
$DIMSD2
 70
     0
  9
$DIMTOLJ
 70
     1
  9
$DIMTZIN
 70
     0
  9
$DIMALTZ
 70
     0
  9
$DIMALTTZ
 70
     0
  9
$DIMFIT
 70
     3
  9
$DIMUPT
 70
     0
  9
$DIMUNIT
 70
     2
  9
$DIMDEC
 70
     4
  9
$DIMTDEC
 70
     4
  9
$DIMALTU
 70
     2
  9
$DIMALTTD
 70
     2
  9
$DIMTXSTY
  7
STANDARD
  9
$DIMAUNIT
 70
     0
  9
$LUNITS
 70
     2
  9
$LUPREC
 70
     4
  9
$SKETCHINC
 40
0.1
  9
$FILLETRAD
 40
0.5
  9
$AUNITS
 70
     0
  9
$AUPREC
 70
     0
  9
$MENU
  1
.
  9
$ELEVATION
 40
0.0
  9
$PELEVATION
 40
0.0
  9
$THICKNESS
 40
0.0
  9
$LIMCHECK
 70
     0
  9
$CHAMFERA
 40
0.5
  9
$CHAMFERB
 40
0.5
  9
$CHAMFERC
 40
1.0
  9
$CHAMFERD
 40
0.0
  9
$SKPOLY
 70
     0
  9
$TDCREATE
 40
2459839.428816273
  9
$TDUPDATE
 40
2459839.428816435
  9
$TDINDWG
 40
0.0000000116
  9
$TDUSRTIMER
 40
0.0000000116
  9
$USRTIMER
 70
     1
  9
$ANGBASE
 50
0.0
  9
$ANGDIR
 70
     0
  9
$PDMODE
 70
     0
  9
$PDSIZE
 40
0.0
  9
$PLINEWID
 40
0.0
  9
$COORDS
 70
     1
  9
$SPLFRAME
 70
     0
  9
$SPLINETYPE
 70
     6
  9
$SPLINESEGS
 70
     8
  9
$ATTDIA
 70
     0
  9
$ATTREQ
 70
     1
  9
$HANDLING
 70
     1
  9
$HANDSEED
  5
6F7
  9
$SURFTAB1
 70
     6
  9
$SURFTAB2
 70
     6
  9
$SURFTYPE
 70
     6
  9
$SURFU
 70
     6
  9
$SURFV
 70
     6
  9
$UCSNAME
  2

  9
$UCSORG
 10
0.0
 20
0.0
 30
0.0
  9
$UCSXDIR
 10
1.0
 20
0.0
 30
0.0
  9
$UCSYDIR
 10
0.0
 20
1.0
 30
0.0
  9
$PUCSNAME
  2

  9
$PUCSORG
 10
0.0
 20
0.0
 30
0.0
  9
$PUCSXDIR
 10
1.0
 20
0.0
 30
0.0
  9
$PUCSYDIR
 10
0.0
 20
1.0
 30
0.0
  9
$USERI1
 70
     0
  9
$USERI2
 70
     0
  9
$USERI3
 70
     0
  9
$USERI4
 70
     0
  9
$USERI5
 70
     0
  9
$USERR1
 40
0.0
  9
$USERR2
 40
0.0
  9
$USERR3
 40
0.0
  9
$USERR4
 40
0.0
  9
$USERR5
 40
0.0
  9
$WORLDVIEW
 70
     1
  9
$SHADEDGE
 70
     3
  9
$SHADEDIF
 70
    70
  9
$TILEMODE
 70
     1
  9
$MAXACTVP
 70
    64
  9
$PINSBASE
 10
0.0
 20
0.0
 30
0.0
  9
$PLIMCHECK
 70
     0
  9
$PEXTMIN
 10
1.000000000000000E+20
 20
1.000000000000000E+20
 30
1.000000000000000E+20
  9
$PEXTMAX
 10
-1.000000000000000E+20
 20
-1.000000000000000E+20
 30
-1.000000000000000E+20
  9
$PLIMMIN
 10
0.0
 20
0.0
  9
$PLIMMAX
 10
12.0
 20
9.0
  9
$UNITMODE
 70
     0
  9
$VISRETAIN
 70
     1
  9
$PLINEGEN
 70
     0
  9
$PSLTSCALE
 70
     1
  9
$TREEDEPTH
 70
  3020
  9
$PICKSTYLE
 70
     1
  9
$CMLSTYLE
  2
STANDARD
  9
$CMLJUST
 70
     0
  9
$CMLSCALE
 40
1.0
  9
$PROXYGRAPHICS
 70
     1
  9
$MEASUREMENT
 70
     0
  0
ENDSEC
  0
SECTION
  2
CLASSES
  0
CLASS
  1
ACDBDICTIONARYWDFLT
  2
AcDbDictionaryWithDefault
  3
ObjectDBX Classes
 90
        0
280
     0
281
     0
  0
CLASS
  1
VISUALSTYLE
  2
AcDbVisualStyle
  3
ObjectDBX Classes
 90
     4095
280
     0
281
     0
  0
CLASS
  1
MATERIAL
  2
AcDbMaterial
  3
ObjectDBX Classes
 90
     1153
280
     0
281
     0
  0
CLASS
  1
SUN
  2
AcDbSun
  3
SCENEOE
 90
     1024
280
     0
281
     0
  0
CLASS
  1
DICTIONARYVAR
  2
AcDbDictionaryVar
  3
ObjectDBX Classes
 90
        0
280
     0
281
     0
  0
CLASS
  1
XRECORD
  2
AcDbXrecord
  3
AutoCAD 2000
 90
        0
280
     0
281
     0
  0
CLASS
  1
LWPOLYLINE
  2
AcDbPolyline
  3
AutoCAD 2000
 90
        0
280
     0
281
     1
  0
CLASS
  1
HATCH
  2
AcDbHatch
  3
AutoCAD 2000
 90
        0
280
     0
281
     1
  0
CLASS
  1
ACDBPLACEHOLDER
  2
AcDbPlaceHolder
  3
ObjectDBX Classes
 90
        0
280
     0
281
     0
  0
CLASS
  1
LAYOUT
  2
AcDbLayout
  3
ObjectDBX Classes
 90
        0
280
     0
281
     0
  0
ENDSEC
  0
SECTION
  2
TABLES
  0
TABLE
  2
VPORT
  5
8
330
0
100
AcDbSymbolTable
 70
     1
  0
VPORT
  5
29
330
8
100
AcDbSymbolTableRecord
100
AcDbViewportTableRecord
  2
*ACTIVE
 70
     0
 10
0.0
 20
0.0
 11
1.0
 21
1.0
 12
0.0
 22
0.0
 13
0.0
 23
0.0
 14
0.5
 24
0.5
 15
0.5
 25
0.5
 16
0.0
 26
0.0
 36
1.0
 17
74.99999786197358
 27
39.74999886684608
 37
0.0
 40
39.99999998999989
 41
1.000000000000008
 42
50.0
 43
0.0
 44
0.0
 50
0.0
 51
0.0
 71
     0
 72
   100
 73
     1
 74
     3
 75
     0
 76
     0
 77
     0
 78
     0
  0
ENDTAB
  0
TABLE
  2
LTYPE
  5
5
330
0
100
AcDbSymbolTable
 70
     1
  0
LTYPE
  5
14
330
5
100
AcDbSymbolTableRecord
100
AcDbLinetypeTableRecord
  2
BYBLOCK
 70
     0
  3

 72
    65
 73
     0
 40
0.0
  0
LTYPE
  5
15
330
5
100
AcDbSymbolTableRecord
100
AcDbLinetypeTableRecord
  2
BYLAYER
 70
     0
  3

 72
    65
 73
     0
 40
0.0
  0
LTYPE
  5
16
330
5
100
AcDbSymbolTableRecord
100
AcDbLinetypeTableRecord
  2
CONTINUOUS
 70
     0
  3
Solid line
 72
    65
 73
     0
 40
0.0
  0
ENDTAB
  0
TABLE
  2
LAYER
  5
2
330
0
100
AcDbSymbolTable
 70
     6
  0
LAYER
  5
10
330
2
100
AcDbSymbolTableRecord
100
AcDbLayerTableRecord
  2
0
 70
     0
 62
     7
  6
CONTINUOUS
  0
LAYER
  5
40
330
2
100
AcDbSymbolTableRecord
100
AcDbLayerTableRecord
  2
REFERENCIAS
 70
     0
 62
     7
  6
CONTINUOUS
  0
LAYER
  5
42
330
2
100
AcDbSymbolTableRecord
100
AcDbLayerTableRecord
  2
M_U_00C1RGENES
 70
     4
 62
     7
  6
CONTINUOUS
  0
LAYER
  5
51
330
2
100
AcDbSymbolTableRecord
100
AcDbLayerTableRecord
  2
DIBUJOS
 70
     0
 62
     7
  6
CONTINUOUS
  0
LAYER
  5
6B6
330
2
100
AcDbSymbolTableRecord
100
AcDbLayerTableRecord
  2
COTAS_LINEA
 70
     0
 62
     7
  6
CONTINUOUS
  0
LAYER
  5
6C7
330
2
100
AcDbSymbolTableRecord
100
AcDbLayerTableRecord
  2
COTAS_N_U_00DAMERO
 70
     0
 62
     7
  6
CONTINUOUS
  0
ENDTAB
  0
TABLE
  2
STYLE
  5
3
330
0
100
AcDbSymbolTable
 70
     1
  0
STYLE
  5
11
330
3
100
AcDbSymbolTableRecord
100
AcDbTextStyleTableRecord
  2
STANDARD
 70
     0
 40
0.0
 41
1.0
 50
0.0
 71
     0
 42
0.2
  3
txt
  4

  0
ENDTAB
  0
TABLE
  2
VIEW
  5
6
330
0
100
AcDbSymbolTable
 70
     0
  0
ENDTAB
  0
TABLE
  2
UCS
  5
7
330
0
100
AcDbSymbolTable
 70
     0
  0
ENDTAB
  0
TABLE
  2
APPID
  5
9
330
0
100
AcDbSymbolTable
 70
     1
  0
APPID
  5
12
330
9
100
AcDbSymbolTableRecord
100
AcDbRegAppTableRecord
  2
ACAD
 70
     0
  0
ENDTAB
  0
TABLE
  2
DIMSTYLE
  5
A
330
0
100
AcDbSymbolTable
 70
     1
  0
DIMSTYLE
105
27
330
A
100
AcDbSymbolTableRecord
100
AcDbDimStyleTableRecord
  2
STANDARD
 70
     0
  3

  4

  5

  6

  7

 40
1.0
 41
0.18
 42
0.0625
 43
0.38
 44
0.18
 45
0.0
 46
0.0
 47
0.0
 48
0.0
140
0.18
141
0.09
142
0.0
143
25.4
144
1.0
145
0.0
146
1.0
147
0.09
 71
     0
 72
     0
 73
     1
 74
     1
 75
     0
 76
     0
 77
     0
 78
     0
170
     0
171
     2
172
     0
173
     0
174
     0
175
     0
176
     0
177
     0
178
     0
270
     2
271
     4
272
     4
273
     2
274
     2
340
11
275
     0
280
     0
281
     0
282
     0
283
     1
284
     0
285
     0
286
     0
287
     3
288
     0
  0
ENDTAB
  0
TABLE
  2
BLOCK_RECORD
  5
1
330
0
100
AcDbSymbolTable
 70
     4
  0
BLOCK_RECORD
  5
1F
330
1
100
AcDbSymbolTableRecord
100
AcDbBlockTableRecord
  2
*MODEL_SPACE
  0
BLOCK_RECORD
  5
1B
330
1
100
AcDbSymbolTableRecord
100
AcDbBlockTableRecord
  2
*PAPER_SPACE
  0
BLOCK_RECORD
  5
52
330
1
100
AcDbSymbolTableRecord
100
AcDbBlockTableRecord
  2
BLOCK_2
  0
BLOCK_RECORD
  5
21B
330
1
100
AcDbSymbolTableRecord
100
AcDbBlockTableRecord
  2
BLOCK_3
  0
BLOCK_RECORD
  5
3DB
330
1
100
AcDbSymbolTableRecord
100
AcDbBlockTableRecord
  2
BLOCK_4
  0
ENDTAB
  0
ENDSEC
  0
SECTION
  2
BLOCKS
  0
BLOCK
  5
20
330
1F
100
AcDbEntity
  8
0
100
AcDbBlockBegin
  2
*MODEL_SPACE
 70
     0
 10
0.0
 20
0.0
 30
0.0
  3
*MODEL_SPACE
  1

  0
ENDBLK
  5
21
330
1F
100
AcDbEntity
  8
0
100
AcDbBlockEnd
  0
BLOCK
  5
1C
330
1B
100
AcDbEntity
 67
     1
  8
0
100
AcDbBlockBegin
  2
*PAPER_SPACE
 70
     0
 10
0.0
 20
0.0
 30
0.0
  3
*PAPER_SPACE
  1

  0
ENDBLK
  5
1D
330
1B
100
AcDbEntity
 67
     1
  8
0
100
AcDbBlockEnd
  0
BLOCK
  5
54
330
52
100
AcDbEntity
  8
0
100
AcDbBlockBegin
  2
BLOCK_2
 70
     0
 10
0.0
 20
0.0
 30
0.0
  3
BLOCK_2
  1

  0
POLYLINE
  5
56
330
52
100
AcDbEntity
  8
DIBUJOS
 62
     7
100
AcDb2dPolyline
 66
     1
 10
0.0
 20
0.0
 30
0.0
  0
VERTEX
  5
57
330
56
100
AcDbEntity
  8
DIBUJOS
 62
     7
100
AcDbVertex
100
AcDb2dVertex
 10
61.07151843983768
 20
45.82863944552745
 30
0.0
  0
VERTEX
  5
58
330
56
100
AcDbEntity
  8
DIBUJOS
 62
     7
100
AcDbVertex
100
AcDb2dVertex
 10
61.0659367753215
 20
45.82863944552745
 30
0.0
  0
SEQEND
  5
59
330
56
100
AcDbEntity
  8
DIBUJOS
 62
     7
  0
POLYLINE
  5
5A
330
52
100
AcDbEntity
  8
DIBUJOS
 62
     7
100
AcDb2dPolyline
 66
     1
 10
0.0
 20
0.0
 30
0.0
  0
VERTEX
  5
5B
330
5A
100
AcDbEntity
  8
DIBUJOS
 62
     7
100
AcDbVertex
100
AcDb2dVertex
 10
68.07078828583035
 20
45.82863944552745
 30
0.0
  0
VERTEX
  5
5C
330
5A
100
AcDbEntity
  8
DIBUJOS
 62
     7
100
AcDbVertex
100
AcDb2dVertex
 10
68.0652058701817
 20
45.82863944552745
 30
0.0
  0
SEQEND
  5
5D
330
5A
100
AcDbEntity
  8
DIBUJOS
 62
     7
  0
POLYLINE
  5
5E
330
52
100
AcDbEntity
  8
DIBUJOS
 62
     7
100
AcDb2dPolyline
 66
     1
 10
0.0
 20
0.0
 30
0.0
  0
VERTEX
  5
5F
330
5E
100
AcDbEntity
  8
DIBUJOS
 62
     7
100
AcDbVertex
100
AcDb2dVertex
 10
68.10427677066254
 20
45.81748075602437
 30
0.0
  0
VERTEX
  5
60
330
5E
100
AcDbEntity
  8
DIBUJOS
 62
     7
100
AcDbVertex
100
AcDb2dVertex
 10
68.10230730163268
 20
45.83372768779389
 30
0.0
  0
VERTEX
  5
61
330
5E
100
AcDbEntity
  8
DIBUJOS
 62
     7
100
AcDbVertex
100
AcDb2dVertex
 10
68.07078828583035
 20
45.89001974700741
 30
0.0
  0
VERTEX
  5
62
330
5E
100
AcDbEntity
  8
DIBUJOS
 62
     7
100
AcDbVertex
100
AcDb2dVertex
 10
68.00939072728539
 20
45.95140004848769
 30
0.0
  0
VERTEX
  5
63
330
5E
100
AcDbEntity
  8
DIBUJOS
 62
     7
100
AcDbVertex
100
AcDb2dVertex
 10
67.84696736950899
 20
46.04458636965769
 30
0.0
  0
VERTEX
  5
64
330
5E
100
AcDbEntity
  8
DIBUJOS
 62
     7
100
AcDbVertex
100
AcDb2dVertex
 10
67.7967331399964
 20
46.06746543774538
 30
0.0
  0
VERTEX
  5
65
330
5E
100
AcDbEntity
  8
DIBUJOS
 62
     7
100
AcDbVertex
100
AcDb2dVertex
 10
67.66376318405058
 20
46.10978735836469
 30
0.0
  0
VERTEX
  5
66
330
5E
100
AcDbEntity
  8
DIBUJOS
 62
     7
100
AcDbVertex
100
AcDb2dVertex
 10
67.52354630316225
 20
46.1330539018081
 30
0.0
  0
VERTEX
  5
67
330
5E
100
AcDbEntity
  8
DIBUJOS
 62
     7
100
AcDbVertex
100
AcDb2dVertex
 10
67.47381082553207
 20
46.13802500036198
 30
0.0
  0
VERTEX
  5
68
330
5E
100
AcDbEntity
  8
DIBUJOS
 62
     7
100
AcDbVertex
100
AcDb2dVertex
 10
66.85950323958242
 20
46.18864309874884
 30
0.0
  0
VERTEX
  5
69
330
5E
100
AcDbEntity
  8
DIBUJOS
 62
     7
100
AcDbVertex
100
AcDb2dVertex
 10
64.91162776255983
 20
46.2192386334137
 30
0.0
  0
VERTEX
  5
6A
330
5E
100
AcDbEntity
  8
DIBUJOS
 62
     7
100
AcDbVertex
100
AcDb2dVertex
 10
63.79527082310087
 20
46.21082230824883
 30
0.0
  0
VERTEX
  5
6B
330
5E
100
AcDbEntity
  8
DIBUJOS
 62
     7
100
AcDbVertex
100
AcDb2dVertex
 10
62.27722107043696
 20
46.18864309874884
 30
0.0
  0
VERTEX
  5
6C
330
5E
100
AcDbEntity
  8
DIBUJOS
 62
     7
100
AcDbVertex
100
AcDb2dVertex
 10
61.66899314975343
 20
46.13863474840186
 30
0.0
  0
VERTEX
  5
6D
330
5E
100
AcDbEntity
  8
DIBUJOS
 62
     7
100
AcDbVertex
100
AcDb2dVertex
 10
61.61317800685681
 20
46.1330539018081
 30
0.0
  0
VERTEX
  5
6E
330
5E
100
AcDbEntity
  8
DIBUJOS
 62
     7
100
AcDbVertex
100
AcDb2dVertex
 10
61.4794013347643
 20
46.11107293551326
 30
0.0
  0
VERTEX
  5
6F
330
5E
100
AcDbEntity
  8
DIBUJOS
 62
     7
100
AcDbVertex
100
AcDb2dVertex
 10
61.47296112596847
 20
46.10978735836469
 30
0.0
  0
VERTEX
  5
70
330
5E
100
AcDbEntity
  8
DIBUJOS
 62
     7
100
AcDbVertex
100
AcDb2dVertex
 10
61.33999117002298
 20
46.06746543774538
 30
0.0
  0
VERTEX
  5
71
330
5E
100
AcDbEntity
  8
DIBUJOS
 62
     7
100
AcDbVertex
100
AcDb2dVertex
 10
61.28864075783353
 20
46.04235463175726
 30
0.0
  0
VERTEX
  5
72
330
5E
100
AcDbEntity
  8
DIBUJOS
 62
     7
100
AcDbVertex
100
AcDb2dVertex
 10
61.12733433386645
 20
45.95140004848769
 30
0.0
  0
VERTEX
  5
73
330
5E
100
AcDbEntity
  8
DIBUJOS
 62
     7
100
AcDbVertex
100
AcDb2dVertex
 10
61.09384434676997
 20
45.91792097629305
 30
0.0
  0
VERTEX
  5
74
330
5E
100
AcDbEntity
  8
DIBUJOS
 62
     7
100
AcDbVertex
100
AcDb2dVertex
 10
61.07151843983768
 20
45.89560059360181
 30
0.0
  0
VERTEX
  5
75
330
5E
100
AcDbEntity
  8
DIBUJOS
 62
     7
100
AcDbVertex
100
AcDb2dVertex
 10
61.03244753935716
 20
45.81748075602437
 30
0.0
  0
SEQEND
  5
76
330
5E
100
AcDbEntity
  8
DIBUJOS
 62
     7
  0
POLYLINE
  5
77
330
52
100
AcDbEntity
  8
DIBUJOS
 62
     7
100
AcDb2dPolyline
 66
     1
 10
0.0
 20
0.0
 30
0.0
  0
VERTEX
  5
78
330
77
100
AcDbEntity
  8
DIBUJOS
 62
     7
100
AcDbVertex
100
AcDb2dVertex
 10
61.12175266935026
 20
45.79516037333313
 30
0.0
  0
VERTEX
  5
79
330
77
100
AcDbEntity
  8
DIBUJOS
 62
     7
100
AcDbVertex
100
AcDb2dVertex
 10
61.23881138865922
 20
45.78696331716767
 30
0.0
  0
VERTEX
  5
7A
330
77
100
AcDbEntity
  8
DIBUJOS
 62
     7
100
AcDbVertex
100
AcDb2dVertex
 10
67.94826507865233
 20
45.78713152352365
 30
0.0
  0
VERTEX
  5
7B
330
77
100
AcDbEntity
  8
DIBUJOS
 62
     7
100
AcDbVertex
100
AcDb2dVertex
 10
68.01497164066943
 20
45.79516037333313
 30
0.0
  0
SEQEND
  5
7C
330
77
100
AcDbEntity
  8
DIBUJOS
 62
     7
  0
POLYLINE
  5
7D
330
52
100
AcDbEntity
  8
DIBUJOS
 62
     7
100
AcDb2dPolyline
 66
     1
 10
0.0
 20
0.0
 30
0.0
  0
VERTEX
  5
7E
330
7D
100
AcDbEntity
  8
DIBUJOS
 62
     7
100
AcDbVertex
100
AcDb2dVertex
 10
61.18873114127926
 20
45.39898033885279
 30
0.0
  0
VERTEX
  5
7F
330
7D
100
AcDbEntity
  8
DIBUJOS
 62
     7
100
AcDbVertex
100
AcDb2dVertex
 10
61.1719861477307
 20
45.39898033885279
 30
0.0
  0
SEQEND
  5
80
330
7D
100
AcDbEntity
  8
DIBUJOS
 62
     7
  0
POLYLINE
  5
81
330
52
100
AcDbEntity
  8
DIBUJOS
 62
     7
100
AcDb2dPolyline
 66
     1
 10
0.0
 20
0.0
 30
0.0
  0
VERTEX
  5
82
330
81
100
AcDbEntity
  8
DIBUJOS
 62
     7
100
AcDbVertex
100
AcDb2dVertex
 10
61.25012794869144
 20
45.39898033885279
 30
0.0
  0
VERTEX
  5
83
330
81
100
AcDbEntity
  8
DIBUJOS
 62
     7
100
AcDbVertex
100
AcDb2dVertex
 10
61.23896537079185
 20
45.39898033885279
 30
0.0
  0
SEQEND
  5
84
330
81
100
AcDbEntity
  8
DIBUJOS
 62
     7
  0
POLYLINE
  5
85
330
52
100
AcDbEntity
  8
DIBUJOS
 62
     7
100
AcDb2dPolyline
 66
     1
 10
0.0
 20
0.0
 30
0.0
  0
VERTEX
  5
86
330
85
100
AcDbEntity
  8
DIBUJOS
 62
     7
100
AcDbVertex
100
AcDb2dVertex
 10
61.29478051368783
 20
45.39898033885279
 30
0.0
  0
VERTEX
  5
87
330
85
100
AcDbEntity
  8
DIBUJOS
 62
     7
100
AcDbVertex
100
AcDb2dVertex
 10
61.27803552013958
 20
45.39898033885279
 30
0.0
  0
SEQEND
  5
88
330
85
100
AcDbEntity
  8
DIBUJOS
 62
     7
  0
POLYLINE
  5
89
330
52
100
AcDbEntity
  8
DIBUJOS
 62
     7
100
AcDb2dPolyline
 66
     1
 10
0.0
 20
0.0
 30
0.0
  0
VERTEX
  5
8A
330
89
100
AcDbEntity
  8
DIBUJOS
 62
     7
100
AcDbVertex
100
AcDb2dVertex
 10
61.3226880851363
 20
45.39898033885279
 30
0.0
  0
VERTEX
  5
8B
330
89
100
AcDbEntity
  8
DIBUJOS
 62
     7
100
AcDbVertex
100
AcDb2dVertex
 10
61.3059438427202
 20
45.39898033885279
 30
0.0
  0
SEQEND
  5
8C
330
89
100
AcDbEntity
  8
DIBUJOS
 62
     7
  0
POLYLINE
  5
8D
330
52
100
AcDbEntity
  8
DIBUJOS
 62
     7
100
AcDb2dPolyline
 66
     1
 10
0.0
 20
0.0
 30
0.0
  0
VERTEX
  5
8E
330
8D
100
AcDbEntity
  8
DIBUJOS
 62
     7
100
AcDbVertex
100
AcDb2dVertex
 10
61.36734065013334
 20
45.39898033885279
 30
0.0
  0
VERTEX
  5
8F
330
8D
100
AcDbEntity
  8
DIBUJOS
 62
     7
100
AcDbVertex
100
AcDb2dVertex
 10
61.35617732110096
 20
45.39898033885279
 30
0.0
  0
SEQEND
  5
90
330
8D
100
AcDbEntity
  8
DIBUJOS
 62
     7
  0
POLYLINE
  5
91
330
52
100
AcDbEntity
  8
DIBUJOS
 62
     7
100
AcDb2dPolyline
 66
     1
 10
0.0
 20
0.0
 30
0.0
  0
VERTEX
  5
92
330
91
100
AcDbEntity
  8
DIBUJOS
 62
     7
100
AcDbVertex
100
AcDb2dVertex
 10
61.38408564368126
 20
45.39898033885279
 30
0.0
  0
VERTEX
  5
93
330
91
100
AcDbEntity
  8
DIBUJOS
 62
     7
100
AcDbVertex
100
AcDb2dVertex
 10
61.37850397916539
 20
45.39898033885279
 30
0.0
  0
SEQEND
  5
94
330
91
100
AcDbEntity
  8
DIBUJOS
 62
     7
  0
POLYLINE
  5
95
330
52
100
AcDbEntity
  8
DIBUJOS
 62
     7
100
AcDb2dPolyline
 66
     1
 10
0.0
 20
0.0
 30
0.0
  0
VERTEX
  5
96
330
95
100
AcDbEntity
  8
DIBUJOS
 62
     7
100
AcDbVertex
100
AcDb2dVertex
 10
61.43431912206169
 20
45.39898033885279
 30
0.0
  0
VERTEX
  5
97
330
95
100
AcDbEntity
  8
DIBUJOS
 62
     7
100
AcDbVertex
100
AcDb2dVertex
 10
61.41199321512973
 20
45.39898033885279
 30
0.0
  0
SEQEND
  5
98
330
95
100
AcDbEntity
  8
DIBUJOS
 62
     7
  0
POLYLINE
  5
99
330
52
100
AcDbEntity
  8
DIBUJOS
 62
     7
100
AcDb2dPolyline
 66
     1
 10
0.0
 20
0.0
 30
0.0
  0
VERTEX
  5
9A
330
99
100
AcDbEntity
  8
DIBUJOS
 62
     7
100
AcDbVertex
100
AcDb2dVertex
 10
61.47897168705841
 20
45.39898033885279
 30
0.0
  0
VERTEX
  5
9B
330
99
100
AcDbEntity
  8
DIBUJOS
 62
     7
100
AcDbVertex
100
AcDb2dVertex
 10
61.45664578012612
 20
45.39898033885279
 30
0.0
  0
SEQEND
  5
9C
330
99
100
AcDbEntity
  8
DIBUJOS
 62
     7
  0
POLYLINE
  5
9D
330
52
100
AcDbEntity
  8
DIBUJOS
 62
     7
100
AcDb2dPolyline
 66
     1
 10
0.0
 20
0.0
 30
0.0
  0
VERTEX
  5
9E
330
9D
100
AcDbEntity
  8
DIBUJOS
 62
     7
100
AcDbVertex
100
AcDb2dVertex
 10
61.5236242520548
 20
45.39898033885279
 30
0.0
  0
VERTEX
  5
9F
330
9D
100
AcDbEntity
  8
DIBUJOS
 62
     7
100
AcDbVertex
100
AcDb2dVertex
 10
61.50688000963871
 20
45.39898033885279
 30
0.0
  0
SEQEND
  5
A0
330
9D
100
AcDbEntity
  8
DIBUJOS
 62
     7
  0
POLYLINE
  5
A1
330
52
100
AcDbEntity
  8
DIBUJOS
 62
     7
100
AcDb2dPolyline
 66
     1
 10
0.0
 20
0.0
 30
0.0
  0
VERTEX
  5
A2
330
A1
100
AcDbEntity
  8
DIBUJOS
 62
     7
100
AcDbVertex
100
AcDb2dVertex
 10
61.55711348801946
 20
45.39898033885279
 30
0.0
  0
VERTEX
  5
A3
330
A1
100
AcDbEntity
  8
DIBUJOS
 62
     7
100
AcDbVertex
100
AcDb2dVertex
 10
61.54595015898709
 20
45.39898033885279
 30
0.0
  0
SEQEND
  5
A4
330
A1
100
AcDbEntity
  8
DIBUJOS
 62
     7
  0
POLYLINE
  5
A5
330
52
100
AcDbEntity
  8
DIBUJOS
 62
     7
100
AcDb2dPolyline
 66
     1
 10
0.0
 20
0.0
 30
0.0
  0
VERTEX
  5
A6
330
A5
100
AcDbEntity
  8
DIBUJOS
 62
     7
100
AcDbVertex
100
AcDb2dVertex
 10
61.5738584815677
 20
45.39898033885279
 30
0.0
  0
VERTEX
  5
A7
330
A5
100
AcDbEntity
  8
DIBUJOS
 62
     7
100
AcDbVertex
100
AcDb2dVertex
 10
61.5682768170512
 20
45.39898033885279
 30
0.0
  0
SEQEND
  5
A8
330
A5
100
AcDbEntity
  8
DIBUJOS
 62
     7
  0
POLYLINE
  5
A9
330
52
100
AcDbEntity
  8
DIBUJOS
 62
     7
100
AcDb2dPolyline
 66
     1
 10
0.0
 20
0.0
 30
0.0
  0
VERTEX
  5
AA
330
A9
100
AcDbEntity
  8
DIBUJOS
 62
     7
100
AcDbVertex
100
AcDb2dVertex
 10
61.60176605301586
 20
45.39898033885279
 30
0.0
  0
VERTEX
  5
AB
330
A9
100
AcDbEntity
  8
DIBUJOS
 62
     7
100
AcDbVertex
100
AcDb2dVertex
 10
61.58502105946761
 20
45.39898033885279
 30
0.0
  0
SEQEND
  5
AC
330
A9
100
AcDbEntity
  8
DIBUJOS
 62
     7
  0
POLYLINE
  5
AD
330
52
100
AcDbEntity
  8
DIBUJOS
 62
     7
100
AcDb2dPolyline
 66
     1
 10
0.0
 20
0.0
 30
0.0
  0
VERTEX
  5
AE
330
AD
100
AcDbEntity
  8
DIBUJOS
 62
     7
100
AcDbVertex
100
AcDb2dVertex
 10
61.66316286042835
 20
45.39898033885279
 30
0.0
  0
VERTEX
  5
AF
330
AD
100
AcDbEntity
  8
DIBUJOS
 62
     7
100
AcDbVertex
100
AcDb2dVertex
 10
61.61292938204824
 20
45.39898033885279
 30
0.0
  0
SEQEND
  5
B0
330
AD
100
AcDbEntity
  8
DIBUJOS
 62
     7
  0
POLYLINE
  5
B1
330
52
100
AcDbEntity
  8
DIBUJOS
 62
     7
100
AcDb2dPolyline
 66
     1
 10
0.0
 20
0.0
 30
0.0
  0
VERTEX
  5
B2
330
B1
100
AcDbEntity
  8
DIBUJOS
 62
     7
100
AcDbVertex
100
AcDb2dVertex
 10
61.71897875445744
 20
45.39898033885279
 30
0.0
  0
VERTEX
  5
B3
330
B1
100
AcDbEntity
  8
DIBUJOS
 62
     7
100
AcDbVertex
100
AcDb2dVertex
 10
61.71339708994125
 20
45.39898033885279
 30
0.0
  0
SEQEND
  5
B4
330
B1
100
AcDbEntity
  8
DIBUJOS
 62
     7
  0
POLYLINE
  5
B5
330
52
100
AcDbEntity
  8
DIBUJOS
 62
     7
100
AcDb2dPolyline
 66
     1
 10
0.0
 20
0.0
 30
0.0
  0
VERTEX
  5
B6
330
B5
100
AcDbEntity
  8
DIBUJOS
 62
     7
100
AcDbVertex
100
AcDb2dVertex
 10
61.78595722638612
 20
45.39898033885279
 30
0.0
  0
VERTEX
  5
B7
330
B5
100
AcDbEntity
  8
DIBUJOS
 62
     7
100
AcDbVertex
100
AcDb2dVertex
 10
61.74688632590591
 20
45.39898033885279
 30
0.0
  0
SEQEND
  5
B8
330
B5
100
AcDbEntity
  8
DIBUJOS
 62
     7
  0
POLYLINE
  5
B9
330
52
100
AcDbEntity
  8
DIBUJOS
 62
     7
100
AcDb2dPolyline
 66
     1
 10
0.0
 20
0.0
 30
0.0
  0
VERTEX
  5
BA
330
B9
100
AcDbEntity
  8
DIBUJOS
 62
     7
100
AcDbVertex
100
AcDb2dVertex
 10
61.81386479783427
 20
45.39898033885279
 30
0.0
  0
VERTEX
  5
BB
330
B9
100
AcDbEntity
  8
DIBUJOS
 62
     7
100
AcDbVertex
100
AcDb2dVertex
 10
61.80828313331808
 20
45.39898033885279
 30
0.0
  0
SEQEND
  5
BC
330
B9
100
AcDbEntity
  8
DIBUJOS
 62
     7
  0
POLYLINE
  5
BD
330
52
100
AcDbEntity
  8
DIBUJOS
 62
     7
100
AcDb2dPolyline
 66
     1
 10
0.0
 20
0.0
 30
0.0
  0
VERTEX
  5
BE
330
BD
100
AcDbEntity
  8
DIBUJOS
 62
     7
100
AcDbVertex
100
AcDb2dVertex
 10
67.07168911575403
 20
45.39898033885279
 30
0.0
  0
VERTEX
  5
BF
330
BD
100
AcDbEntity
  8
DIBUJOS
 62
     7
100
AcDbVertex
100
AcDb2dVertex
 10
61.82502812686665
 20
45.39898033885279
 30
0.0
  0
SEQEND
  5
C0
330
BD
100
AcDbEntity
  8
DIBUJOS
 62
     7
  0
POLYLINE
  5
C1
330
52
100
AcDbEntity
  8
DIBUJOS
 62
     7
100
AcDb2dPolyline
 66
     1
 10
0.0
 20
0.0
 30
0.0
  0
VERTEX
  5
C2
330
C1
100
AcDbEntity
  8
DIBUJOS
 62
     7
100
AcDbVertex
100
AcDb2dVertex
 10
67.27820694718872
 20
45.39898033885279
 30
0.0
  0
VERTEX
  5
C3
330
C1
100
AcDbEntity
  8
DIBUJOS
 62
     7
100
AcDbVertex
100
AcDb2dVertex
 10
67.08285244478576
 20
45.39898033885279
 30
0.0
  0
SEQEND
  5
C4
330
C1
100
AcDbEntity
  8
DIBUJOS
 62
     7
  0
POLYLINE
  5
C5
330
52
100
AcDbEntity
  8
DIBUJOS
 62
     7
100
AcDb2dPolyline
 66
     1
 10
0.0
 20
0.0
 30
0.0
  0
VERTEX
  5
C6
330
C5
100
AcDbEntity
  8
DIBUJOS
 62
     7
100
AcDbVertex
100
AcDb2dVertex
 10
67.30611451863686
 20
45.39898033885279
 30
0.0
  0
VERTEX
  5
C7
330
C5
100
AcDbEntity
  8
DIBUJOS
 62
     7
100
AcDbVertex
100
AcDb2dVertex
 10
67.28937027622077
 20
45.39898033885279
 30
0.0
  0
SEQEND
  5
C8
330
C5
100
AcDbEntity
  8
DIBUJOS
 62
     7
  0
POLYLINE
  5
C9
330
52
100
AcDbEntity
  8
DIBUJOS
 62
     7
100
AcDb2dPolyline
 66
     1
 10
0.0
 20
0.0
 30
0.0
  0
VERTEX
  5
CA
330
C9
100
AcDbEntity
  8
DIBUJOS
 62
     7
100
AcDbVertex
100
AcDb2dVertex
 10
67.32844117670098
 20
45.39898033885279
 30
0.0
  0
VERTEX
  5
CB
330
C9
100
AcDbEntity
  8
DIBUJOS
 62
     7
100
AcDbVertex
100
AcDb2dVertex
 10
67.31727784766892
 20
45.39898033885279
 30
0.0
  0
SEQEND
  5
CC
330
C9
100
AcDbEntity
  8
DIBUJOS
 62
     7
  0
POLYLINE
  5
CD
330
52
100
AcDbEntity
  8
DIBUJOS
 62
     7
100
AcDb2dPolyline
 66
     1
 10
0.0
 20
0.0
 30
0.0
  0
VERTEX
  5
CE
330
CD
100
AcDbEntity
  8
DIBUJOS
 62
     7
100
AcDbVertex
100
AcDb2dVertex
 10
67.35076783476573
 20
45.39898033885279
 30
0.0
  0
VERTEX
  5
CF
330
CD
100
AcDbEntity
  8
DIBUJOS
 62
     7
100
AcDbVertex
100
AcDb2dVertex
 10
67.33960450573367
 20
45.39898033885279
 30
0.0
  0
SEQEND
  5
D0
330
CD
100
AcDbEntity
  8
DIBUJOS
 62
     7
  0
POLYLINE
  5
D1
330
52
100
AcDbEntity
  8
DIBUJOS
 62
     7
100
AcDb2dPolyline
 66
     1
 10
0.0
 20
0.0
 30
0.0
  0
VERTEX
  5
D2
330
D1
100
AcDbEntity
  8
DIBUJOS
 62
     7
100
AcDbVertex
100
AcDb2dVertex
 10
67.40100056201369
 20
45.39898033885279
 30
0.0
  0
VERTEX
  5
D3
330
D1
100
AcDbEntity
  8
DIBUJOS
 62
     7
100
AcDbVertex
100
AcDb2dVertex
 10
67.3619296615335
 20
45.39898033885279
 30
0.0
  0
SEQEND
  5
D4
330
D1
100
AcDbEntity
  8
DIBUJOS
 62
     7
  0
POLYLINE
  5
D5
330
52
100
AcDbEntity
  8
DIBUJOS
 62
     7
100
AcDb2dPolyline
 66
     1
 10
0.0
 20
0.0
 30
0.0
  0
VERTEX
  5
D6
330
D5
100
AcDbEntity
  8
DIBUJOS
 62
     7
100
AcDbVertex
100
AcDb2dVertex
 10
67.44565387814288
 20
45.39898033885279
 30
0.0
  0
VERTEX
  5
D7
330
D5
100
AcDbEntity
  8
DIBUJOS
 62
     7
100
AcDbVertex
100
AcDb2dVertex
 10
67.41774630669441
 20
45.39898033885279
 30
0.0
  0
SEQEND
  5
D8
330
D5
100
AcDbEntity
  8
DIBUJOS
 62
     7
  0
POLYLINE
  5
D9
330
52
100
AcDbEntity
  8
DIBUJOS
 62
     7
100
AcDb2dPolyline
 66
     1
 10
0.0
 20
0.0
 30
0.0
  0
VERTEX
  5
DA
330
D9
100
AcDbEntity
  8
DIBUJOS
 62
     7
100
AcDbVertex
100
AcDb2dVertex
 10
67.4903056920068
 20
45.39898033885279
 30
0.0
  0
VERTEX
  5
DB
330
D9
100
AcDbEntity
  8
DIBUJOS
 62
     7
100
AcDbVertex
100
AcDb2dVertex
 10
67.4679790339427
 20
45.40456118544687
 30
0.0
  0
SEQEND
  5
DC
330
D9
100
AcDbEntity
  8
DIBUJOS
 62
     7
  0
POLYLINE
  5
DD
330
52
100
AcDbEntity
  8
DIBUJOS
 62
     7
100
AcDb2dPolyline
 66
     1
 10
0.0
 20
0.0
 30
0.0
  0
VERTEX
  5
DE
330
DD
100
AcDbEntity
  8
DIBUJOS
 62
     7
100
AcDbVertex
100
AcDb2dVertex
 10
67.51821326345528
 20
45.39898033885279
 30
0.0
  0
VERTEX
  5
DF
330
DD
100
AcDbEntity
  8
DIBUJOS
 62
     7
100
AcDbVertex
100
AcDb2dVertex
 10
67.50146902103918
 20
45.39898033885279
 30
0.0
  0
SEQEND
  5
E0
330
DD
100
AcDbEntity
  8
DIBUJOS
 62
     7
  0
POLYLINE
  5
E1
330
52
100
AcDbEntity
  8
DIBUJOS
 62
     7
100
AcDb2dPolyline
 66
     1
 10
0.0
 20
0.0
 30
0.0
  0
VERTEX
  5
E2
330
E1
100
AcDbEntity
  8
DIBUJOS
 62
     7
100
AcDbVertex
100
AcDb2dVertex
 10
67.53495900813598
 20
45.39898033885279
 30
0.0
  0
VERTEX
  5
E3
330
E1
100
AcDbEntity
  8
DIBUJOS
 62
     7
100
AcDbVertex
100
AcDb2dVertex
 10
67.52937659248734
 20
45.39898033885279
 30
0.0
  0
SEQEND
  5
E4
330
E1
100
AcDbEntity
  8
DIBUJOS
 62
     7
  0
POLYLINE
  5
E5
330
52
100
AcDbEntity
  8
DIBUJOS
 62
     7
100
AcDb2dPolyline
 66
     1
 10
0.0
 20
0.0
 30
0.0
  0
VERTEX
  5
E6
330
E5
100
AcDbEntity
  8
DIBUJOS
 62
     7
100
AcDbVertex
100
AcDb2dVertex
 10
67.55170325055144
 20
45.39898033885279
 30
0.0
  0
VERTEX
  5
E7
330
E5
100
AcDbEntity
  8
DIBUJOS
 62
     7
100
AcDbVertex
100
AcDb2dVertex
 10
67.54612233716804
 20
45.39898033885279
 30
0.0
  0
SEQEND
  5
E8
330
E5
100
AcDbEntity
  8
DIBUJOS
 62
     7
  0
POLYLINE
  5
E9
330
52
100
AcDbEntity
  8
DIBUJOS
 62
     7
100
AcDb2dPolyline
 66
     1
 10
0.0
 20
0.0
 30
0.0
  0
VERTEX
  5
EA
330
E9
100
AcDbEntity
  8
DIBUJOS
 62
     7
100
AcDbVertex
100
AcDb2dVertex
 10
67.56844749296786
 20
45.39898033885279
 30
0.0
  0
VERTEX
  5
EB
330
E9
100
AcDbEntity
  8
DIBUJOS
 62
     7
100
AcDbVertex
100
AcDb2dVertex
 10
67.56286657958414
 20
45.39898033885279
 30
0.0
  0
SEQEND
  5
EC
330
E9
100
AcDbEntity
  8
DIBUJOS
 62
     7
  0
POLYLINE
  5
ED
330
52
100
AcDbEntity
  8
DIBUJOS
 62
     7
100
AcDb2dPolyline
 66
     1
 10
0.0
 20
0.0
 30
0.0
  0
VERTEX
  5
EE
330
ED
100
AcDbEntity
  8
DIBUJOS
 62
     7
100
AcDbVertex
100
AcDb2dVertex
 10
67.59077415103293
 20
45.39898033885279
 30
0.0
  0
VERTEX
  5
EF
330
ED
100
AcDbEntity
  8
DIBUJOS
 62
     7
100
AcDbVertex
100
AcDb2dVertex
 10
67.57961082200023
 20
45.39898033885279
 30
0.0
  0
SEQEND
  5
F0
330
ED
100
AcDbEntity
  8
DIBUJOS
 62
     7
  0
POLYLINE
  5
F1
330
52
100
AcDbEntity
  8
DIBUJOS
 62
     7
100
AcDb2dPolyline
 66
     1
 10
0.0
 20
0.0
 30
0.0
  0
VERTEX
  5
F2
330
F1
100
AcDbEntity
  8
DIBUJOS
 62
     7
100
AcDbVertex
100
AcDb2dVertex
 10
67.60751839344806
 20
45.39898033885279
 30
0.0
  0
VERTEX
  5
F3
330
F1
100
AcDbEntity
  8
DIBUJOS
 62
     7
100
AcDbVertex
100
AcDb2dVertex
 10
67.60193748006435
 20
45.39898033885279
 30
0.0
  0
SEQEND
  5
F4
330
F1
100
AcDbEntity
  8
DIBUJOS
 62
     7
  0
POLYLINE
  5
F5
330
52
100
AcDbEntity
  8
DIBUJOS
 62
     7
100
AcDb2dPolyline
 66
     1
 10
0.0
 20
0.0
 30
0.0
  0
VERTEX
  5
F6
330
F5
100
AcDbEntity
  8
DIBUJOS
 62
     7
100
AcDbVertex
100
AcDb2dVertex
 10
67.62426263586448
 20
45.39898033885279
 30
0.0
  0
VERTEX
  5
F7
330
F5
100
AcDbEntity
  8
DIBUJOS
 62
     7
100
AcDbVertex
100
AcDb2dVertex
 10
67.61868172248045
 20
45.39898033885279
 30
0.0
  0
SEQEND
  5
F8
330
F5
100
AcDbEntity
  8
DIBUJOS
 62
     7
  0
POLYLINE
  5
F9
330
52
100
AcDbEntity
  8
DIBUJOS
 62
     7
100
AcDb2dPolyline
 66
     1
 10
0.0
 20
0.0
 30
0.0
  0
VERTEX
  5
FA
330
F9
100
AcDbEntity
  8
DIBUJOS
 62
     7
100
AcDbVertex
100
AcDb2dVertex
 10
67.66891595199334
 20
45.39898033885279
 30
0.0
  0
VERTEX
  5
FB
330
F9
100
AcDbEntity
  8
DIBUJOS
 62
     7
100
AcDbVertex
100
AcDb2dVertex
 10
67.6633335363447
 20
45.39898033885279
 30
0.0
  0
SEQEND
  5
FC
330
F9
100
AcDbEntity
  8
DIBUJOS
 62
     7
  0
POLYLINE
  5
FD
330
52
100
AcDbEntity
  8
DIBUJOS
 62
     7
100
AcDb2dPolyline
 66
     1
 10
0.0
 20
0.0
 30
0.0
  0
VERTEX
  5
FE
330
FD
100
AcDbEntity
  8
DIBUJOS
 62
     7
100
AcDbVertex
100
AcDb2dVertex
 10
67.72473109488965
 20
45.39898033885279
 30
0.0
  0
VERTEX
  5
FF
330
FD
100
AcDbEntity
  8
DIBUJOS
 62
     7
100
AcDbVertex
100
AcDb2dVertex
 10
67.6968235234415
 20
45.39898033885279
 30
0.0
  0
SEQEND
  5
100
330
FD
100
AcDbEntity
  8
DIBUJOS
 62
     7
  0
POLYLINE
  5
101
330
52
100
AcDbEntity
  8
DIBUJOS
 62
     7
100
AcDb2dPolyline
 66
     1
 10
0.0
 20
0.0
 30
0.0
  0
VERTEX
  5
102
330
101
100
AcDbEntity
  8
DIBUJOS
 62
     7
100
AcDbVertex
100
AcDb2dVertex
 10
67.76380199537017
 20
45.39898033885279
 30
0.0
  0
VERTEX
  5
103
330
101
100
AcDbEntity
  8
DIBUJOS
 62
     7
100
AcDbVertex
100
AcDb2dVertex
 10
67.74147533730607
 20
45.40456118544687
 30
0.0
  0
SEQEND
  5
104
330
101
100
AcDbEntity
  8
DIBUJOS
 62
     7
  0
POLYLINE
  5
105
330
52
100
AcDbEntity
  8
DIBUJOS
 62
     7
100
AcDb2dPolyline
 66
     1
 10
0.0
 20
0.0
 30
0.0
  0
VERTEX
  5
106
330
105
100
AcDbEntity
  8
DIBUJOS
 62
     7
100
AcDbVertex
100
AcDb2dVertex
 10
67.8028728958507
 20
45.39898033885279
 30
0.0
  0
VERTEX
  5
107
330
105
100
AcDbEntity
  8
DIBUJOS
 62
     7
100
AcDbVertex
100
AcDb2dVertex
 10
67.79170956681833
 20
45.39898033885279
 30
0.0
  0
SEQEND
  5
108
330
105
100
AcDbEntity
  8
DIBUJOS
 62
     7
  0
POLYLINE
  5
109
330
52
100
AcDbEntity
  8
DIBUJOS
 62
     7
100
AcDb2dPolyline
 66
     1
 10
0.0
 20
0.0
 30
0.0
  0
VERTEX
  5
10A
330
109
100
AcDbEntity
  8
DIBUJOS
 62
     7
100
AcDbVertex
100
AcDb2dVertex
 10
67.81961713826679
 20
45.39898033885279
 30
0.0
  0
VERTEX
  5
10B
330
109
100
AcDbEntity
  8
DIBUJOS
 62
     7
100
AcDbVertex
100
AcDb2dVertex
 10
67.81403622488308
 20
45.39898033885279
 30
0.0
  0
SEQEND
  5
10C
330
109
100
AcDbEntity
  8
DIBUJOS
 62
     7
  0
POLYLINE
  5
10D
330
52
100
AcDbEntity
  8
DIBUJOS
 62
     7
100
AcDb2dPolyline
 66
     1
 10
0.0
 20
0.0
 30
0.0
  0
VERTEX
  5
10E
330
10D
100
AcDbEntity
  8
DIBUJOS
 62
     7
100
AcDbVertex
100
AcDb2dVertex
 10
67.84752470971463
 20
45.39898033885279
 30
0.0
  0
VERTEX
  5
10F
330
10D
100
AcDbEntity
  8
DIBUJOS
 62
     7
100
AcDbVertex
100
AcDb2dVertex
 10
67.84194379633122
 20
45.39898033885279
 30
0.0
  0
SEQEND
  5
110
330
10D
100
AcDbEntity
  8
DIBUJOS
 62
     7
  0
POLYLINE
  5
111
330
52
100
AcDbEntity
  8
DIBUJOS
 62
     7
100
AcDb2dPolyline
 66
     1
 10
0.0
 20
0.0
 30
0.0
  0
VERTEX
  5
112
330
111
100
AcDbEntity
  8
DIBUJOS
 62
     7
100
AcDbVertex
100
AcDb2dVertex
 10
67.93124892632466
 20
45.39898033885279
 30
0.0
  0
VERTEX
  5
113
330
111
100
AcDbEntity
  8
DIBUJOS
 62
     7
100
AcDbVertex
100
AcDb2dVertex
 10
67.92008559729229
 20
45.39898033885279
 30
0.0
  0
SEQEND
  5
114
330
111
100
AcDbEntity
  8
DIBUJOS
 62
     7
  0
POLYLINE
  5
115
330
52
100
AcDbEntity
  8
DIBUJOS
 62
     7
100
AcDb2dPolyline
 66
     1
 10
0.0
 20
0.0
 30
0.0
  0
VERTEX
  5
116
330
115
100
AcDbEntity
  8
DIBUJOS
 62
     7
100
AcDbVertex
100
AcDb2dVertex
 10
67.94799316874044
 20
45.39898033885279
 30
0.0
  0
VERTEX
  5
117
330
115
100
AcDbEntity
  8
DIBUJOS
 62
     7
100
AcDbVertex
100
AcDb2dVertex
 10
67.94241225535639
 20
45.39898033885279
 30
0.0
  0
SEQEND
  5
118
330
115
100
AcDbEntity
  8
DIBUJOS
 62
     7
  0
POLYLINE
  5
119
330
52
100
AcDbEntity
  8
DIBUJOS
 62
     7
100
AcDb2dPolyline
 66
     1
 10
0.0
 20
0.0
 30
0.0
  0
VERTEX
  5
11A
330
119
100
AcDbEntity
  8
DIBUJOS
 62
     7
100
AcDbVertex
100
AcDb2dVertex
 10
68.00380831163673
 20
45.39898033885279
 30
0.0
  0
VERTEX
  5
11B
330
119
100
AcDbEntity
  8
DIBUJOS
 62
     7
100
AcDbVertex
100
AcDb2dVertex
 10
67.98706406922096
 20
45.39898033885279
 30
0.0
  0
SEQEND
  5
11C
330
119
100
AcDbEntity
  8
DIBUJOS
 62
     7
  0
POLYLINE
  5
11D
330
52
100
AcDbEntity
  8
DIBUJOS
 62
     7
100
AcDb2dPolyline
 66
     1
 10
0.0
 20
0.0
 30
0.0
  0
VERTEX
  5
11E
330
11D
100
AcDbEntity
  8
DIBUJOS
 62
     7
100
AcDbVertex
100
AcDb2dVertex
 10
61.09384434676997
 20
45.35434257715539
 30
0.0
  0
VERTEX
  5
11F
330
11D
100
AcDbEntity
  8
DIBUJOS
 62
     7
100
AcDbVertex
100
AcDb2dVertex
 10
61.08770459091502
 20
45.35880605295656
 30
0.0
  0
VERTEX
  5
120
330
11D
100
AcDbEntity
  8
DIBUJOS
 62
     7
100
AcDbVertex
100
AcDb2dVertex
 10
61.075983921677
 20
45.3705234278561
 30
0.0
  0
VERTEX
  5
121
330
11D
100
AcDbEntity
  8
DIBUJOS
 62
     7
100
AcDbVertex
100
AcDb2dVertex
 10
61.07319271385267
 20
45.37721864155801
 30
0.0
  0
VERTEX
  5
122
330
11D
100
AcDbEntity
  8
DIBUJOS
 62
     7
100
AcDbVertex
100
AcDb2dVertex
 10
61.03459427562233
 20
45.42173024848859
 30
0.0
  0
VERTEX
  5
123
330
11D
100
AcDbEntity
  8
DIBUJOS
 62
     7
100
AcDbVertex
100
AcDb2dVertex
 10
61.02686587484096
 20
45.44920195082967
 30
0.0
  0
VERTEX
  5
124
330
11D
100
AcDbEntity
  8
DIBUJOS
 62
     7
100
AcDbVertex
100
AcDb2dVertex
 10
61.03030080309167
 20
45.75094913489488
 30
0.0
  0
VERTEX
  5
125
330
11D
100
AcDbEntity
  8
DIBUJOS
 62
     7
100
AcDbVertex
100
AcDb2dVertex
 10
61.03244753935716
 20
45.77283999064189
 30
0.0
  0
SEQEND
  5
126
330
11D
100
AcDbEntity
  8
DIBUJOS
 62
     7
  0
POLYLINE
  5
127
330
52
100
AcDbEntity
  8
DIBUJOS
 62
     7
100
AcDb2dPolyline
 66
     1
 10
0.0
 20
0.0
 30
0.0
  0
VERTEX
  5
128
330
127
100
AcDbEntity
  8
DIBUJOS
 62
     7
100
AcDbVertex
100
AcDb2dVertex
 10
68.04846162776592
 20
45.35434257715539
 30
0.0
  0
VERTEX
  5
129
330
127
100
AcDbEntity
  8
DIBUJOS
 62
     7
100
AcDbVertex
100
AcDb2dVertex
 10
68.06718134827068
 20
45.37872348770632
 30
0.0
  0
VERTEX
  5
12A
330
127
100
AcDbEntity
  8
DIBUJOS
 62
     7
100
AcDbVertex
100
AcDb2dVertex
 10
68.07078828583035
 20
45.3934024959438
 30
0.0
  0
VERTEX
  5
12B
330
127
100
AcDbEntity
  8
DIBUJOS
 62
     7
100
AcDbVertex
100
AcDb2dVertex
 10
68.10427677066254
 20
45.41572287863504
 30
0.0
  0
VERTEX
  5
12C
330
127
100
AcDbEntity
  8
DIBUJOS
 62
     7
100
AcDbVertex
100
AcDb2dVertex
 10
68.10985918631056
 20
45.77283999064189
 30
0.0
  0
SEQEND
  5
12D
330
127
100
AcDbEntity
  8
DIBUJOS
 62
     7
  0
POLYLINE
  5
12E
330
52
100
AcDbEntity
  8
DIBUJOS
 62
     7
100
AcDb2dPolyline
 66
     1
 10
0.0
 20
0.0
 30
0.0
  0
VERTEX
  5
12F
330
12E
100
AcDbEntity
  8
DIBUJOS
 62
     7
100
AcDbVertex
100
AcDb2dVertex
 10
61.09384434676997
 20
45.34876173056131
 30
0.0
  0
VERTEX
  5
130
330
12E
100
AcDbEntity
  8
DIBUJOS
 62
     7
100
AcDbVertex
100
AcDb2dVertex
 10
61.08826268225346
 20
45.34876173056131
 30
0.0
  0
SEQEND
  5
131
330
12E
100
AcDbEntity
  8
DIBUJOS
 62
     7
  0
POLYLINE
  5
132
330
52
100
AcDbEntity
  8
DIBUJOS
 62
     7
100
AcDb2dPolyline
 66
     1
 10
0.0
 20
0.0
 30
0.0
  0
VERTEX
  5
133
330
132
100
AcDbEntity
  8
DIBUJOS
 62
     7
100
AcDbVertex
100
AcDb2dVertex
 10
61.09384434676997
 20
45.34876173056131
 30
0.0
  0
VERTEX
  5
134
330
132
100
AcDbEntity
  8
DIBUJOS
 62
     7
100
AcDbVertex
100
AcDb2dVertex
 10
61.09384434676997
 20
45.35434257715539
 30
0.0
  0
SEQEND
  5
135
330
132
100
AcDbEntity
  8
DIBUJOS
 62
     7
  0
POLYLINE
  5
136
330
52
100
AcDbEntity
  8
DIBUJOS
 62
     7
100
AcDb2dPolyline
 66
     1
 10
0.0
 20
0.0
 30
0.0
  0
VERTEX
  5
137
330
136
100
AcDbEntity
  8
DIBUJOS
 62
     7
100
AcDbVertex
100
AcDb2dVertex
 10
61.09942601128584
 20
45.34876173056131
 30
0.0
  0
VERTEX
  5
138
330
136
100
AcDbEntity
  8
DIBUJOS
 62
     7
100
AcDbVertex
100
AcDb2dVertex
 10
61.09384434676997
 20
45.34876173056131
 30
0.0
  0
SEQEND
  5
139
330
136
100
AcDbEntity
  8
DIBUJOS
 62
     7
  0
POLYLINE
  5
13A
330
52
100
AcDbEntity
  8
DIBUJOS
 62
     7
100
AcDb2dPolyline
 66
     1
 10
0.0
 20
0.0
 30
0.0
  0
VERTEX
  5
13B
330
13A
100
AcDbEntity
  8
DIBUJOS
 62
     7
100
AcDbVertex
100
AcDb2dVertex
 10
61.09942601128584
 20
45.34876173056131
 30
0.0
  0
VERTEX
  5
13C
330
13A
100
AcDbEntity
  8
DIBUJOS
 62
     7
100
AcDbVertex
100
AcDb2dVertex
 10
68.04846162776592
 20
45.35434257715539
 30
0.0
  0
SEQEND
  5
13D
330
13A
100
AcDbEntity
  8
DIBUJOS
 62
     7
  0
POLYLINE
  5
13E
330
52
100
AcDbEntity
  8
DIBUJOS
 62
     7
100
AcDb2dPolyline
 66
     1
 10
0.0
 20
0.0
 30
0.0
  0
VERTEX
  5
13F
330
13E
100
AcDbEntity
  8
DIBUJOS
 62
     7
100
AcDbVertex
100
AcDb2dVertex
 10
60.80360380099018
 20
45.32086050127567
 30
0.0
  0
VERTEX
  5
140
330
13E
100
AcDbEntity
  8
DIBUJOS
 62
     7
100
AcDbVertex
100
AcDb2dVertex
 10
60.82077769111217
 20
45.32429671683208
 30
0.0
  0
VERTEX
  5
141
330
13E
100
AcDbEntity
  8
DIBUJOS
 62
     7
100
AcDbVertex
100
AcDb2dVertex
 10
60.94324531449619
 20
45.34050460069719
 30
0.0
  0
VERTEX
  5
142
330
13E
100
AcDbEntity
  8
DIBUJOS
 62
     7
100
AcDbVertex
100
AcDb2dVertex
 10
61.08826268225346
 20
45.34876173056131
 30
0.0
  0
SEQEND
  5
143
330
13E
100
AcDbEntity
  8
DIBUJOS
 62
     7
  0
POLYLINE
  5
144
330
52
100
AcDbEntity
  8
DIBUJOS
 62
     7
100
AcDb2dPolyline
 66
     1
 10
0.0
 20
0.0
 30
0.0
  0
VERTEX
  5
145
330
144
100
AcDbEntity
  8
DIBUJOS
 62
     7
100
AcDbVertex
100
AcDb2dVertex
 10
68.37219216064187
 20
45.32086050127567
 30
0.0
  0
VERTEX
  5
146
330
144
100
AcDbEntity
  8
DIBUJOS
 62
     7
100
AcDbVertex
100
AcDb2dVertex
 10
68.31675258392207
 20
45.32870312261966
 30
0.0
  0
VERTEX
  5
147
330
144
100
AcDbEntity
  8
DIBUJOS
 62
     7
100
AcDbVertex
100
AcDb2dVertex
 10
68.21022999813022
 20
45.34049558964293
 30
0.0
  0
VERTEX
  5
148
330
144
100
AcDbEntity
  8
DIBUJOS
 62
     7
100
AcDbVertex
100
AcDb2dVertex
 10
68.05998099353319
 20
45.3483532294107
 30
0.0
  0
VERTEX
  5
149
330
144
100
AcDbEntity
  8
DIBUJOS
 62
     7
100
AcDbVertex
100
AcDb2dVertex
 10
68.04846162776592
 20
45.35434257715539
 30
0.0
  0
SEQEND
  5
14A
330
144
100
AcDbEntity
  8
DIBUJOS
 62
     7
  0
POLYLINE
  5
14B
330
52
100
AcDbEntity
  8
DIBUJOS
 62
     7
100
AcDb2dPolyline
 66
     1
 10
0.0
 20
0.0
 30
0.0
  0
VERTEX
  5
14C
330
14B
100
AcDbEntity
  8
DIBUJOS
 62
     7
100
AcDbVertex
100
AcDb2dVertex
 10
60.96546906742816
 20
45.29296227567511
 30
0.0
  0
VERTEX
  5
14D
330
14B
100
AcDbEntity
  8
DIBUJOS
 62
     7
100
AcDbVertex
100
AcDb2dVertex
 10
60.92528198427108
 20
45.30077486017026
 30
0.0
  0
VERTEX
  5
14E
330
14B
100
AcDbEntity
  8
DIBUJOS
 62
     7
100
AcDbVertex
100
AcDb2dVertex
 10
60.90456425170714
 20
45.29657270495701
 30
0.0
  0
VERTEX
  5
14F
330
14B
100
AcDbEntity
  8
DIBUJOS
 62
     7
100
AcDbVertex
100
AcDb2dVertex
 10
60.89848984436733
 20
45.29296227567511
 30
0.0
  0
SEQEND
  5
150
330
14B
100
AcDbEntity
  8
DIBUJOS
 62
     7
  0
POLYLINE
  5
151
330
52
100
AcDbEntity
  8
DIBUJOS
 62
     7
100
AcDb2dPolyline
 66
     1
 10
0.0
 20
0.0
 30
0.0
  0
VERTEX
  5
152
330
151
100
AcDbEntity
  8
DIBUJOS
 62
     7
100
AcDbVertex
100
AcDb2dVertex
 10
68.19358190065566
 20
45.29296227567511
 30
0.0
  0
VERTEX
  5
153
330
151
100
AcDbEntity
  8
DIBUJOS
 62
     7
100
AcDbVertex
100
AcDb2dVertex
 10
68.18800098727161
 20
45.29296227567511
 30
0.0
  0
SEQEND
  5
154
330
151
100
AcDbEntity
  8
DIBUJOS
 62
     7
  0
POLYLINE
  5
155
330
52
100
AcDbEntity
  8
DIBUJOS
 62
     7
100
AcDb2dPolyline
 66
     1
 10
0.0
 20
0.0
 30
0.0
  0
VERTEX
  5
156
330
155
100
AcDbEntity
  8
DIBUJOS
 62
     7
100
AcDbVertex
100
AcDb2dVertex
 10
68.21590855872009
 20
45.29296227567511
 30
0.0
  0
VERTEX
  5
157
330
155
100
AcDbEntity
  8
DIBUJOS
 62
     7
100
AcDbVertex
100
AcDb2dVertex
 10
68.23823371451958
 20
45.29854312226919
 30
0.0
  0
SEQEND
  5
158
330
155
100
AcDbEntity
  8
DIBUJOS
 62
     7
  0
POLYLINE
  5
159
330
52
100
AcDbEntity
  8
DIBUJOS
 62
     7
100
AcDb2dPolyline
 66
     1
 10
0.0
 20
0.0
 30
0.0
  0
VERTEX
  5
15A
330
159
100
AcDbEntity
  8
DIBUJOS
 62
     7
100
AcDbVertex
100
AcDb2dVertex
 10
68.39451731644137
 20
45.29296227567511
 30
0.0
  0
VERTEX
  5
15B
330
159
100
AcDbEntity
  8
DIBUJOS
 62
     7
100
AcDbVertex
100
AcDb2dVertex
 10
68.39451731644137
 20
45.29854312226919
 30
0.0
  0
SEQEND
  5
15C
330
159
100
AcDbEntity
  8
DIBUJOS
 62
     7
  0
POLYLINE
  5
15D
330
52
100
AcDbEntity
  8
DIBUJOS
 62
     7
100
AcDb2dPolyline
 66
     1
 10
0.0
 20
0.0
 30
0.0
  0
VERTEX
  5
15E
330
15D
100
AcDbEntity
  8
DIBUJOS
 62
     7
100
AcDbVertex
100
AcDb2dVertex
 10
68.45033396160261
 20
45.28738142908103
 30
0.0
  0
VERTEX
  5
15F
330
15D
100
AcDbEntity
  8
DIBUJOS
 62
     7
100
AcDbVertex
100
AcDb2dVertex
 10
68.45200748448545
 20
45.29798443687306
 30
0.0
  0
VERTEX
  5
160
330
15D
100
AcDbEntity
  8
DIBUJOS
 62
     7
100
AcDbVertex
100
AcDb2dVertex
 10
68.4670782040187
 20
45.32644134786975
 30
0.0
  0
VERTEX
  5
161
330
15D
100
AcDbEntity
  8
DIBUJOS
 62
     7
100
AcDbVertex
100
AcDb2dVertex
 10
68.47824153305108
 20
45.32644134786975
 30
0.0
  0
VERTEX
  5
162
330
15D
100
AcDbEntity
  8
DIBUJOS
 62
     7
100
AcDbVertex
100
AcDb2dVertex
 10
68.49498577546717
 20
45.34318088396692
 30
0.0
  0
VERTEX
  5
163
330
15D
100
AcDbEntity
  8
DIBUJOS
 62
     7
100
AcDbVertex
100
AcDb2dVertex
 10
68.50374397870468
 20
45.38254117124828
 30
0.0
  0
VERTEX
  5
164
330
15D
100
AcDbEntity
  8
DIBUJOS
 62
     7
100
AcDbVertex
100
AcDb2dVertex
 10
68.50855272802916
 20
45.42100035305139
 30
0.0
  0
VERTEX
  5
165
330
15D
100
AcDbEntity
  8
DIBUJOS
 62
     7
100
AcDbVertex
100
AcDb2dVertex
 10
68.50880661076502
 20
45.7618014485358
 30
0.0
  0
VERTEX
  5
166
330
15D
100
AcDbEntity
  8
DIBUJOS
 62
     7
100
AcDbVertex
100
AcDb2dVertex
 10
68.50349009596947
 20
45.87874091010734
 30
0.0
  0
VERTEX
  5
167
330
15D
100
AcDbEntity
  8
DIBUJOS
 62
     7
100
AcDbVertex
100
AcDb2dVertex
 10
68.46390091416556
 20
46.32556006876911
 30
0.0
  0
VERTEX
  5
168
330
15D
100
AcDbEntity
  8
DIBUJOS
 62
     7
100
AcDbVertex
100
AcDb2dVertex
 10
68.4200212643599
 20
46.67649860088103
 30
0.0
  0
VERTEX
  5
169
330
15D
100
AcDbEntity
  8
DIBUJOS
 62
     7
100
AcDbVertex
100
AcDb2dVertex
 10
68.31411310483328
 20
47.39623857936542
 30
0.0
  0
VERTEX
  5
16A
330
15D
100
AcDbEntity
  8
DIBUJOS
 62
     7
100
AcDbVertex
100
AcDb2dVertex
 10
68.30294977580122
 20
47.46319972743945
 30
0.0
  0
VERTEX
  5
16B
330
15D
100
AcDbEntity
  8
DIBUJOS
 62
     7
100
AcDbVertex
100
AcDb2dVertex
 10
68.19719334500918
 20
48.01550229336179
 30
0.0
  0
VERTEX
  5
16C
330
15D
100
AcDbEntity
  8
DIBUJOS
 62
     7
100
AcDbVertex
100
AcDb2dVertex
 10
68.19014772353711
 20
48.04990349682863
 30
0.0
  0
VERTEX
  5
16D
330
15D
100
AcDbEntity
  8
DIBUJOS
 62
     7
100
AcDbVertex
100
AcDb2dVertex
 10
68.05207307211977
 20
48.66278137667097
 30
0.0
  0
VERTEX
  5
16E
330
15D
100
AcDbEntity
  8
DIBUJOS
 62
     7
100
AcDbVertex
100
AcDb2dVertex
 10
68.03060120267327
 20
48.72409559708244
 30
0.0
  0
VERTEX
  5
16F
330
15D
100
AcDbEntity
  8
DIBUJOS
 62
     7
100
AcDbVertex
100
AcDb2dVertex
 10
67.99822739825302
 20
48.7637142012673
 30
0.0
  0
VERTEX
  5
170
330
15D
100
AcDbEntity
  8
DIBUJOS
 62
     7
100
AcDbVertex
100
AcDb2dVertex
 10
67.99350427801647
 20
48.76499977841619
 30
0.0
  0
VERTEX
  5
171
330
15D
100
AcDbEntity
  8
DIBUJOS
 62
     7
100
AcDbVertex
100
AcDb2dVertex
 10
67.95915649777248
 20
48.78603458395886
 30
0.0
  0
VERTEX
  5
172
330
15D
100
AcDbEntity
  8
DIBUJOS
 62
     7
100
AcDbVertex
100
AcDb2dVertex
 10
67.90892226826023
 20
48.84183403884442
 30
0.0
  0
VERTEX
  5
173
330
15D
100
AcDbEntity
  8
DIBUJOS
 62
     7
100
AcDbVertex
100
AcDb2dVertex
 10
67.80789646902845
 20
48.89595743754126
 30
0.0
  0
VERTEX
  5
174
330
15D
100
AcDbEntity
  8
DIBUJOS
 62
     7
100
AcDbVertex
100
AcDb2dVertex
 10
67.79784932267295
 20
48.89930654623459
 30
0.0
  0
VERTEX
  5
175
330
15D
100
AcDbEntity
  8
DIBUJOS
 62
     7
100
AcDbVertex
100
AcDb2dVertex
 10
67.63499781945526
 20
48.94570747098443
 30
0.0
  0
VERTEX
  5
176
330
15D
100
AcDbEntity
  8
DIBUJOS
 62
     7
100
AcDbVertex
100
AcDb2dVertex
 10
67.613528954538
 20
48.94999973674486
 30
0.0
  0
VERTEX
  5
177
330
15D
100
AcDbEntity
  8
DIBUJOS
 62
     7
100
AcDbVertex
100
AcDb2dVertex
 10
67.2779350372765
 20
49.00120355369259
 30
0.0
  0
VERTEX
  5
178
330
15D
100
AcDbEntity
  8
DIBUJOS
 62
     7
100
AcDbVertex
100
AcDb2dVertex
 10
66.7649522012352
 20
49.05635721631927
 30
0.0
  0
VERTEX
  5
179
330
15D
100
AcDbEntity
  8
DIBUJOS
 62
     7
100
AcDbVertex
100
AcDb2dVertex
 10
66.09479191577128
 20
49.10144252707136
 30
0.0
  0
VERTEX
  5
17A
330
15D
100
AcDbEntity
  8
DIBUJOS
 62
     7
100
AcDbVertex
100
AcDb2dVertex
 10
65.74340619191746
 20
49.11790272047045
 30
0.0
  0
VERTEX
  5
17B
330
15D
100
AcDbEntity
  8
DIBUJOS
 62
     7
100
AcDbVertex
100
AcDb2dVertex
 10
64.9953504769046
 20
49.14315169596539
 30
0.0
  0
VERTEX
  5
17C
330
15D
100
AcDbEntity
  8
DIBUJOS
 62
     7
100
AcDbVertex
100
AcDb2dVertex
 10
64.61580480113203
 20
49.14315169596539
 30
0.0
  0
VERTEX
  5
17D
330
15D
100
AcDbEntity
  8
DIBUJOS
 62
     7
100
AcDbVertex
100
AcDb2dVertex
 10
64.58231631630017
 20
49.12083131327415
 30
0.0
  0
VERTEX
  5
17E
330
15D
100
AcDbEntity
  8
DIBUJOS
 62
     7
100
AcDbVertex
100
AcDb2dVertex
 10
64.55440874485168
 20
49.14315169596539
 30
0.0
  0
VERTEX
  5
17F
330
15D
100
AcDbEntity
  8
DIBUJOS
 62
     7
100
AcDbVertex
100
AcDb2dVertex
 10
64.16928065343077
 20
49.14315169596539
 30
0.0
  0
VERTEX
  5
180
330
15D
100
AcDbEntity
  8
DIBUJOS
 62
     7
100
AcDbVertex
100
AcDb2dVertex
 10
63.92375501663329
 20
49.1348465071426
 30
0.0
  0
VERTEX
  5
181
330
15D
100
AcDbEntity
  8
DIBUJOS
 62
     7
100
AcDbVertex
100
AcDb2dVertex
 10
63.03049790643662
 20
49.10113915489364
 30
0.0
  0
VERTEX
  5
182
330
15D
100
AcDbEntity
  8
DIBUJOS
 62
     7
100
AcDbVertex
100
AcDb2dVertex
 10
62.84661544846343
 20
49.09032588915679
 30
0.0
  0
VERTEX
  5
183
330
15D
100
AcDbEntity
  8
DIBUJOS
 62
     7
100
AcDbVertex
100
AcDb2dVertex
 10
62.25457893678453
 20
49.04522856366535
 30
0.0
  0
VERTEX
  5
184
330
15D
100
AcDbEntity
  8
DIBUJOS
 62
     7
100
AcDbVertex
100
AcDb2dVertex
 10
61.76954723786717
 20
48.99014999316208
 30
0.0
  0
VERTEX
  5
185
330
15D
100
AcDbEntity
  8
DIBUJOS
 62
     7
100
AcDbVertex
100
AcDb2dVertex
 10
61.46823800573225
 20
48.94012662439035
 30
0.0
  0
VERTEX
  5
186
330
15D
100
AcDbEntity
  8
DIBUJOS
 62
     7
100
AcDbVertex
100
AcDb2dVertex
 10
61.46173470181869
 20
48.93866082614613
 30
0.0
  0
VERTEX
  5
187
330
15D
100
AcDbEntity
  8
DIBUJOS
 62
     7
100
AcDbVertex
100
AcDb2dVertex
 10
61.30092026954277
 20
48.88535743343463
 30
0.0
  0
VERTEX
  5
188
330
15D
100
AcDbEntity
  8
DIBUJOS
 62
     7
100
AcDbVertex
100
AcDb2dVertex
 10
61.29422242235003
 20
48.88200832474129
 30
0.0
  0
VERTEX
  5
189
330
15D
100
AcDbEntity
  8
DIBUJOS
 62
     7
100
AcDbVertex
100
AcDb2dVertex
 10
61.22222037724328
 20
48.84183403884442
 30
0.0
  0
VERTEX
  5
18A
330
15D
100
AcDbEntity
  8
DIBUJOS
 62
     7
100
AcDbVertex
100
AcDb2dVertex
 10
61.1719861477307
 20
48.79161242686786
 30
0.0
  0
VERTEX
  5
18B
330
15D
100
AcDbEntity
  8
DIBUJOS
 62
     7
100
AcDbVertex
100
AcDb2dVertex
 10
61.11058934031789
 20
48.74139381857606
 30
0.0
  0
VERTEX
  5
18C
330
15D
100
AcDbEntity
  8
DIBUJOS
 62
     7
100
AcDbVertex
100
AcDb2dVertex
 10
61.10054219396271
 20
48.71851475048836
 30
0.0
  0
VERTEX
  5
18D
330
15D
100
AcDbEntity
  8
DIBUJOS
 62
     7
100
AcDbVertex
100
AcDb2dVertex
 10
61.07542583033856
 20
48.64151228370383
 30
0.0
  0
VERTEX
  5
18E
330
15D
100
AcDbEntity
  8
DIBUJOS
 62
     7
100
AcDbVertex
100
AcDb2dVertex
 10
60.92983309519897
 20
47.98852319534899
 30
0.0
  0
VERTEX
  5
18F
330
15D
100
AcDbEntity
  8
DIBUJOS
 62
     7
100
AcDbVertex
100
AcDb2dVertex
 10
60.92425143068278
 20
47.96062496974842
 30
0.0
  0
VERTEX
  5
190
330
15D
100
AcDbEntity
  8
DIBUJOS
 62
     7
100
AcDbVertex
100
AcDb2dVertex
 10
60.81152974958059
 20
47.35164286925652
 30
0.0
  0
VERTEX
  5
191
330
15D
100
AcDbEntity
  8
DIBUJOS
 62
     7
100
AcDbVertex
100
AcDb2dVertex
 10
60.80575053725535
 20
47.31248683255014
 30
0.0
  0
VERTEX
  5
192
330
15D
100
AcDbEntity
  8
DIBUJOS
 62
     7
100
AcDbVertex
100
AcDb2dVertex
 10
60.69995880324338
 20
46.57047753401859
 30
0.0
  0
VERTEX
  5
193
330
15D
100
AcDbEntity
  8
DIBUJOS
 62
     7
100
AcDbVertex
100
AcDb2dVertex
 10
60.65603258323237
 20
46.19719158605069
 30
0.0
  0
VERTEX
  5
194
330
15D
100
AcDbEntity
  8
DIBUJOS
 62
     7
100
AcDbVertex
100
AcDb2dVertex
 10
60.61941262762024
 20
45.70588184625292
 30
0.0
  0
VERTEX
  5
195
330
15D
100
AcDbEntity
  8
DIBUJOS
 62
     7
100
AcDbVertex
100
AcDb2dVertex
 10
60.61941262762024
 20
45.45478279742375
 30
0.0
  0
VERTEX
  5
196
330
15D
100
AcDbEntity
  8
DIBUJOS
 62
     7
100
AcDbVertex
100
AcDb2dVertex
 10
60.63254542568217
 20
45.3715747175802
 30
0.0
  0
VERTEX
  5
197
330
15D
100
AcDbEntity
  8
DIBUJOS
 62
     7
100
AcDbVertex
100
AcDb2dVertex
 10
60.63418740100614
 20
45.36500866233051
 30
0.0
  0
VERTEX
  5
198
330
15D
100
AcDbEntity
  8
DIBUJOS
 62
     7
100
AcDbVertex
100
AcDb2dVertex
 10
60.6417385345522
 20
45.33760304105791
 30
0.0
  0
VERTEX
  5
199
330
15D
100
AcDbEntity
  8
DIBUJOS
 62
     7
100
AcDbVertex
100
AcDb2dVertex
 10
60.66350635014605
 20
45.32476829536547
 30
0.0
  0
VERTEX
  5
19A
330
15D
100
AcDbEntity
  8
DIBUJOS
 62
     7
100
AcDbVertex
100
AcDb2dVertex
 10
60.68080943503273
 20
45.31528265836667
 30
0.0
  0
VERTEX
  5
19B
330
15D
100
AcDbEntity
  8
DIBUJOS
 62
     7
100
AcDbVertex
100
AcDb2dVertex
 10
60.68639109954892
 20
45.28738142908103
 30
0.0
  0
SEQEND
  5
19C
330
15D
100
AcDbEntity
  8
DIBUJOS
 62
     7
  0
POLYLINE
  5
19D
330
52
100
AcDbEntity
  8
DIBUJOS
 62
     7
100
AcDb2dPolyline
 66
     1
 10
0.0
 20
0.0
 30
0.0
  0
VERTEX
  5
19E
330
19D
100
AcDbEntity
  8
DIBUJOS
 62
     7
100
AcDbVertex
100
AcDb2dVertex
 10
60.68639109954892
 20
45.28180058248695
 30
0.0
  0
VERTEX
  5
19F
330
19D
100
AcDbEntity
  8
DIBUJOS
 62
     7
100
AcDbVertex
100
AcDb2dVertex
 10
60.68080943503273
 20
45.28180058248695
 30
0.0
  0
SEQEND
  5
1A0
330
19D
100
AcDbEntity
  8
DIBUJOS
 62
     7
  0
POLYLINE
  5
1A1
330
52
100
AcDbEntity
  8
DIBUJOS
 62
     7
100
AcDb2dPolyline
 66
     1
 10
0.0
 20
0.0
 30
0.0
  0
VERTEX
  5
1A2
330
1A1
100
AcDbEntity
  8
DIBUJOS
 62
     7
100
AcDbVertex
100
AcDb2dVertex
 10
60.68639109954892
 20
45.28180058248695
 30
0.0
  0
VERTEX
  5
1A3
330
1A1
100
AcDbEntity
  8
DIBUJOS
 62
     7
100
AcDbVertex
100
AcDb2dVertex
 10
60.68639109954892
 20
45.28738142908103
 30
0.0
  0
SEQEND
  5
1A4
330
1A1
100
AcDbEntity
  8
DIBUJOS
 62
     7
  0
POLYLINE
  5
1A5
330
52
100
AcDbEntity
  8
DIBUJOS
 62
     7
100
AcDb2dPolyline
 66
     1
 10
0.0
 20
0.0
 30
0.0
  0
VERTEX
  5
1A6
330
1A5
100
AcDbEntity
  8
DIBUJOS
 62
     7
100
AcDbVertex
100
AcDb2dVertex
 10
60.69197276406479
 20
45.28180058248695
 30
0.0
  0
VERTEX
  5
1A7
330
1A5
100
AcDbEntity
  8
DIBUJOS
 62
     7
100
AcDbVertex
100
AcDb2dVertex
 10
60.68639109954892
 20
45.28180058248695
 30
0.0
  0
SEQEND
  5
1A8
330
1A5
100
AcDbEntity
  8
DIBUJOS
 62
     7
  0
POLYLINE
  5
1A9
330
52
100
AcDbEntity
  8
DIBUJOS
 62
     7
100
AcDb2dPolyline
 66
     1
 10
0.0
 20
0.0
 30
0.0
  0
VERTEX
  5
1AA
330
1A9
100
AcDbEntity
  8
DIBUJOS
 62
     7
100
AcDbVertex
100
AcDb2dVertex
 10
68.45033396160261
 20
45.28180058248695
 30
0.0
  0
VERTEX
  5
1AB
330
1A9
100
AcDbEntity
  8
DIBUJOS
 62
     7
100
AcDbVertex
100
AcDb2dVertex
 10
68.44475154595459
 20
45.28180058248695
 30
0.0
  0
SEQEND
  5
1AC
330
1A9
100
AcDbEntity
  8
DIBUJOS
 62
     7
  0
POLYLINE
  5
1AD
330
52
100
AcDbEntity
  8
DIBUJOS
 62
     7
100
AcDb2dPolyline
 66
     1
 10
0.0
 20
0.0
 30
0.0
  0
VERTEX
  5
1AE
330
1AD
100
AcDbEntity
  8
DIBUJOS
 62
     7
100
AcDbVertex
100
AcDb2dVertex
 10
68.45033396160261
 20
45.28180058248695
 30
0.0
  0
VERTEX
  5
1AF
330
1AD
100
AcDbEntity
  8
DIBUJOS
 62
     7
100
AcDbVertex
100
AcDb2dVertex
 10
68.45033396160261
 20
45.28738142908103
 30
0.0
  0
SEQEND
  5
1B0
330
1AD
100
AcDbEntity
  8
DIBUJOS
 62
     7
  0
POLYLINE
  5
1B1
330
52
100
AcDbEntity
  8
DIBUJOS
 62
     7
100
AcDb2dPolyline
 66
     1
 10
0.0
 20
0.0
 30
0.0
  0
VERTEX
  5
1B2
330
1B1
100
AcDbEntity
  8
DIBUJOS
 62
     7
100
AcDbVertex
100
AcDb2dVertex
 10
68.45591487498632
 20
45.28180058248695
 30
0.0
  0
VERTEX
  5
1B3
330
1B1
100
AcDbEntity
  8
DIBUJOS
 62
     7
100
AcDbVertex
100
AcDb2dVertex
 10
68.45033396160261
 20
45.28180058248695
 30
0.0
  0
SEQEND
  5
1B4
330
1B1
100
AcDbEntity
  8
DIBUJOS
 62
     7
  0
POLYLINE
  5
1B5
330
52
100
AcDbEntity
  8
DIBUJOS
 62
     7
100
AcDb2dPolyline
 66
     1
 10
0.0
 20
0.0
 30
0.0
  0
VERTEX
  5
1B6
330
1B5
100
AcDbEntity
  8
DIBUJOS
 62
     7
100
AcDbVertex
100
AcDb2dVertex
 10
60.69197276406479
 20
45.28180058248695
 30
0.0
  0
VERTEX
  5
1B7
330
1B5
100
AcDbEntity
  8
DIBUJOS
 62
     7
100
AcDbVertex
100
AcDb2dVertex
 10
60.69755442858097
 20
45.27622273957795
 30
0.0
  0
VERTEX
  5
1B8
330
1B5
100
AcDbEntity
  8
DIBUJOS
 62
     7
100
AcDbVertex
100
AcDb2dVertex
 10
60.7533695714776
 20
45.27622273957795
 30
0.0
  0
VERTEX
  5
1B9
330
1B5
100
AcDbEntity
  8
DIBUJOS
 62
     7
100
AcDbVertex
100
AcDb2dVertex
 10
60.76453290050965
 20
45.28738142908103
 30
0.0
  0
SEQEND
  5
1BA
330
1B5
100
AcDbEntity
  8
DIBUJOS
 62
     7
  0
POLYLINE
  5
1BB
330
52
100
AcDbEntity
  8
DIBUJOS
 62
     7
100
AcDb2dPolyline
 66
     1
 10
0.0
 20
0.0
 30
0.0
  0
VERTEX
  5
1BC
330
1BB
100
AcDbEntity
  8
DIBUJOS
 62
     7
100
AcDbVertex
100
AcDb2dVertex
 10
68.36102883160981
 20
45.27622273957795
 30
0.0
  0
VERTEX
  5
1BD
330
1BB
100
AcDbEntity
  8
DIBUJOS
 62
     7
100
AcDbVertex
100
AcDb2dVertex
 10
67.80848235226405
 20
45.27898312602566
 30
0.0
  0
VERTEX
  5
1BE
330
1BB
100
AcDbEntity
  8
DIBUJOS
 62
     7
100
AcDbVertex
100
AcDb2dVertex
 10
60.97663164532806
 20
45.27622273957795
 30
0.0
  0
SEQEND
  5
1BF
330
1BB
100
AcDbEntity
  8
DIBUJOS
 62
     7
  0
POLYLINE
  5
1C0
330
52
100
AcDbEntity
  8
DIBUJOS
 62
     7
100
AcDb2dPolyline
 66
     1
 10
0.0
 20
0.0
 30
0.0
  0
VERTEX
  5
1C1
330
1C0
100
AcDbEntity
  8
DIBUJOS
 62
     7
100
AcDbVertex
100
AcDb2dVertex
 10
68.38893640305797
 20
45.27064189298387
 30
0.0
  0
VERTEX
  5
1C2
330
1C0
100
AcDbEntity
  8
DIBUJOS
 62
     7
100
AcDbVertex
100
AcDb2dVertex
 10
68.37777307402591
 20
45.27622273957795
 30
0.0
  0
SEQEND
  5
1C3
330
1C0
100
AcDbEntity
  8
DIBUJOS
 62
     7
  0
POLYLINE
  5
1C4
330
52
100
AcDbEntity
  8
DIBUJOS
 62
     7
100
AcDb2dPolyline
 66
     1
 10
0.0
 20
0.0
 30
0.0
  0
VERTEX
  5
1C5
330
1C4
100
AcDbEntity
  8
DIBUJOS
 62
     7
100
AcDbVertex
100
AcDb2dVertex
 10
68.38893640305797
 20
45.27064189298387
 30
0.0
  0
VERTEX
  5
1C6
330
1C4
100
AcDbEntity
  8
DIBUJOS
 62
     7
100
AcDbVertex
100
AcDb2dVertex
 10
68.44475154595459
 20
45.28180058248695
 30
0.0
  0
SEQEND
  5
1C7
330
1C4
100
AcDbEntity
  8
DIBUJOS
 62
     7
  0
POLYLINE
  5
1C8
330
52
100
AcDbEntity
  8
DIBUJOS
 62
     7
100
AcDb2dPolyline
 66
     1
 10
0.0
 20
0.0
 30
0.0
  0
VERTEX
  5
1C9
330
1C8
100
AcDbEntity
  8
DIBUJOS
 62
     7
100
AcDbVertex
100
AcDb2dVertex
 10
67.12192334526661
 20
42.61457041904327
 30
0.0
  0
VERTEX
  5
1CA
330
1C8
100
AcDbEntity
  8
DIBUJOS
 62
     7
100
AcDbVertex
100
AcDb2dVertex
 10
67.11634243188288
 20
42.61457041904327
 30
0.0
  0
SEQEND
  5
1CB
330
1C8
100
AcDbEntity
  8
DIBUJOS
 62
     7
  0
POLYLINE
  5
1CC
330
52
100
AcDbEntity
  8
DIBUJOS
 62
     7
100
AcDb2dPolyline
 66
     1
 10
0.0
 20
0.0
 30
0.0
  0
VERTEX
  5
1CD
330
1CC
100
AcDbEntity
  8
DIBUJOS
 62
     7
100
AcDbVertex
100
AcDb2dVertex
 10
67.12192334526661
 20
42.61457041904327
 30
0.0
  0
VERTEX
  5
1CE
330
1CC
100
AcDbEntity
  8
DIBUJOS
 62
     7
100
AcDbVertex
100
AcDb2dVertex
 10
67.12793390635653
 20
42.61800363091491
 30
0.0
  0
VERTEX
  5
1CF
330
1CC
100
AcDbEntity
  8
DIBUJOS
 62
     7
100
AcDbVertex
100
AcDb2dVertex
 10
67.23938542264955
 20
42.62882290402095
 30
0.0
  0
VERTEX
  5
1D0
330
1CC
100
AcDbEntity
  8
DIBUJOS
 62
     7
100
AcDbVertex
100
AcDb2dVertex
 10
67.28912090027973
 20
42.63379400257515
 30
0.0
  0
VERTEX
  5
1D1
330
1CC
100
AcDbEntity
  8
DIBUJOS
 62
     7
100
AcDbVertex
100
AcDb2dVertex
 10
67.3558560053255
 20
42.65001690486501
 30
0.0
  0
VERTEX
  5
1D2
330
1CC
100
AcDbEntity
  8
DIBUJOS
 62
     7
100
AcDbVertex
100
AcDb2dVertex
 10
67.39039607545223
 20
42.66367165654248
 30
0.0
  0
VERTEX
  5
1D3
330
1CC
100
AcDbEntity
  8
DIBUJOS
 62
     7
100
AcDbVertex
100
AcDb2dVertex
 10
67.45581219208607
 20
42.69402689641304
 30
0.0
  0
VERTEX
  5
1D4
330
1CC
100
AcDbEntity
  8
DIBUJOS
 62
     7
100
AcDbVertex
100
AcDb2dVertex
 10
67.50790922983501
 20
42.73046159457546
 30
0.0
  0
VERTEX
  5
1D5
330
1CC
100
AcDbEntity
  8
DIBUJOS
 62
     7
100
AcDbVertex
100
AcDb2dVertex
 10
67.62544491818832
 20
42.82523085770224
 30
0.0
  0
VERTEX
  5
1D6
330
1CC
100
AcDbEntity
  8
DIBUJOS
 62
     7
100
AcDbVertex
100
AcDb2dVertex
 10
67.84194379633122
 20
43.03306783252976
 30
0.0
  0
VERTEX
  5
1D7
330
1CC
100
AcDbEntity
  8
DIBUJOS
 62
     7
100
AcDbVertex
100
AcDb2dVertex
 10
67.95777741877238
 20
43.17374841976349
 30
0.0
  0
VERTEX
  5
1D8
330
1CC
100
AcDbEntity
  8
DIBUJOS
 62
     7
100
AcDbVertex
100
AcDb2dVertex
 10
68.02484752884779
 20
43.26828639915055
 30
0.0
  0
VERTEX
  5
1D9
330
1CC
100
AcDbEntity
  8
DIBUJOS
 62
     7
100
AcDbVertex
100
AcDb2dVertex
 10
68.13647781464103
 20
43.44684645699635
 30
0.0
  0
VERTEX
  5
1DA
330
1CC
100
AcDbEntity
  8
DIBUJOS
 62
     7
100
AcDbVertex
100
AcDb2dVertex
 10
68.16996780173784
 20
43.50822375479156
 30
0.0
  0
VERTEX
  5
1DB
330
1CC
100
AcDbEntity
  8
DIBUJOS
 62
     7
100
AcDbVertex
100
AcDb2dVertex
 10
68.29237533453336
 20
43.77576497491
 30
0.0
  0
VERTEX
  5
1DC
330
1CC
100
AcDbEntity
  8
DIBUJOS
 62
     7
100
AcDbVertex
100
AcDb2dVertex
 10
68.39254784741182
 20
44.07701655096248
 30
0.0
  0
VERTEX
  5
1DD
330
1CC
100
AcDbEntity
  8
DIBUJOS
 62
     7
100
AcDbVertex
100
AcDb2dVertex
 10
68.46493146775386
 20
44.37827413438448
 30
0.0
  0
VERTEX
  5
1DE
330
1CC
100
AcDbEntity
  8
DIBUJOS
 62
     7
100
AcDbVertex
100
AcDb2dVertex
 10
68.47506424319761
 20
44.44450238333656
 30
0.0
  0
VERTEX
  5
1DF
330
1CC
100
AcDbEntity
  8
DIBUJOS
 62
     7
100
AcDbVertex
100
AcDb2dVertex
 10
68.49797377996777
 20
44.61237533021235
 30
0.0
  0
VERTEX
  5
1E0
330
1CC
100
AcDbEntity
  8
DIBUJOS
 62
     7
100
AcDbVertex
100
AcDb2dVertex
 10
68.50905147991189
 20
44.77970761380183
 30
0.0
  0
VERTEX
  5
1E1
330
1CC
100
AcDbEntity
  8
DIBUJOS
 62
     7
100
AcDbVertex
100
AcDb2dVertex
 10
68.51731243353193
 20
45.08650399222906
 30
0.0
  0
VERTEX
  5
1E2
330
1CC
100
AcDbEntity
  8
DIBUJOS
 62
     7
100
AcDbVertex
100
AcDb2dVertex
 10
68.50841151514722
 20
45.16499929042224
 30
0.0
  0
VERTEX
  5
1E3
330
1CC
100
AcDbEntity
  8
DIBUJOS
 62
     7
100
AcDbVertex
100
AcDb2dVertex
 10
68.4838224464348
 20
45.26506104638947
 30
0.0
  0
VERTEX
  5
1E4
330
1CC
100
AcDbEntity
  8
DIBUJOS
 62
     7
100
AcDbVertex
100
AcDb2dVertex
 10
68.45591487498632
 20
45.28180058248695
 30
0.0
  0
SEQEND
  5
1E5
330
1CC
100
AcDbEntity
  8
DIBUJOS
 62
     7
  0
POLYLINE
  5
1E6
330
52
100
AcDbEntity
  8
DIBUJOS
 62
     7
100
AcDb2dPolyline
 66
     1
 10
0.0
 20
0.0
 30
0.0
  0
VERTEX
  5
1E7
330
1E6
100
AcDbEntity
  8
DIBUJOS
 62
     7
100
AcDbVertex
100
AcDb2dVertex
 10
62.01480096475277
 20
42.60898957244951
 30
0.0
  0
VERTEX
  5
1E8
330
1E6
100
AcDbEntity
  8
DIBUJOS
 62
     7
100
AcDbVertex
100
AcDb2dVertex
 10
62.00866120889847
 20
42.61345304825068
 30
0.0
  0
VERTEX
  5
1E9
330
1E6
100
AcDbEntity
  8
DIBUJOS
 62
     7
100
AcDbVertex
100
AcDb2dVertex
 10
61.96438270781364
 20
42.62315194687937
 30
0.0
  0
VERTEX
  5
1EA
330
1E6
100
AcDbEntity
  8
DIBUJOS
 62
     7
100
AcDbVertex
100
AcDb2dVertex
 10
61.89219062622188
 20
42.62830627021366
 30
0.0
  0
VERTEX
  5
1EB
330
1E6
100
AcDbEntity
  8
DIBUJOS
 62
     7
100
AcDbVertex
100
AcDb2dVertex
 10
61.80319421162584
 20
42.64443906195569
 30
0.0
  0
VERTEX
  5
1EC
330
1E6
100
AcDbEntity
  8
DIBUJOS
 62
     7
100
AcDbVertex
100
AcDb2dVertex
 10
61.7630732281154
 20
42.65809381363348
 30
0.0
  0
VERTEX
  5
1ED
330
1E6
100
AcDbEntity
  8
DIBUJOS
 62
     7
100
AcDbVertex
100
AcDb2dVertex
 10
61.66416787551689
 20
42.71076643251051
 30
0.0
  0
VERTEX
  5
1EE
330
1E6
100
AcDbEntity
  8
DIBUJOS
 62
     7
100
AcDbVertex
100
AcDb2dVertex
 10
61.62881508018437
 20
42.73603943748446
 30
0.0
  0
VERTEX
  5
1EF
330
1E6
100
AcDbEntity
  8
DIBUJOS
 62
     7
100
AcDbVertex
100
AcDb2dVertex
 10
61.45106411560994
 20
42.8824090039696
 30
0.0
  0
VERTEX
  5
1F0
330
1E6
100
AcDbEntity
  8
DIBUJOS
 62
     7
100
AcDbVertex
100
AcDb2dVertex
 10
61.45106411560994
 20
42.88798684687892
 30
0.0
  0
VERTEX
  5
1F1
330
1E6
100
AcDbEntity
  8
DIBUJOS
 62
     7
100
AcDbVertex
100
AcDb2dVertex
 10
61.43990078657788
 20
42.89356769347268
 30
0.0
  0
VERTEX
  5
1F2
330
1E6
100
AcDbEntity
  8
DIBUJOS
 62
     7
100
AcDbVertex
100
AcDb2dVertex
 10
61.2822448658466
 20
43.05982465785808
 30
0.0
  0
VERTEX
  5
1F3
330
1E6
100
AcDbEntity
  8
DIBUJOS
 62
     7
100
AcDbVertex
100
AcDb2dVertex
 10
61.22917436056864
 20
43.12349076356761
 30
0.0
  0
VERTEX
  5
1F4
330
1E6
100
AcDbEntity
  8
DIBUJOS
 62
     7
100
AcDbVertex
100
AcDb2dVertex
 10
61.14837204881289
 20
43.22750837258395
 30
0.0
  0
VERTEX
  5
1F5
330
1E6
100
AcDbEntity
  8
DIBUJOS
 62
     7
100
AcDbVertex
100
AcDb2dVertex
 10
61.12309193833595
 20
43.2628527331182
 30
0.0
  0
VERTEX
  5
1F6
330
1E6
100
AcDbEntity
  8
DIBUJOS
 62
     7
100
AcDbVertex
100
AcDb2dVertex
 10
61.02798205751752
 20
43.41306401262431
 30
0.0
  0
VERTEX
  5
1F7
330
1E6
100
AcDbEntity
  8
DIBUJOS
 62
     7
100
AcDbVertex
100
AcDb2dVertex
 10
60.97791983731391
 20
43.50264591188224
 30
0.0
  0
VERTEX
  5
1F8
330
1E6
100
AcDbEntity
  8
DIBUJOS
 62
     7
100
AcDbVertex
100
AcDb2dVertex
 10
60.87169845559573
 20
43.7311242095272
 30
0.0
  0
VERTEX
  5
1F9
330
1E6
100
AcDbEntity
  8
DIBUJOS
 62
     7
100
AcDbVertex
100
AcDb2dVertex
 10
60.86388442572612
 20
43.74674937851653
 30
0.0
  0
VERTEX
  5
1FA
330
1E6
100
AcDbEntity
  8
DIBUJOS
 62
     7
100
AcDbVertex
100
AcDb2dVertex
 10
60.7681443448635
 20
44.02581273401443
 30
0.0
  0
VERTEX
  5
1FB
330
1E6
100
AcDbEntity
  8
DIBUJOS
 62
     7
100
AcDbVertex
100
AcDb2dVertex
 10
60.76285862649467
 20
44.04248618904342
 30
0.0
  0
VERTEX
  5
1FC
330
1E6
100
AcDbEntity
  8
DIBUJOS
 62
     7
100
AcDbVertex
100
AcDb2dVertex
 10
60.69970116484647
 20
44.28899260361919
 30
0.0
  0
VERTEX
  5
1FD
330
1E6
100
AcDbEntity
  8
DIBUJOS
 62
     7
100
AcDbVertex
100
AcDb2dVertex
 10
60.69000254390276
 20
44.33271123772948
 30
0.0
  0
VERTEX
  5
1FE
330
1E6
100
AcDbEntity
  8
DIBUJOS
 62
     7
100
AcDbVertex
100
AcDb2dVertex
 10
60.66166081795487
 20
44.50588268481621
 30
0.0
  0
VERTEX
  5
1FF
330
1E6
100
AcDbEntity
  8
DIBUJOS
 62
     7
100
AcDbVertex
100
AcDb2dVertex
 10
60.65613924402622
 20
44.54490956307068
 30
0.0
  0
VERTEX
  5
200
330
1E6
100
AcDbEntity
  8
DIBUJOS
 62
     7
100
AcDbVertex
100
AcDb2dVertex
 10
60.63057520551983
 20
44.82424325021174
 30
0.0
  0
VERTEX
  5
201
330
1E6
100
AcDbEntity
  8
DIBUJOS
 62
     7
100
AcDbVertex
100
AcDb2dVertex
 10
60.63057520551983
 20
45.13114175392679
 30
0.0
  0
VERTEX
  5
202
330
1E6
100
AcDbEntity
  8
DIBUJOS
 62
     7
100
AcDbVertex
100
AcDb2dVertex
 10
60.63860781490441
 20
45.18109003057511
 30
0.0
  0
VERTEX
  5
203
330
1E6
100
AcDbEntity
  8
DIBUJOS
 62
     7
100
AcDbVertex
100
AcDb2dVertex
 10
60.66406519261631
 20
45.27064189298387
 30
0.0
  0
VERTEX
  5
204
330
1E6
100
AcDbEntity
  8
DIBUJOS
 62
     7
100
AcDbVertex
100
AcDb2dVertex
 10
60.68080943503273
 20
45.28180058248695
 30
0.0
  0
SEQEND
  5
205
330
1E6
100
AcDbEntity
  8
DIBUJOS
 62
     7
  0
POLYLINE
  5
206
330
52
100
AcDbEntity
  8
DIBUJOS
 62
     7
100
AcDb2dPolyline
 66
     1
 10
0.0
 20
0.0
 30
0.0
  0
VERTEX
  5
207
330
206
100
AcDbEntity
  8
DIBUJOS
 62
     7
100
AcDbVertex
100
AcDb2dVertex
 10
62.01480096475277
 20
42.60898957244951
 30
0.0
  0
VERTEX
  5
208
330
206
100
AcDbEntity
  8
DIBUJOS
 62
     7
100
AcDbVertex
100
AcDb2dVertex
 10
67.11634243188288
 20
42.61457041904327
 30
0.0
  0
SEQEND
  5
209
330
206
100
AcDbEntity
  8
DIBUJOS
 62
     7
  0
POLYLINE
  5
20A
330
52
100
AcDbEntity
  8
DIBUJOS
 62
     7
100
AcDb2dPolyline
 66
     1
 10
0.0
 20
0.0
 30
0.0
  0
VERTEX
  5
20B
330
20A
100
AcDbEntity
  8
DIBUJOS
 62
     7
100
AcDbVertex
100
AcDb2dVertex
 10
67.12192334526661
 20
42.60898957244951
 30
0.0
  0
VERTEX
  5
20C
330
20A
100
AcDbEntity
  8
DIBUJOS
 62
     7
100
AcDbVertex
100
AcDb2dVertex
 10
67.12192334526661
 20
42.61457041904327
 30
0.0
  0
SEQEND
  5
20D
330
20A
100
AcDbEntity
  8
DIBUJOS
 62
     7
  0
POLYLINE
  5
20E
330
52
100
AcDbEntity
  8
DIBUJOS
 62
     7
100
AcDb2dPolyline
 66
     1
 10
0.0
 20
0.0
 30
0.0
  0
VERTEX
  5
20F
330
20E
100
AcDbEntity
  8
DIBUJOS
 62
     7
100
AcDbVertex
100
AcDb2dVertex
 10
62.01480096475277
 20
42.60898957244951
 30
0.0
  0
VERTEX
  5
210
330
20E
100
AcDbEntity
  8
DIBUJOS
 62
     7
100
AcDbVertex
100
AcDb2dVertex
 10
61.99247505782049
 20
42.59225003635203
 30
0.0
  0
VERTEX
  5
211
330
20E
100
AcDbEntity
  8
DIBUJOS
 62
     7
100
AcDbVertex
100
AcDb2dVertex
 10
61.99247505782049
 20
42.09004893500926
 30
0.0
  0
VERTEX
  5
212
330
20E
100
AcDbEntity
  8
DIBUJOS
 62
     7
100
AcDbVertex
100
AcDb2dVertex
 10
62.00363763572071
 20
42.06773155600277
 30
0.0
  0
VERTEX
  5
213
330
20E
100
AcDbEntity
  8
DIBUJOS
 62
     7
100
AcDbVertex
100
AcDb2dVertex
 10
62.02596429378515
 20
42.06215070940869
 30
0.0
  0
VERTEX
  5
214
330
20E
100
AcDbEntity
  8
DIBUJOS
 62
     7
100
AcDbVertex
100
AcDb2dVertex
 10
67.13866758768238
 20
42.06215070940869
 30
0.0
  0
VERTEX
  5
215
330
20E
100
AcDbEntity
  8
DIBUJOS
 62
     7
100
AcDbVertex
100
AcDb2dVertex
 10
67.14983091671476
 20
42.06773155600277
 30
0.0
  0
VERTEX
  5
216
330
20E
100
AcDbEntity
  8
DIBUJOS
 62
     7
100
AcDbVertex
100
AcDb2dVertex
 10
67.1582420968054
 20
42.08450713631893
 30
0.0
  0
VERTEX
  5
217
330
20E
100
AcDbEntity
  8
DIBUJOS
 62
     7
100
AcDbVertex
100
AcDb2dVertex
 10
67.16657666139547
 20
42.50296850558675
 30
0.0
  0
VERTEX
  5
218
330
20E
100
AcDbEntity
  8
DIBUJOS
 62
     7
100
AcDbVertex
100
AcDb2dVertex
 10
67.1609942457468
 20
42.59225003635203
 30
0.0
  0
VERTEX
  5
219
330
20E
100
AcDbEntity
  8
DIBUJOS
 62
     7
100
AcDbVertex
100
AcDb2dVertex
 10
67.12192334526661
 20
42.60898957244951
 30
0.0
  0
SEQEND
  5
21A
330
20E
100
AcDbEntity
  8
DIBUJOS
 62
     7
  0
ENDBLK
  5
55
330
52
100
AcDbEntity
  8
0
100
AcDbBlockEnd
  0
BLOCK
  5
21D
330
21B
100
AcDbEntity
  8
0
100
AcDbBlockBegin
  2
BLOCK_3
 70
     0
 10
0.0
 20
0.0
 30
0.0
  3
BLOCK_3
  1

  0
POLYLINE
  5
21F
330
21B
100
AcDbEntity
  8
DIBUJOS
 62
     7
100
AcDb2dPolyline
 66
     1
 10
0.0
 20
0.0
 30
0.0
  0
VERTEX
  5
220
330
21F
100
AcDbEntity
  8
DIBUJOS
 62
     7
100
AcDbVertex
100
AcDb2dVertex
 10
79.69704892409608
 20
48.69675305319358
 30
0.0
  0
VERTEX
  5
221
330
21F
100
AcDbEntity
  8
DIBUJOS
 62
     7
100
AcDbVertex
100
AcDb2dVertex
 10
79.67929816432682
 20
48.71215294581366
 30
0.0
  0
VERTEX
  5
222
330
21F
100
AcDbEntity
  8
DIBUJOS
 62
     7
100
AcDbVertex
100
AcDb2dVertex
 10
79.64067493872919
 20
48.72353691168598
 30
0.0
  0
VERTEX
  5
223
330
21F
100
AcDbEntity
  8
DIBUJOS
 62
     7
100
AcDbVertex
100
AcDb2dVertex
 10
79.63565136555111
 20
48.72465428247857
 30
0.0
  0
SEQEND
  5
224
330
21F
100
AcDbEntity
  8
DIBUJOS
 62
     7
  0
POLYLINE
  5
225
330
21B
100
AcDbEntity
  8
DIBUJOS
 62
     7
100
AcDb2dPolyline
 66
     1
 10
0.0
 20
0.0
 30
0.0
  0
VERTEX
  5
226
330
225
100
AcDbEntity
  8
DIBUJOS
 62
     7
100
AcDbVertex
100
AcDb2dVertex
 10
80.21055004146139
 20
46.21366079050438
 30
0.0
  0
VERTEX
  5
227
330
225
100
AcDbEntity
  8
DIBUJOS
 62
     7
100
AcDbVertex
100
AcDb2dVertex
 10
80.21055004146139
 20
46.2192386334137
 30
0.0
  0
SEQEND
  5
228
330
225
100
AcDbEntity
  8
DIBUJOS
 62
     7
  0
POLYLINE
  5
229
330
21B
100
AcDbEntity
  8
DIBUJOS
 62
     7
100
AcDb2dPolyline
 66
     1
 10
0.0
 20
0.0
 30
0.0
  0
VERTEX
  5
22A
330
229
100
AcDbEntity
  8
DIBUJOS
 62
     7
100
AcDbVertex
100
AcDb2dVertex
 10
80.21613245711005
 20
46.21366079050438
 30
0.0
  0
VERTEX
  5
22B
330
229
100
AcDbEntity
  8
DIBUJOS
 62
     7
100
AcDbVertex
100
AcDb2dVertex
 10
80.21055004146139
 20
46.21366079050438
 30
0.0
  0
SEQEND
  5
22C
330
229
100
AcDbEntity
  8
DIBUJOS
 62
     7
  0
POLYLINE
  5
22D
330
21B
100
AcDbEntity
  8
DIBUJOS
 62
     7
100
AcDb2dPolyline
 66
     1
 10
0.0
 20
0.0
 30
0.0
  0
VERTEX
  5
22E
330
22D
100
AcDbEntity
  8
DIBUJOS
 62
     7
100
AcDbVertex
100
AcDb2dVertex
 10
80.21055004146139
 20
46.2080799439103
 30
0.0
  0
VERTEX
  5
22F
330
22D
100
AcDbEntity
  8
DIBUJOS
 62
     7
100
AcDbVertex
100
AcDb2dVertex
 10
80.21055004146139
 20
46.21366079050438
 30
0.0
  0
SEQEND
  5
230
330
22D
100
AcDbEntity
  8
DIBUJOS
 62
     7
  0
POLYLINE
  5
231
330
21B
100
AcDbEntity
  8
DIBUJOS
 62
     7
100
AcDb2dPolyline
 66
     1
 10
0.0
 20
0.0
 30
0.0
  0
VERTEX
  5
232
330
231
100
AcDbEntity
  8
DIBUJOS
 62
     7
100
AcDbVertex
100
AcDb2dVertex
 10
80.41148695951236
 20
46.00162166046425
 30
0.0
  0
VERTEX
  5
233
330
231
100
AcDbEntity
  8
DIBUJOS
 62
     7
100
AcDbVertex
100
AcDb2dVertex
 10
80.36784016073665
 20
46.03085952954189
 30
0.0
  0
VERTEX
  5
234
330
231
100
AcDbEntity
  8
DIBUJOS
 62
     7
100
AcDbVertex
100
AcDb2dVertex
 10
80.30488024689718
 20
46.07248459525857
 30
0.0
  0
VERTEX
  5
235
330
231
100
AcDbEntity
  8
DIBUJOS
 62
     7
100
AcDbVertex
100
AcDb2dVertex
 10
80.26078577323891
 20
46.09090018754446
 30
0.0
  0
SEQEND
  5
236
330
231
100
AcDbEntity
  8
DIBUJOS
 62
     7
  0
POLYLINE
  5
237
330
21B
100
AcDbEntity
  8
DIBUJOS
 62
     7
100
AcDb2dPolyline
 66
     1
 10
0.0
 20
0.0
 30
0.0
  0
VERTEX
  5
238
330
237
100
AcDbEntity
  8
DIBUJOS
 62
     7
100
AcDbVertex
100
AcDb2dVertex
 10
80.44497544434455
 20
45.97930127777301
 30
0.0
  0
VERTEX
  5
239
330
237
100
AcDbEntity
  8
DIBUJOS
 62
     7
100
AcDbVertex
100
AcDb2dVertex
 10
80.42264878628045
 20
45.99045996727641
 30
0.0
  0
SEQEND
  5
23A
330
237
100
AcDbEntity
  8
DIBUJOS
 62
     7
  0
POLYLINE
  5
23B
330
21B
100
AcDbEntity
  8
DIBUJOS
 62
     7
100
AcDb2dPolyline
 66
     1
 10
0.0
 20
0.0
 30
0.0
  0
VERTEX
  5
23C
330
23B
100
AcDbEntity
  8
DIBUJOS
 62
     7
100
AcDbVertex
100
AcDb2dVertex
 10
80.50637300288952
 20
45.94581920189361
 30
0.0
  0
VERTEX
  5
23D
330
23B
100
AcDbEntity
  8
DIBUJOS
 62
     7
100
AcDbVertex
100
AcDb2dVertex
 10
80.45614027564123
 20
45.97372043117861
 30
0.0
  0
SEQEND
  5
23E
330
23B
100
AcDbEntity
  8
DIBUJOS
 62
     7
  0
POLYLINE
  5
23F
330
21B
100
AcDbEntity
  8
DIBUJOS
 62
     7
100
AcDb2dPolyline
 66
     1
 10
0.0
 20
0.0
 30
0.0
  0
VERTEX
  5
240
330
23F
100
AcDbEntity
  8
DIBUJOS
 62
     7
100
AcDbVertex
100
AcDb2dVertex
 10
80.55102631901838
 20
45.92350182288713
 30
0.0
  0
VERTEX
  5
241
330
23F
100
AcDbEntity
  8
DIBUJOS
 62
     7
100
AcDbVertex
100
AcDb2dVertex
 10
80.51753783418619
 20
45.94024135898429
 30
0.0
  0
SEQEND
  5
242
330
23F
100
AcDbEntity
  8
DIBUJOS
 62
     7
  0
POLYLINE
  5
243
330
21B
100
AcDbEntity
  8
DIBUJOS
 62
     7
100
AcDb2dPolyline
 66
     1
 10
0.0
 20
0.0
 30
0.0
  0
VERTEX
  5
244
330
243
100
AcDbEntity
  8
DIBUJOS
 62
     7
100
AcDbVertex
100
AcDb2dVertex
 10
80.59567963514723
 20
45.90118144019589
 30
0.0
  0
VERTEX
  5
245
330
243
100
AcDbEntity
  8
DIBUJOS
 62
     7
100
AcDbVertex
100
AcDb2dVertex
 10
80.56218814578581
 20
45.91792097629305
 30
0.0
  0
SEQEND
  5
246
330
243
100
AcDbEntity
  8
DIBUJOS
 62
     7
  0
POLYLINE
  5
247
330
21B
100
AcDbEntity
  8
DIBUJOS
 62
     7
100
AcDb2dPolyline
 66
     1
 10
0.0
 20
0.0
 30
0.0
  0
VERTEX
  5
248
330
247
100
AcDbEntity
  8
DIBUJOS
 62
     7
100
AcDbVertex
100
AcDb2dVertex
 10
80.61242387756333
 20
45.90118144019589
 30
0.0
  0
VERTEX
  5
249
330
247
100
AcDbEntity
  8
DIBUJOS
 62
     7
100
AcDbVertex
100
AcDb2dVertex
 10
80.60684146191468
 20
45.90118144019589
 30
0.0
  0
SEQEND
  5
24A
330
247
100
AcDbEntity
  8
DIBUJOS
 62
     7
  0
POLYLINE
  5
24B
330
21B
100
AcDbEntity
  8
DIBUJOS
 62
     7
100
AcDb2dPolyline
 66
     1
 10
0.0
 20
0.0
 30
0.0
  0
VERTEX
  5
24C
330
24B
100
AcDbEntity
  8
DIBUJOS
 62
     7
100
AcDbVertex
100
AcDb2dVertex
 10
80.71289233658914
 20
45.86212152140717
 30
0.0
  0
VERTEX
  5
24D
330
24B
100
AcDbEntity
  8
DIBUJOS
 62
     7
100
AcDbVertex
100
AcDb2dVertex
 10
80.70172750529183
 20
45.86769936431617
 30
0.0
  0
SEQEND
  5
24E
330
24B
100
AcDbEntity
  8
DIBUJOS
 62
     7
  0
POLYLINE
  5
24F
330
21B
100
AcDbEntity
  8
DIBUJOS
 62
     7
100
AcDb2dPolyline
 66
     1
 10
0.0
 20
0.0
 30
0.0
  0
VERTEX
  5
250
330
24F
100
AcDbEntity
  8
DIBUJOS
 62
     7
100
AcDbVertex
100
AcDb2dVertex
 10
80.73521599012402
 20
45.85654067481309
 30
0.0
  0
VERTEX
  5
251
330
24F
100
AcDbEntity
  8
DIBUJOS
 62
     7
100
AcDbVertex
100
AcDb2dVertex
 10
80.72405416335594
 20
45.85654067481309
 30
0.0
  0
SEQEND
  5
252
330
24F
100
AcDbEntity
  8
DIBUJOS
 62
     7
  0
POLYLINE
  5
253
330
21B
100
AcDbEntity
  8
DIBUJOS
 62
     7
100
AcDb2dPolyline
 66
     1
 10
0.0
 20
0.0
 30
0.0
  0
VERTEX
  5
254
330
253
100
AcDbEntity
  8
DIBUJOS
 62
     7
100
AcDbVertex
100
AcDb2dVertex
 10
83.29156876377085
 20
45.79516037333313
 30
0.0
  0
VERTEX
  5
255
330
253
100
AcDbEntity
  8
DIBUJOS
 62
     7
100
AcDbVertex
100
AcDb2dVertex
 10
83.2859863481222
 20
45.81748075602437
 30
0.0
  0
VERTEX
  5
256
330
253
100
AcDbEntity
  8
DIBUJOS
 62
     7
100
AcDbVertex
100
AcDb2dVertex
 10
83.22514763204846
 20
45.85765504192092
 30
0.0
  0
VERTEX
  5
257
330
253
100
AcDbEntity
  8
DIBUJOS
 62
     7
100
AcDbVertex
100
AcDb2dVertex
 10
83.21398580528103
 20
45.863235888515
 30
0.0
  0
VERTEX
  5
258
330
253
100
AcDbEntity
  8
DIBUJOS
 62
     7
100
AcDbVertex
100
AcDb2dVertex
 10
83.01304888723006
 20
45.95251741928028
 30
0.0
  0
VERTEX
  5
259
330
253
100
AcDbEntity
  8
DIBUJOS
 62
     7
100
AcDbVertex
100
AcDb2dVertex
 10
82.91146574779232
 20
45.98878691477181
 30
0.0
  0
VERTEX
  5
25A
330
253
100
AcDbEntity
  8
DIBUJOS
 62
     7
100
AcDbVertex
100
AcDb2dVertex
 10
82.66600470837717
 20
46.06085432722146
 30
0.0
  0
VERTEX
  5
25B
330
253
100
AcDbEntity
  8
DIBUJOS
 62
     7
100
AcDbVertex
100
AcDb2dVertex
 10
82.64453734572484
 20
46.06514659298189
 30
0.0
  0
VERTEX
  5
25C
330
253
100
AcDbEntity
  8
DIBUJOS
 62
     7
100
AcDbVertex
100
AcDb2dVertex
 10
82.3535336494748
 20
46.11645553890219
 30
0.0
  0
VERTEX
  5
25D
330
253
100
AcDbEntity
  8
DIBUJOS
 62
     7
100
AcDbVertex
100
AcDb2dVertex
 10
82.32071217017261
 20
46.12114429107292
 30
0.0
  0
VERTEX
  5
25E
330
253
100
AcDbEntity
  8
DIBUJOS
 62
     7
100
AcDbVertex
100
AcDb2dVertex
 10
81.84580723764057
 20
46.16080494684694
 30
0.0
  0
VERTEX
  5
25F
330
253
100
AcDbEntity
  8
DIBUJOS
 62
     7
100
AcDbVertex
100
AcDb2dVertex
 10
81.62280505558346
 20
46.17167828628212
 30
0.0
  0
VERTEX
  5
260
330
253
100
AcDbEntity
  8
DIBUJOS
 62
     7
100
AcDbVertex
100
AcDb2dVertex
 10
80.5342279950729
 20
46.21092443353633
 30
0.0
  0
VERTEX
  5
261
330
253
100
AcDbEntity
  8
DIBUJOS
 62
     7
100
AcDbVertex
100
AcDb2dVertex
 10
80.22171487275871
 20
46.2192386334137
 30
0.0
  0
VERTEX
  5
262
330
253
100
AcDbEntity
  8
DIBUJOS
 62
     7
100
AcDbVertex
100
AcDb2dVertex
 10
80.21613245711005
 20
46.21366079050438
 30
0.0
  0
SEQEND
  5
263
330
253
100
AcDbEntity
  8
DIBUJOS
 62
     7
  0
POLYLINE
  5
264
330
21B
100
AcDbEntity
  8
DIBUJOS
 62
     7
100
AcDb2dPolyline
 66
     1
 10
0.0
 20
0.0
 30
0.0
  0
VERTEX
  5
265
330
264
100
AcDbEntity
  8
DIBUJOS
 62
     7
100
AcDbVertex
100
AcDb2dVertex
 10
83.29156876377085
 20
45.78957952673873
 30
0.0
  0
VERTEX
  5
266
330
264
100
AcDbEntity
  8
DIBUJOS
 62
     7
100
AcDbVertex
100
AcDb2dVertex
 10
83.2859863481222
 20
45.78957952673873
 30
0.0
  0
SEQEND
  5
267
330
264
100
AcDbEntity
  8
DIBUJOS
 62
     7
  0
POLYLINE
  5
268
330
21B
100
AcDbEntity
  8
DIBUJOS
 62
     7
100
AcDb2dPolyline
 66
     1
 10
0.0
 20
0.0
 30
0.0
  0
VERTEX
  5
269
330
268
100
AcDbEntity
  8
DIBUJOS
 62
     7
100
AcDbVertex
100
AcDb2dVertex
 10
83.29156876377085
 20
45.78957952673873
 30
0.0
  0
VERTEX
  5
26A
330
268
100
AcDbEntity
  8
DIBUJOS
 62
     7
100
AcDbVertex
100
AcDb2dVertex
 10
83.29156876377085
 20
45.79516037333313
 30
0.0
  0
SEQEND
  5
26B
330
268
100
AcDbEntity
  8
DIBUJOS
 62
     7
  0
POLYLINE
  5
26C
330
21B
100
AcDbEntity
  8
DIBUJOS
 62
     7
100
AcDb2dPolyline
 66
     1
 10
0.0
 20
0.0
 30
0.0
  0
VERTEX
  5
26D
330
26C
100
AcDbEntity
  8
DIBUJOS
 62
     7
100
AcDbVertex
100
AcDb2dVertex
 10
80.74638082142069
 20
45.85654067481309
 30
0.0
  0
VERTEX
  5
26E
330
26C
100
AcDbEntity
  8
DIBUJOS
 62
     7
100
AcDbVertex
100
AcDb2dVertex
 10
80.7525190750107
 20
45.85263588440806
 30
0.0
  0
VERTEX
  5
26F
330
26C
100
AcDbEntity
  8
DIBUJOS
 62
     7
100
AcDbVertex
100
AcDb2dVertex
 10
80.93087094546753
 20
45.81430586105685
 30
0.0
  0
VERTEX
  5
270
330
26C
100
AcDbEntity
  8
DIBUJOS
 62
     7
100
AcDbVertex
100
AcDb2dVertex
 10
80.96934094006534
 20
45.8094969614888
 30
0.0
  0
VERTEX
  5
271
330
26C
100
AcDbEntity
  8
DIBUJOS
 62
     7
100
AcDbVertex
100
AcDb2dVertex
 10
81.27104677008332
 20
45.78400168383037
 30
0.0
  0
VERTEX
  5
272
330
26C
100
AcDbEntity
  8
DIBUJOS
 62
     7
100
AcDbVertex
100
AcDb2dVertex
 10
82.83388278930184
 20
45.78400168383037
 30
0.0
  0
VERTEX
  5
273
330
26C
100
AcDbEntity
  8
DIBUJOS
 62
     7
100
AcDbVertex
100
AcDb2dVertex
 10
83.05714336088833
 20
45.78957952673873
 30
0.0
  0
SEQEND
  5
274
330
26C
100
AcDbEntity
  8
DIBUJOS
 62
     7
  0
POLYLINE
  5
275
330
21B
100
AcDbEntity
  8
DIBUJOS
 62
     7
100
AcDb2dPolyline
 66
     1
 10
0.0
 20
0.0
 30
0.0
  0
VERTEX
  5
276
330
275
100
AcDbEntity
  8
DIBUJOS
 62
     7
100
AcDbVertex
100
AcDb2dVertex
 10
83.068308192185
 20
45.78957952673873
 30
0.0
  0
VERTEX
  5
277
330
275
100
AcDbEntity
  8
DIBUJOS
 62
     7
100
AcDbVertex
100
AcDb2dVertex
 10
83.07388760330443
 20
45.78679210712725
 30
0.0
  0
VERTEX
  5
278
330
275
100
AcDbEntity
  8
DIBUJOS
 62
     7
100
AcDbVertex
100
AcDb2dVertex
 10
83.28040693700406
 20
45.78400168383037
 30
0.0
  0
VERTEX
  5
279
330
275
100
AcDbEntity
  8
DIBUJOS
 62
     7
100
AcDbVertex
100
AcDb2dVertex
 10
83.2859863481222
 20
45.78957952673873
 30
0.0
  0
SEQEND
  5
27A
330
275
100
AcDbEntity
  8
DIBUJOS
 62
     7
  0
POLYLINE
  5
27B
330
21B
100
AcDbEntity
  8
DIBUJOS
 62
     7
100
AcDb2dPolyline
 66
     1
 10
0.0
 20
0.0
 30
0.0
  0
VERTEX
  5
27C
330
27B
100
AcDbEntity
  8
DIBUJOS
 62
     7
100
AcDbVertex
100
AcDb2dVertex
 10
80.2552033575909
 20
45.41014203204096
 30
0.0
  0
VERTEX
  5
27D
330
27B
100
AcDbEntity
  8
DIBUJOS
 62
     7
100
AcDbVertex
100
AcDb2dVertex
 10
80.25772115323839
 20
45.46571320687251
 30
0.0
  0
VERTEX
  5
27E
330
27B
100
AcDbEntity
  8
DIBUJOS
 62
     7
100
AcDbVertex
100
AcDb2dVertex
 10
80.25248125394276
 20
45.71139360809344
 30
0.0
  0
VERTEX
  5
27F
330
27B
100
AcDbEntity
  8
DIBUJOS
 62
     7
100
AcDbVertex
100
AcDb2dVertex
 10
80.22416356423001
 20
46.09675136578201
 30
0.0
  0
VERTEX
  5
280
330
27B
100
AcDbEntity
  8
DIBUJOS
 62
     7
100
AcDbVertex
100
AcDb2dVertex
 10
80.21055004146139
 20
46.2080799439103
 30
0.0
  0
SEQEND
  5
281
330
27B
100
AcDbEntity
  8
DIBUJOS
 62
     7
  0
POLYLINE
  5
282
330
21B
100
AcDbEntity
  8
DIBUJOS
 62
     7
100
AcDb2dPolyline
 66
     1
 10
0.0
 20
0.0
 30
0.0
  0
VERTEX
  5
283
330
282
100
AcDbEntity
  8
DIBUJOS
 62
     7
100
AcDbVertex
100
AcDb2dVertex
 10
80.2552033575909
 20
45.40456118544687
 30
0.0
  0
VERTEX
  5
284
330
282
100
AcDbEntity
  8
DIBUJOS
 62
     7
100
AcDbVertex
100
AcDb2dVertex
 10
80.2552033575909
 20
45.41014203204096
 30
0.0
  0
SEQEND
  5
285
330
282
100
AcDbEntity
  8
DIBUJOS
 62
     7
  0
POLYLINE
  5
286
330
21B
100
AcDbEntity
  8
DIBUJOS
 62
     7
100
AcDb2dPolyline
 66
     1
 10
0.0
 20
0.0
 30
0.0
  0
VERTEX
  5
287
330
286
100
AcDbEntity
  8
DIBUJOS
 62
     7
100
AcDbVertex
100
AcDb2dVertex
 10
80.26078577323891
 20
45.40456118544687
 30
0.0
  0
VERTEX
  5
288
330
286
100
AcDbEntity
  8
DIBUJOS
 62
     7
100
AcDbVertex
100
AcDb2dVertex
 10
80.2552033575909
 20
45.40456118544687
 30
0.0
  0
SEQEND
  5
289
330
286
100
AcDbEntity
  8
DIBUJOS
 62
     7
  0
POLYLINE
  5
28A
330
21B
100
AcDbEntity
  8
DIBUJOS
 62
     7
100
AcDb2dPolyline
 66
     1
 10
0.0
 20
0.0
 30
0.0
  0
VERTEX
  5
28B
330
28A
100
AcDbEntity
  8
DIBUJOS
 62
     7
100
AcDbVertex
100
AcDb2dVertex
 10
80.2552033575909
 20
45.39898033885279
 30
0.0
  0
VERTEX
  5
28C
330
28A
100
AcDbEntity
  8
DIBUJOS
 62
     7
100
AcDbVertex
100
AcDb2dVertex
 10
80.2552033575909
 20
45.40456118544687
 30
0.0
  0
SEQEND
  5
28D
330
28A
100
AcDbEntity
  8
DIBUJOS
 62
     7
  0
POLYLINE
  5
28E
330
21B
100
AcDbEntity
  8
DIBUJOS
 62
     7
100
AcDb2dPolyline
 66
     1
 10
0.0
 20
0.0
 30
0.0
  0
VERTEX
  5
28F
330
28E
100
AcDbEntity
  8
DIBUJOS
 62
     7
100
AcDbVertex
100
AcDb2dVertex
 10
80.2663651843577
 20
45.39898033885279
 30
0.0
  0
VERTEX
  5
290
330
28E
100
AcDbEntity
  8
DIBUJOS
 62
     7
100
AcDbVertex
100
AcDb2dVertex
 10
80.26078577323891
 20
45.40456118544687
 30
0.0
  0
SEQEND
  5
291
330
28E
100
AcDbEntity
  8
DIBUJOS
 62
     7
  0
POLYLINE
  5
292
330
21B
100
AcDbEntity
  8
DIBUJOS
 62
     7
100
AcDb2dPolyline
 66
     1
 10
0.0
 20
0.0
 30
0.0
  0
VERTEX
  5
293
330
292
100
AcDbEntity
  8
DIBUJOS
 62
     7
100
AcDbVertex
100
AcDb2dVertex
 10
80.29985667371976
 20
45.39898033885279
 30
0.0
  0
VERTEX
  5
294
330
292
100
AcDbEntity
  8
DIBUJOS
 62
     7
100
AcDbVertex
100
AcDb2dVertex
 10
80.277530015655
 20
45.39898033885279
 30
0.0
  0
SEQEND
  5
295
330
292
100
AcDbEntity
  8
DIBUJOS
 62
     7
  0
POLYLINE
  5
296
330
21B
100
AcDbEntity
  8
DIBUJOS
 62
     7
100
AcDb2dPolyline
 66
     1
 10
0.0
 20
0.0
 30
0.0
  0
VERTEX
  5
297
330
296
100
AcDbEntity
  8
DIBUJOS
 62
     7
100
AcDbVertex
100
AcDb2dVertex
 10
80.34450698531938
 20
45.39898033885279
 30
0.0
  0
VERTEX
  5
298
330
296
100
AcDbEntity
  8
DIBUJOS
 62
     7
100
AcDbVertex
100
AcDb2dVertex
 10
80.32218333178388
 20
45.39898033885279
 30
0.0
  0
SEQEND
  5
299
330
296
100
AcDbEntity
  8
DIBUJOS
 62
     7
  0
POLYLINE
  5
29A
330
21B
100
AcDbEntity
  8
DIBUJOS
 62
     7
100
AcDb2dPolyline
 66
     1
 10
0.0
 20
0.0
 30
0.0
  0
VERTEX
  5
29B
330
29A
100
AcDbEntity
  8
DIBUJOS
 62
     7
100
AcDbVertex
100
AcDb2dVertex
 10
80.45614027564123
 20
45.39898033885279
 30
0.0
  0
VERTEX
  5
29C
330
29A
100
AcDbEntity
  8
DIBUJOS
 62
     7
100
AcDbVertex
100
AcDb2dVertex
 10
80.43939603322514
 20
45.39898033885279
 30
0.0
  0
SEQEND
  5
29D
330
29A
100
AcDbEntity
  8
DIBUJOS
 62
     7
  0
POLYLINE
  5
29E
330
21B
100
AcDbEntity
  8
DIBUJOS
 62
     7
100
AcDb2dPolyline
 66
     1
 10
0.0
 20
0.0
 30
0.0
  0
VERTEX
  5
29F
330
29E
100
AcDbEntity
  8
DIBUJOS
 62
     7
100
AcDbVertex
100
AcDb2dVertex
 10
82.04688236404392
 20
45.39898033885279
 30
0.0
  0
VERTEX
  5
2A0
330
29E
100
AcDbEntity
  8
DIBUJOS
 62
     7
100
AcDbVertex
100
AcDb2dVertex
 10
80.4673021024093
 20
45.39898033885279
 30
0.0
  0
SEQEND
  5
2A1
330
29E
100
AcDbEntity
  8
DIBUJOS
 62
     7
  0
POLYLINE
  5
2A2
330
21B
100
AcDbEntity
  8
DIBUJOS
 62
     7
100
AcDb2dPolyline
 66
     1
 10
0.0
 20
0.0
 30
0.0
  0
VERTEX
  5
2A3
330
2A2
100
AcDbEntity
  8
DIBUJOS
 62
     7
100
AcDbVertex
100
AcDb2dVertex
 10
82.25898110886233
 20
45.39898033885279
 30
0.0
  0
VERTEX
  5
2A4
330
2A2
100
AcDbEntity
  8
DIBUJOS
 62
     7
100
AcDbVertex
100
AcDb2dVertex
 10
82.05804719534123
 20
45.39898033885279
 30
0.0
  0
SEQEND
  5
2A5
330
2A2
100
AcDbEntity
  8
DIBUJOS
 62
     7
  0
POLYLINE
  5
2A6
330
21B
100
AcDbEntity
  8
DIBUJOS
 62
     7
100
AcDb2dPolyline
 66
     1
 10
0.0
 20
0.0
 30
0.0
  0
VERTEX
  5
2A7
330
2A6
100
AcDbEntity
  8
DIBUJOS
 62
     7
100
AcDbVertex
100
AcDb2dVertex
 10
82.3092168406405
 20
45.39898033885279
 30
0.0
  0
VERTEX
  5
2A8
330
2A6
100
AcDbEntity
  8
DIBUJOS
 62
     7
100
AcDbVertex
100
AcDb2dVertex
 10
82.27572535127844
 20
45.39898033885279
 30
0.0
  0
SEQEND
  5
2A9
330
2A6
100
AcDbEntity
  8
DIBUJOS
 62
     7
  0
POLYLINE
  5
2AA
330
21B
100
AcDbEntity
  8
DIBUJOS
 62
     7
100
AcDb2dPolyline
 66
     1
 10
0.0
 20
0.0
 30
0.0
  0
VERTEX
  5
2AB
330
2AA
100
AcDbEntity
  8
DIBUJOS
 62
     7
100
AcDbVertex
100
AcDb2dVertex
 10
82.39293805272034
 20
45.39898033885279
 30
0.0
  0
VERTEX
  5
2AC
330
2AA
100
AcDbEntity
  8
DIBUJOS
 62
     7
100
AcDbVertex
100
AcDb2dVertex
 10
82.3203786674073
 20
45.39898033885279
 30
0.0
  0
SEQEND
  5
2AD
330
2AA
100
AcDbEntity
  8
DIBUJOS
 62
     7
  0
POLYLINE
  5
2AE
330
21B
100
AcDbEntity
  8
DIBUJOS
 62
     7
100
AcDb2dPolyline
 66
     1
 10
0.0
 20
0.0
 30
0.0
  0
VERTEX
  5
2AF
330
2AE
100
AcDbEntity
  8
DIBUJOS
 62
     7
100
AcDbVertex
100
AcDb2dVertex
 10
82.45991802691331
 20
45.39898033885279
 30
0.0
  0
VERTEX
  5
2B0
330
2AE
100
AcDbEntity
  8
DIBUJOS
 62
     7
100
AcDbVertex
100
AcDb2dVertex
 10
82.4375913688492
 20
45.39898033885279
 30
0.0
  0
SEQEND
  5
2B1
330
2AE
100
AcDbEntity
  8
DIBUJOS
 62
     7
  0
POLYLINE
  5
2B2
330
21B
100
AcDbEntity
  8
DIBUJOS
 62
     7
100
AcDb2dPolyline
 66
     1
 10
0.0
 20
0.0
 30
0.0
  0
VERTEX
  5
2B3
330
2B2
100
AcDbEntity
  8
DIBUJOS
 62
     7
100
AcDbVertex
100
AcDb2dVertex
 10
82.48224468497806
 20
45.39898033885279
 30
0.0
  0
VERTEX
  5
2B4
330
2B2
100
AcDbEntity
  8
DIBUJOS
 62
     7
100
AcDbVertex
100
AcDb2dVertex
 10
82.47107985368139
 20
45.39898033885279
 30
0.0
  0
SEQEND
  5
2B5
330
2B2
100
AcDbEntity
  8
DIBUJOS
 62
     7
  0
POLYLINE
  5
2B6
330
21B
100
AcDbEntity
  8
DIBUJOS
 62
     7
100
AcDb2dPolyline
 66
     1
 10
0.0
 20
0.0
 30
0.0
  0
VERTEX
  5
2B7
330
2B6
100
AcDbEntity
  8
DIBUJOS
 62
     7
100
AcDbVertex
100
AcDb2dVertex
 10
82.5101507541616
 20
45.39898033885279
 30
0.0
  0
VERTEX
  5
2B8
330
2B6
100
AcDbEntity
  8
DIBUJOS
 62
     7
100
AcDbVertex
100
AcDb2dVertex
 10
82.4934065117455
 20
45.39898033885279
 30
0.0
  0
SEQEND
  5
2B9
330
2B6
100
AcDbEntity
  8
DIBUJOS
 62
     7
  0
POLYLINE
  5
2BA
330
21B
100
AcDbEntity
  8
DIBUJOS
 62
     7
100
AcDb2dPolyline
 66
     1
 10
0.0
 20
0.0
 30
0.0
  0
VERTEX
  5
2BB
330
2BA
100
AcDbEntity
  8
DIBUJOS
 62
     7
100
AcDbVertex
100
AcDb2dVertex
 10
82.5268949965777
 20
45.39898033885279
 30
0.0
  0
VERTEX
  5
2BC
330
2BA
100
AcDbEntity
  8
DIBUJOS
 62
     7
100
AcDbVertex
100
AcDb2dVertex
 10
82.52131558545827
 20
45.39898033885279
 30
0.0
  0
SEQEND
  5
2BD
330
2BA
100
AcDbEntity
  8
DIBUJOS
 62
     7
  0
POLYLINE
  5
2BE
330
21B
100
AcDbEntity
  8
DIBUJOS
 62
     7
100
AcDb2dPolyline
 66
     1
 10
0.0
 20
0.0
 30
0.0
  0
VERTEX
  5
2BF
330
2BE
100
AcDbEntity
  8
DIBUJOS
 62
     7
100
AcDbVertex
100
AcDb2dVertex
 10
82.57154831270655
 20
45.39898033885279
 30
0.0
  0
VERTEX
  5
2C0
330
2BE
100
AcDbEntity
  8
DIBUJOS
 62
     7
100
AcDbVertex
100
AcDb2dVertex
 10
82.53805982787436
 20
45.39898033885279
 30
0.0
  0
SEQEND
  5
2C1
330
2BE
100
AcDbEntity
  8
DIBUJOS
 62
     7
  0
POLYLINE
  5
2C2
330
21B
100
AcDbEntity
  8
DIBUJOS
 62
     7
100
AcDb2dPolyline
 66
     1
 10
0.0
 20
0.0
 30
0.0
  0
VERTEX
  5
2C3
330
2C2
100
AcDbEntity
  8
DIBUJOS
 62
     7
100
AcDbVertex
100
AcDb2dVertex
 10
82.61061921318677
 20
45.39898033885279
 30
0.0
  0
VERTEX
  5
2C4
330
2C2
100
AcDbEntity
  8
DIBUJOS
 62
     7
100
AcDbVertex
100
AcDb2dVertex
 10
82.58271314400322
 20
45.39898033885279
 30
0.0
  0
SEQEND
  5
2C5
330
2C2
100
AcDbEntity
  8
DIBUJOS
 62
     7
  0
POLYLINE
  5
2C6
330
21B
100
AcDbEntity
  8
DIBUJOS
 62
     7
100
AcDb2dPolyline
 66
     1
 10
0.0
 20
0.0
 30
0.0
  0
VERTEX
  5
2C7
330
2C6
100
AcDbEntity
  8
DIBUJOS
 62
     7
100
AcDbVertex
100
AcDb2dVertex
 10
82.65527252931562
 20
45.39898033885279
 30
0.0
  0
VERTEX
  5
2C8
330
2C6
100
AcDbEntity
  8
DIBUJOS
 62
     7
100
AcDbVertex
100
AcDb2dVertex
 10
82.63852828690017
 20
45.39898033885279
 30
0.0
  0
SEQEND
  5
2C9
330
2C6
100
AcDbEntity
  8
DIBUJOS
 62
     7
  0
POLYLINE
  5
2CA
330
21B
100
AcDbEntity
  8
DIBUJOS
 62
     7
100
AcDb2dPolyline
 66
     1
 10
0.0
 20
0.0
 30
0.0
  0
VERTEX
  5
2CB
330
2CA
100
AcDbEntity
  8
DIBUJOS
 62
     7
100
AcDbVertex
100
AcDb2dVertex
 10
82.74457615704476
 20
45.39898033885279
 30
0.0
  0
VERTEX
  5
2CC
330
2CA
100
AcDbEntity
  8
DIBUJOS
 62
     7
100
AcDbVertex
100
AcDb2dVertex
 10
82.69434342979648
 20
45.39898033885279
 30
0.0
  0
SEQEND
  5
2CD
330
2CA
100
AcDbEntity
  8
DIBUJOS
 62
     7
  0
POLYLINE
  5
2CE
330
21B
100
AcDbEntity
  8
DIBUJOS
 62
     7
100
AcDb2dPolyline
 66
     1
 10
0.0
 20
0.0
 30
0.0
  0
VERTEX
  5
2CF
330
2CE
100
AcDbEntity
  8
DIBUJOS
 62
     7
100
AcDbVertex
100
AcDb2dVertex
 10
82.80597371558972
 20
45.39898033885279
 30
0.0
  0
VERTEX
  5
2D0
330
2CE
100
AcDbEntity
  8
DIBUJOS
 62
     7
100
AcDbVertex
100
AcDb2dVertex
 10
82.76690281510886
 20
45.39898033885279
 30
0.0
  0
SEQEND
  5
2D1
330
2CE
100
AcDbEntity
  8
DIBUJOS
 62
     7
  0
POLYLINE
  5
2D2
330
21B
100
AcDbEntity
  8
DIBUJOS
 62
     7
100
AcDb2dPolyline
 66
     1
 10
0.0
 20
0.0
 30
0.0
  0
VERTEX
  5
2D3
330
2D2
100
AcDbEntity
  8
DIBUJOS
 62
     7
100
AcDbVertex
100
AcDb2dVertex
 10
82.82271795800581
 20
45.39898033885279
 30
0.0
  0
VERTEX
  5
2D4
330
2D2
100
AcDbEntity
  8
DIBUJOS
 62
     7
100
AcDbVertex
100
AcDb2dVertex
 10
82.81713854688638
 20
45.39898033885279
 30
0.0
  0
SEQEND
  5
2D5
330
2D2
100
AcDbEntity
  8
DIBUJOS
 62
     7
  0
POLYLINE
  5
2D6
330
21B
100
AcDbEntity
  8
DIBUJOS
 62
     7
100
AcDb2dPolyline
 66
     1
 10
0.0
 20
0.0
 30
0.0
  0
VERTEX
  5
2D7
330
2D6
100
AcDbEntity
  8
DIBUJOS
 62
     7
100
AcDbVertex
100
AcDb2dVertex
 10
82.84504461606993
 20
45.39898033885279
 30
0.0
  0
VERTEX
  5
2D8
330
2D6
100
AcDbEntity
  8
DIBUJOS
 62
     7
100
AcDbVertex
100
AcDb2dVertex
 10
82.83946220042127
 20
45.39898033885279
 30
0.0
  0
SEQEND
  5
2D9
330
2D6
100
AcDbEntity
  8
DIBUJOS
 62
     7
  0
POLYLINE
  5
2DA
330
21B
100
AcDbEntity
  8
DIBUJOS
 62
     7
100
AcDb2dPolyline
 66
     1
 10
0.0
 20
0.0
 30
0.0
  0
VERTEX
  5
2DB
330
2DA
100
AcDbEntity
  8
DIBUJOS
 62
     7
100
AcDbVertex
100
AcDb2dVertex
 10
82.89527734331757
 20
45.39898033885279
 30
0.0
  0
VERTEX
  5
2DC
330
2DA
100
AcDbEntity
  8
DIBUJOS
 62
     7
100
AcDbVertex
100
AcDb2dVertex
 10
82.8562094473666
 20
45.39898033885279
 30
0.0
  0
SEQEND
  5
2DD
330
2DA
100
AcDbEntity
  8
DIBUJOS
 62
     7
  0
POLYLINE
  5
2DE
330
21B
100
AcDbEntity
  8
DIBUJOS
 62
     7
100
AcDb2dPolyline
 66
     1
 10
0.0
 20
0.0
 30
0.0
  0
VERTEX
  5
2DF
330
2DE
100
AcDbEntity
  8
DIBUJOS
 62
     7
100
AcDbVertex
100
AcDb2dVertex
 10
82.92876883267964
 20
45.39898033885279
 30
0.0
  0
VERTEX
  5
2E0
330
2DE
100
AcDbEntity
  8
DIBUJOS
 62
     7
100
AcDbVertex
100
AcDb2dVertex
 10
82.90644217461488
 20
45.39898033885279
 30
0.0
  0
SEQEND
  5
2E1
330
2DE
100
AcDbEntity
  8
DIBUJOS
 62
     7
  0
POLYLINE
  5
2E2
330
21B
100
AcDbEntity
  8
DIBUJOS
 62
     7
100
AcDb2dPolyline
 66
     1
 10
0.0
 20
0.0
 30
0.0
  0
VERTEX
  5
2E3
330
2E2
100
AcDbEntity
  8
DIBUJOS
 62
     7
100
AcDbVertex
100
AcDb2dVertex
 10
82.94551307509509
 20
45.39898033885279
 30
0.0
  0
VERTEX
  5
2E4
330
2E2
100
AcDbEntity
  8
DIBUJOS
 62
     7
100
AcDbVertex
100
AcDb2dVertex
 10
82.93993065944643
 20
45.39898033885279
 30
0.0
  0
SEQEND
  5
2E5
330
2E2
100
AcDbEntity
  8
DIBUJOS
 62
     7
  0
POLYLINE
  5
2E6
330
21B
100
AcDbEntity
  8
DIBUJOS
 62
     7
100
AcDb2dPolyline
 66
     1
 10
0.0
 20
0.0
 30
0.0
  0
VERTEX
  5
2E7
330
2E6
100
AcDbEntity
  8
DIBUJOS
 62
     7
100
AcDbVertex
100
AcDb2dVertex
 10
82.96225731751119
 20
45.39898033885279
 30
0.0
  0
VERTEX
  5
2E8
330
2E6
100
AcDbEntity
  8
DIBUJOS
 62
     7
100
AcDbVertex
100
AcDb2dVertex
 10
82.95667490186253
 20
45.39898033885279
 30
0.0
  0
SEQEND
  5
2E9
330
2E6
100
AcDbEntity
  8
DIBUJOS
 62
     7
  0
POLYLINE
  5
2EA
330
21B
100
AcDbEntity
  8
DIBUJOS
 62
     7
100
AcDb2dPolyline
 66
     1
 10
0.0
 20
0.0
 30
0.0
  0
VERTEX
  5
2EB
330
2EA
100
AcDbEntity
  8
DIBUJOS
 62
     7
100
AcDbVertex
100
AcDb2dVertex
 10
82.98458397557594
 20
45.39898033885279
 30
0.0
  0
VERTEX
  5
2EC
330
2EA
100
AcDbEntity
  8
DIBUJOS
 62
     7
100
AcDbVertex
100
AcDb2dVertex
 10
82.97341914427862
 20
45.39898033885279
 30
0.0
  0
SEQEND
  5
2ED
330
2EA
100
AcDbEntity
  8
DIBUJOS
 62
     7
  0
POLYLINE
  5
2EE
330
21B
100
AcDbEntity
  8
DIBUJOS
 62
     7
100
AcDb2dPolyline
 66
     1
 10
0.0
 20
0.0
 30
0.0
  0
VERTEX
  5
2EF
330
2EE
100
AcDbEntity
  8
DIBUJOS
 62
     7
100
AcDbVertex
100
AcDb2dVertex
 10
83.068308192185
 20
45.39898033885279
 30
0.0
  0
VERTEX
  5
2F0
330
2EE
100
AcDbEntity
  8
DIBUJOS
 62
     7
100
AcDbVertex
100
AcDb2dVertex
 10
83.01249004475947
 20
45.39898033885279
 30
0.0
  0
SEQEND
  5
2F1
330
2EE
100
AcDbEntity
  8
DIBUJOS
 62
     7
  0
POLYLINE
  5
2F2
330
21B
100
AcDbEntity
  8
DIBUJOS
 62
     7
100
AcDb2dPolyline
 66
     1
 10
0.0
 20
0.0
 30
0.0
  0
VERTEX
  5
2F3
330
2F2
100
AcDbEntity
  8
DIBUJOS
 62
     7
100
AcDbVertex
100
AcDb2dVertex
 10
83.09063184572052
 20
45.39898033885279
 30
0.0
  0
VERTEX
  5
2F4
330
2F2
100
AcDbEntity
  8
DIBUJOS
 62
     7
100
AcDbVertex
100
AcDb2dVertex
 10
83.07947001895245
 20
45.39898033885279
 30
0.0
  0
SEQEND
  5
2F5
330
2F2
100
AcDbEntity
  8
DIBUJOS
 62
     7
  0
POLYLINE
  5
2F6
330
21B
100
AcDbEntity
  8
DIBUJOS
 62
     7
100
AcDb2dPolyline
 66
     1
 10
0.0
 20
0.0
 30
0.0
  0
VERTEX
  5
2F7
330
2F6
100
AcDbEntity
  8
DIBUJOS
 62
     7
100
AcDbVertex
100
AcDb2dVertex
 10
83.11295850378464
 20
45.39898033885279
 30
0.0
  0
VERTEX
  5
2F8
330
2F6
100
AcDbEntity
  8
DIBUJOS
 62
     7
100
AcDbVertex
100
AcDb2dVertex
 10
83.1017966770172
 20
45.39898033885279
 30
0.0
  0
SEQEND
  5
2F9
330
2F6
100
AcDbEntity
  8
DIBUJOS
 62
     7
  0
POLYLINE
  5
2FA
330
21B
100
AcDbEntity
  8
DIBUJOS
 62
     7
100
AcDb2dPolyline
 66
     1
 10
0.0
 20
0.0
 30
0.0
  0
VERTEX
  5
2FB
330
2FA
100
AcDbEntity
  8
DIBUJOS
 62
     7
100
AcDbVertex
100
AcDb2dVertex
 10
83.1352851618494
 20
45.39898033885279
 30
0.0
  0
VERTEX
  5
2FC
330
2FA
100
AcDbEntity
  8
DIBUJOS
 62
     7
100
AcDbVertex
100
AcDb2dVertex
 10
83.12970274620073
 20
45.39898033885279
 30
0.0
  0
SEQEND
  5
2FD
330
2FA
100
AcDbEntity
  8
DIBUJOS
 62
     7
  0
POLYLINE
  5
2FE
330
21B
100
AcDbEntity
  8
DIBUJOS
 62
     7
100
AcDb2dPolyline
 66
     1
 10
0.0
 20
0.0
 30
0.0
  0
VERTEX
  5
2FF
330
2FE
100
AcDbEntity
  8
DIBUJOS
 62
     7
100
AcDbVertex
100
AcDb2dVertex
 10
83.15202940426549
 20
45.39898033885279
 30
0.0
  0
VERTEX
  5
300
330
2FE
100
AcDbEntity
  8
DIBUJOS
 62
     7
100
AcDbVertex
100
AcDb2dVertex
 10
83.14644999314606
 20
45.39898033885279
 30
0.0
  0
SEQEND
  5
301
330
2FE
100
AcDbEntity
  8
DIBUJOS
 62
     7
  0
POLYLINE
  5
302
330
21B
100
AcDbEntity
  8
DIBUJOS
 62
     7
100
AcDb2dPolyline
 66
     1
 10
0.0
 20
0.0
 30
0.0
  0
VERTEX
  5
303
330
302
100
AcDbEntity
  8
DIBUJOS
 62
     7
100
AcDbVertex
100
AcDb2dVertex
 10
83.29715117941952
 20
45.39898033885279
 30
0.0
  0
VERTEX
  5
304
330
302
100
AcDbEntity
  8
DIBUJOS
 62
     7
100
AcDbVertex
100
AcDb2dVertex
 10
83.30831300618695
 20
45.39898033885279
 30
0.0
  0
VERTEX
  5
305
330
302
100
AcDbEntity
  8
DIBUJOS
 62
     7
100
AcDbVertex
100
AcDb2dVertex
 10
83.32505724860304
 20
45.41572287863504
 30
0.0
  0
VERTEX
  5
306
330
302
100
AcDbEntity
  8
DIBUJOS
 62
     7
100
AcDbVertex
100
AcDb2dVertex
 10
83.33622207990037
 20
45.45478279742375
 30
0.0
  0
VERTEX
  5
307
330
302
100
AcDbEntity
  8
DIBUJOS
 62
     7
100
AcDbVertex
100
AcDb2dVertex
 10
83.33622207990037
 20
45.69472015306476
 30
0.0
  0
VERTEX
  5
308
330
302
100
AcDbEntity
  8
DIBUJOS
 62
     7
100
AcDbVertex
100
AcDb2dVertex
 10
83.32338372572053
 20
45.76112261574235
 30
0.0
  0
VERTEX
  5
309
330
302
100
AcDbEntity
  8
DIBUJOS
 62
     7
100
AcDbVertex
100
AcDb2dVertex
 10
83.3205925178962
 20
45.76781782944394
 30
0.0
  0
VERTEX
  5
30A
330
302
100
AcDbEntity
  8
DIBUJOS
 62
     7
100
AcDbVertex
100
AcDb2dVertex
 10
83.29156876377085
 20
45.78957952673873
 30
0.0
  0
SEQEND
  5
30B
330
302
100
AcDbEntity
  8
DIBUJOS
 62
     7
  0
POLYLINE
  5
30C
330
21B
100
AcDbEntity
  8
DIBUJOS
 62
     7
100
AcDb2dPolyline
 66
     1
 10
0.0
 20
0.0
 30
0.0
  0
VERTEX
  5
30D
330
30C
100
AcDbEntity
  8
DIBUJOS
 62
     7
100
AcDbVertex
100
AcDb2dVertex
 10
83.29156876377085
 20
45.3934024959438
 30
0.0
  0
VERTEX
  5
30E
330
30C
100
AcDbEntity
  8
DIBUJOS
 62
     7
100
AcDbVertex
100
AcDb2dVertex
 10
83.29715117941952
 20
45.39898033885279
 30
0.0
  0
SEQEND
  5
30F
330
30C
100
AcDbEntity
  8
DIBUJOS
 62
     7
  0
POLYLINE
  5
310
330
21B
100
AcDbEntity
  8
DIBUJOS
 62
     7
100
AcDb2dPolyline
 66
     1
 10
0.0
 20
0.0
 30
0.0
  0
VERTEX
  5
311
330
310
100
AcDbEntity
  8
DIBUJOS
 62
     7
100
AcDbVertex
100
AcDb2dVertex
 10
80.24962094194224
 20
45.35434257715539
 30
0.0
  0
VERTEX
  5
312
330
310
100
AcDbEntity
  8
DIBUJOS
 62
     7
100
AcDbVertex
100
AcDb2dVertex
 10
80.2552033575909
 20
45.39898033885279
 30
0.0
  0
SEQEND
  5
313
330
310
100
AcDbEntity
  8
DIBUJOS
 62
     7
  0
POLYLINE
  5
314
330
21B
100
AcDbEntity
  8
DIBUJOS
 62
     7
100
AcDb2dPolyline
 66
     1
 10
0.0
 20
0.0
 30
0.0
  0
VERTEX
  5
315
330
314
100
AcDbEntity
  8
DIBUJOS
 62
     7
100
AcDbVertex
100
AcDb2dVertex
 10
80.24962094194224
 20
45.34876173056131
 30
0.0
  0
VERTEX
  5
316
330
314
100
AcDbEntity
  8
DIBUJOS
 62
     7
100
AcDbVertex
100
AcDb2dVertex
 10
80.24404153082281
 20
45.34876173056131
 30
0.0
  0
SEQEND
  5
317
330
314
100
AcDbEntity
  8
DIBUJOS
 62
     7
  0
POLYLINE
  5
318
330
21B
100
AcDbEntity
  8
DIBUJOS
 62
     7
100
AcDb2dPolyline
 66
     1
 10
0.0
 20
0.0
 30
0.0
  0
VERTEX
  5
319
330
318
100
AcDbEntity
  8
DIBUJOS
 62
     7
100
AcDbVertex
100
AcDb2dVertex
 10
80.24962094194224
 20
45.34876173056131
 30
0.0
  0
VERTEX
  5
31A
330
318
100
AcDbEntity
  8
DIBUJOS
 62
     7
100
AcDbVertex
100
AcDb2dVertex
 10
80.24962094194224
 20
45.35434257715539
 30
0.0
  0
SEQEND
  5
31B
330
318
100
AcDbEntity
  8
DIBUJOS
 62
     7
  0
POLYLINE
  5
31C
330
21B
100
AcDbEntity
  8
DIBUJOS
 62
     7
100
AcDb2dPolyline
 66
     1
 10
0.0
 20
0.0
 30
0.0
  0
VERTEX
  5
31D
330
31C
100
AcDbEntity
  8
DIBUJOS
 62
     7
100
AcDbVertex
100
AcDb2dVertex
 10
80.2552033575909
 20
45.34876173056131
 30
0.0
  0
VERTEX
  5
31E
330
31C
100
AcDbEntity
  8
DIBUJOS
 62
     7
100
AcDbVertex
100
AcDb2dVertex
 10
80.24962094194224
 20
45.34876173056131
 30
0.0
  0
SEQEND
  5
31F
330
31C
100
AcDbEntity
  8
DIBUJOS
 62
     7
  0
POLYLINE
  5
320
330
21B
100
AcDbEntity
  8
DIBUJOS
 62
     7
100
AcDb2dPolyline
 66
     1
 10
0.0
 20
0.0
 30
0.0
  0
VERTEX
  5
321
330
320
100
AcDbEntity
  8
DIBUJOS
 62
     7
100
AcDbVertex
100
AcDb2dVertex
 10
83.068308192185
 20
45.34318088396692
 30
0.0
  0
VERTEX
  5
322
330
320
100
AcDbEntity
  8
DIBUJOS
 62
     7
100
AcDbVertex
100
AcDb2dVertex
 10
80.2552033575909
 20
45.34876173056131
 30
0.0
  0
SEQEND
  5
323
330
320
100
AcDbEntity
  8
DIBUJOS
 62
     7
  0
POLYLINE
  5
324
330
21B
100
AcDbEntity
  8
DIBUJOS
 62
     7
100
AcDb2dPolyline
 66
     1
 10
0.0
 20
0.0
 30
0.0
  0
VERTEX
  5
325
330
324
100
AcDbEntity
  8
DIBUJOS
 62
     7
100
AcDbVertex
100
AcDb2dVertex
 10
83.07388760330443
 20
45.34318088396692
 30
0.0
  0
VERTEX
  5
326
330
324
100
AcDbEntity
  8
DIBUJOS
 62
     7
100
AcDbVertex
100
AcDb2dVertex
 10
83.068308192185
 20
45.34318088396692
 30
0.0
  0
SEQEND
  5
327
330
324
100
AcDbEntity
  8
DIBUJOS
 62
     7
  0
POLYLINE
  5
328
330
21B
100
AcDbEntity
  8
DIBUJOS
 62
     7
100
AcDb2dPolyline
 66
     1
 10
0.0
 20
0.0
 30
0.0
  0
VERTEX
  5
329
330
328
100
AcDbEntity
  8
DIBUJOS
 62
     7
100
AcDbVertex
100
AcDb2dVertex
 10
83.07388760330443
 20
45.34318088396692
 30
0.0
  0
VERTEX
  5
32A
330
328
100
AcDbEntity
  8
DIBUJOS
 62
     7
100
AcDbVertex
100
AcDb2dVertex
 10
83.23054977593227
 20
45.35208080240516
 30
0.0
  0
VERTEX
  5
32B
330
328
100
AcDbEntity
  8
DIBUJOS
 62
     7
100
AcDbVertex
100
AcDb2dVertex
 10
83.26924210570675
 20
45.3599204200644
 30
0.0
  0
VERTEX
  5
32C
330
328
100
AcDbEntity
  8
DIBUJOS
 62
     7
100
AcDbVertex
100
AcDb2dVertex
 10
83.29045408335892
 20
45.38838033474617
 30
0.0
  0
VERTEX
  5
32D
330
328
100
AcDbEntity
  8
DIBUJOS
 62
     7
100
AcDbVertex
100
AcDb2dVertex
 10
83.29156876377085
 20
45.3934024959438
 30
0.0
  0
SEQEND
  5
32E
330
328
100
AcDbEntity
  8
DIBUJOS
 62
     7
  0
POLYLINE
  5
32F
330
21B
100
AcDbEntity
  8
DIBUJOS
 62
     7
100
AcDb2dPolyline
 66
     1
 10
0.0
 20
0.0
 30
0.0
  0
VERTEX
  5
330
330
32F
100
AcDbEntity
  8
DIBUJOS
 62
     7
100
AcDbVertex
100
AcDb2dVertex
 10
83.07388760330443
 20
45.33760304105791
 30
0.0
  0
VERTEX
  5
331
330
32F
100
AcDbEntity
  8
DIBUJOS
 62
     7
100
AcDbVertex
100
AcDb2dVertex
 10
83.07388760330443
 20
45.34318088396692
 30
0.0
  0
SEQEND
  5
332
330
32F
100
AcDbEntity
  8
DIBUJOS
 62
     7
  0
POLYLINE
  5
333
330
21B
100
AcDbEntity
  8
DIBUJOS
 62
     7
100
AcDb2dPolyline
 66
     1
 10
0.0
 20
0.0
 30
0.0
  0
VERTEX
  5
334
330
333
100
AcDbEntity
  8
DIBUJOS
 62
     7
100
AcDbVertex
100
AcDb2dVertex
 10
79.88123859520172
 20
45.30970181177259
 30
0.0
  0
VERTEX
  5
335
330
333
100
AcDbEntity
  8
DIBUJOS
 62
     7
100
AcDbVertex
100
AcDb2dVertex
 10
79.89315756338127
 20
45.31633695177585
 30
0.0
  0
VERTEX
  5
336
330
333
100
AcDbEntity
  8
DIBUJOS
 62
     7
100
AcDbVertex
100
AcDb2dVertex
 10
80.02663077800334
 20
45.32957118756336
 30
0.0
  0
VERTEX
  5
337
330
333
100
AcDbEntity
  8
DIBUJOS
 62
     7
100
AcDbVertex
100
AcDb2dVertex
 10
80.09891975566879
 20
45.34318088396692
 30
0.0
  0
VERTEX
  5
338
330
333
100
AcDbEntity
  8
DIBUJOS
 62
     7
100
AcDbVertex
100
AcDb2dVertex
 10
80.1045021713168
 20
45.33760304105791
 30
0.0
  0
VERTEX
  5
339
330
333
100
AcDbEntity
  8
DIBUJOS
 62
     7
100
AcDbVertex
100
AcDb2dVertex
 10
80.21088654875595
 20
45.34641885631817
 30
0.0
  0
VERTEX
  5
33A
330
333
100
AcDbEntity
  8
DIBUJOS
 62
     7
100
AcDbVertex
100
AcDb2dVertex
 10
80.24404153082281
 20
45.34876173056131
 30
0.0
  0
SEQEND
  5
33B
330
333
100
AcDbEntity
  8
DIBUJOS
 62
     7
  0
POLYLINE
  5
33C
330
21B
100
AcDbEntity
  8
DIBUJOS
 62
     7
100
AcDb2dPolyline
 66
     1
 10
0.0
 20
0.0
 30
0.0
  0
VERTEX
  5
33D
330
33C
100
AcDbEntity
  8
DIBUJOS
 62
     7
100
AcDbVertex
100
AcDb2dVertex
 10
75.32110807028215
 20
45.28738142908103
 30
0.0
  0
VERTEX
  5
33E
330
33C
100
AcDbEntity
  8
DIBUJOS
 62
     7
100
AcDbVertex
100
AcDb2dVertex
 10
75.30994624351472
 20
45.31528265836667
 30
0.0
  0
VERTEX
  5
33F
330
33C
100
AcDbEntity
  8
DIBUJOS
 62
     7
100
AcDbVertex
100
AcDb2dVertex
 10
75.29878441674728
 20
45.32644134786975
 30
0.0
  0
VERTEX
  5
340
330
33C
100
AcDbEntity
  8
DIBUJOS
 62
     7
100
AcDbVertex
100
AcDb2dVertex
 10
75.28761958545061
 20
45.32644134786975
 30
0.0
  0
VERTEX
  5
341
330
33C
100
AcDbEntity
  8
DIBUJOS
 62
     7
100
AcDbVertex
100
AcDb2dVertex
 10
75.26529292738586
 20
45.34876173056131
 30
0.0
  0
VERTEX
  5
342
330
33C
100
AcDbEntity
  8
DIBUJOS
 62
     7
100
AcDbVertex
100
AcDb2dVertex
 10
75.26185875026731
 20
45.36593079360271
 30
0.0
  0
VERTEX
  5
343
330
33C
100
AcDbEntity
  8
DIBUJOS
 62
     7
100
AcDbVertex
100
AcDb2dVertex
 10
75.25756527773697
 20
45.38739212240517
 30
0.0
  0
VERTEX
  5
344
330
33C
100
AcDbEntity
  8
DIBUJOS
 62
     7
100
AcDbVertex
100
AcDb2dVertex
 10
75.24854868496976
 20
45.45478279742375
 30
0.0
  0
VERTEX
  5
345
330
33C
100
AcDbEntity
  8
DIBUJOS
 62
     7
100
AcDbVertex
100
AcDb2dVertex
 10
75.24854868496976
 20
45.78957952673873
 30
0.0
  0
VERTEX
  5
346
330
33C
100
AcDbEntity
  8
DIBUJOS
 62
     7
100
AcDbVertex
100
AcDb2dVertex
 10
75.29075030509809
 20
46.34785041461118
 30
0.0
  0
VERTEX
  5
347
330
33C
100
AcDbEntity
  8
DIBUJOS
 62
     7
100
AcDbVertex
100
AcDb2dVertex
 10
75.32909410946107
 20
46.68765729038443
 30
0.0
  0
VERTEX
  5
348
330
33C
100
AcDbEntity
  8
DIBUJOS
 62
     7
100
AcDbVertex
100
AcDb2dVertex
 10
75.41384887965907
 20
47.28544465715392
 30
0.0
  0
VERTEX
  5
349
330
33C
100
AcDbEntity
  8
DIBUJOS
 62
     7
100
AcDbVertex
100
AcDb2dVertex
 10
75.42930417895685
 20
47.36828628743603
 30
0.0
  0
VERTEX
  5
34A
330
33C
100
AcDbEntity
  8
DIBUJOS
 62
     7
100
AcDbVertex
100
AcDb2dVertex
 10
75.51449460591986
 20
47.78770883588011
 30
0.0
  0
VERTEX
  5
34B
330
33C
100
AcDbEntity
  8
DIBUJOS
 62
     7
100
AcDbVertex
100
AcDb2dVertex
 10
75.52959537074705
 20
47.85368177161315
 30
0.0
  0
VERTEX
  5
34C
330
33C
100
AcDbEntity
  8
DIBUJOS
 62
     7
100
AcDbVertex
100
AcDb2dVertex
 10
75.6632578707223
 20
48.35023594529367
 30
0.0
  0
VERTEX
  5
34D
330
33C
100
AcDbEntity
  8
DIBUJOS
 62
     7
100
AcDbVertex
100
AcDb2dVertex
 10
75.76960318927821
 20
48.70742214205345
 30
0.0
  0
VERTEX
  5
34E
330
33C
100
AcDbEntity
  8
DIBUJOS
 62
     7
100
AcDbVertex
100
AcDb2dVertex
 10
75.8681006770089
 20
49.00923240350239
 30
0.0
  0
VERTEX
  5
34F
330
33C
100
AcDbEntity
  8
DIBUJOS
 62
     7
100
AcDbVertex
100
AcDb2dVertex
 10
75.88527456713089
 20
49.01824646196779
 30
0.0
  0
VERTEX
  5
350
330
33C
100
AcDbEntity
  8
DIBUJOS
 62
     7
100
AcDbVertex
100
AcDb2dVertex
 10
75.90717157748975
 20
49.02039109300579
 30
0.0
  0
VERTEX
  5
351
330
33C
100
AcDbEntity
  8
DIBUJOS
 62
     7
100
AcDbVertex
100
AcDb2dVertex
 10
75.94010422437994
 20
49.0549875359927
 30
0.0
  0
VERTEX
  5
352
330
33C
100
AcDbEntity
  8
DIBUJOS
 62
     7
100
AcDbVertex
100
AcDb2dVertex
 10
75.96410440532786
 20
49.0683809670816
 30
0.0
  0
VERTEX
  5
353
330
33C
100
AcDbEntity
  8
DIBUJOS
 62
     7
100
AcDbVertex
100
AcDb2dVertex
 10
76.08616040818234
 20
49.11298869192984
 30
0.0
  0
VERTEX
  5
354
330
33C
100
AcDbEntity
  8
DIBUJOS
 62
     7
100
AcDbVertex
100
AcDb2dVertex
 10
76.11331234048299
 20
49.11751524511442
 30
0.0
  0
VERTEX
  5
355
330
33C
100
AcDbEntity
  8
DIBUJOS
 62
     7
100
AcDbVertex
100
AcDb2dVertex
 10
76.29788058229438
 20
49.14315169596539
 30
0.0
  0
VERTEX
  5
356
330
33C
100
AcDbEntity
  8
DIBUJOS
 62
     7
100
AcDbVertex
100
AcDb2dVertex
 10
76.50997932711279
 20
49.14315169596539
 30
0.0
  0
VERTEX
  5
357
330
33C
100
AcDbEntity
  8
DIBUJOS
 62
     7
100
AcDbVertex
100
AcDb2dVertex
 10
76.94003264457446
 20
49.08980324797934
 30
0.0
  0
VERTEX
  5
358
330
33C
100
AcDbEntity
  8
DIBUJOS
 62
     7
100
AcDbVertex
100
AcDb2dVertex
 10
77.592529301622
 20
49.01794308979007
 30
0.0
  0
VERTEX
  5
359
330
33C
100
AcDbEntity
  8
DIBUJOS
 62
     7
100
AcDbVertex
100
AcDb2dVertex
 10
79.55241989176567
 20
48.83822360956252
 30
0.0
  0
VERTEX
  5
35A
330
33C
100
AcDbEntity
  8
DIBUJOS
 62
     7
100
AcDbVertex
100
AcDb2dVertex
 10
79.64737203478978
 20
48.80946933375793
 30
0.0
  0
VERTEX
  5
35B
330
33C
100
AcDbEntity
  8
DIBUJOS
 62
     7
100
AcDbVertex
100
AcDb2dVertex
 10
79.67472226603196
 20
48.79719327346194
 30
0.0
  0
VERTEX
  5
35C
330
33C
100
AcDbEntity
  8
DIBUJOS
 62
     7
100
AcDbVertex
100
AcDb2dVertex
 10
79.72049026257277
 20
48.74195250397219
 30
0.0
  0
VERTEX
  5
35D
330
33C
100
AcDbEntity
  8
DIBUJOS
 62
     7
100
AcDbVertex
100
AcDb2dVertex
 10
79.73611982457692
 20
48.71349258929042
 30
0.0
  0
VERTEX
  5
35E
330
33C
100
AcDbEntity
  8
DIBUJOS
 62
     7
100
AcDbVertex
100
AcDb2dVertex
 10
79.75844648264103
 20
48.70791174269634
 30
0.0
  0
VERTEX
  5
35F
330
33C
100
AcDbEntity
  8
DIBUJOS
 62
     7
100
AcDbVertex
100
AcDb2dVertex
 10
79.77519072505713
 20
48.69117220659918
 30
0.0
  0
VERTEX
  5
360
330
33C
100
AcDbEntity
  8
DIBUJOS
 62
     7
100
AcDbVertex
100
AcDb2dVertex
 10
79.89014101585104
 20
48.13279919343955
 30
0.0
  0
VERTEX
  5
361
330
33C
100
AcDbEntity
  8
DIBUJOS
 62
     7
100
AcDbVertex
100
AcDb2dVertex
 10
79.95153556986676
 20
47.8035773033485
 30
0.0
  0
VERTEX
  5
362
330
33C
100
AcDbEntity
  8
DIBUJOS
 62
     7
100
AcDbVertex
100
AcDb2dVertex
 10
80.15141789809365
 20
46.638114511201
 30
0.0
  0
VERTEX
  5
363
330
33C
100
AcDbEntity
  8
DIBUJOS
 62
     7
100
AcDbVertex
100
AcDb2dVertex
 10
80.21055004146139
 20
46.2192386334137
 30
0.0
  0
SEQEND
  5
364
330
33C
100
AcDbEntity
  8
DIBUJOS
 62
     7
  0
POLYLINE
  5
365
330
21B
100
AcDbEntity
  8
DIBUJOS
 62
     7
100
AcDb2dPolyline
 66
     1
 10
0.0
 20
0.0
 30
0.0
  0
VERTEX
  5
366
330
365
100
AcDbEntity
  8
DIBUJOS
 62
     7
100
AcDbVertex
100
AcDb2dVertex
 10
75.32110807028215
 20
45.28738142908103
 30
0.0
  0
VERTEX
  5
367
330
365
100
AcDbEntity
  8
DIBUJOS
 62
     7
100
AcDbVertex
100
AcDb2dVertex
 10
75.48846636761884
 20
45.27910928079281
 30
0.0
  0
VERTEX
  5
368
330
365
100
AcDbEntity
  8
DIBUJOS
 62
     7
100
AcDbVertex
100
AcDb2dVertex
 10
79.88123859520172
 20
45.28180058248695
 30
0.0
  0
VERTEX
  5
369
330
365
100
AcDbEntity
  8
DIBUJOS
 62
     7
100
AcDbVertex
100
AcDb2dVertex
 10
79.89240342649839
 20
45.28180058248695
 30
0.0
  0
SEQEND
  5
36A
330
365
100
AcDbEntity
  8
DIBUJOS
 62
     7
  0
POLYLINE
  5
36B
330
21B
100
AcDbEntity
  8
DIBUJOS
 62
     7
100
AcDb2dPolyline
 66
     1
 10
0.0
 20
0.0
 30
0.0
  0
VERTEX
  5
36C
330
36B
100
AcDbEntity
  8
DIBUJOS
 62
     7
100
AcDbVertex
100
AcDb2dVertex
 10
79.91473008456315
 20
42.62014826195259
 30
0.0
  0
VERTEX
  5
36D
330
36B
100
AcDbEntity
  8
DIBUJOS
 62
     7
100
AcDbVertex
100
AcDb2dVertex
 10
79.90914766891512
 20
42.62014826195259
 30
0.0
  0
SEQEND
  5
36E
330
36B
100
AcDbEntity
  8
DIBUJOS
 62
     7
  0
POLYLINE
  5
36F
330
21B
100
AcDbEntity
  8
DIBUJOS
 62
     7
100
AcDb2dPolyline
 66
     1
 10
0.0
 20
0.0
 30
0.0
  0
VERTEX
  5
370
330
36F
100
AcDbEntity
  8
DIBUJOS
 62
     7
100
AcDbVertex
100
AcDb2dVertex
 10
79.91473008456315
 20
42.62014826195259
 30
0.0
  0
VERTEX
  5
371
330
36F
100
AcDbEntity
  8
DIBUJOS
 62
     7
100
AcDbVertex
100
AcDb2dVertex
 10
79.91473008456315
 20
42.62572910854667
 30
0.0
  0
SEQEND
  5
372
330
36F
100
AcDbEntity
  8
DIBUJOS
 62
     7
  0
POLYLINE
  5
373
330
21B
100
AcDbEntity
  8
DIBUJOS
 62
     7
100
AcDb2dPolyline
 66
     1
 10
0.0
 20
0.0
 30
0.0
  0
VERTEX
  5
374
330
373
100
AcDbEntity
  8
DIBUJOS
 62
     7
100
AcDbVertex
100
AcDb2dVertex
 10
76.61603020178661
 20
42.61457041904327
 30
0.0
  0
VERTEX
  5
375
330
373
100
AcDbEntity
  8
DIBUJOS
 62
     7
100
AcDbVertex
100
AcDb2dVertex
 10
76.61001813843271
 20
42.61800363091491
 30
0.0
  0
VERTEX
  5
376
330
373
100
AcDbEntity
  8
DIBUJOS
 62
     7
100
AcDbVertex
100
AcDb2dVertex
 10
76.49860417875702
 20
42.62876883769277
 30
0.0
  0
VERTEX
  5
377
330
373
100
AcDbEntity
  8
DIBUJOS
 62
     7
100
AcDbVertex
100
AcDb2dVertex
 10
76.43763326338872
 20
42.63384806890429
 30
0.0
  0
VERTEX
  5
378
330
373
100
AcDbEntity
  8
DIBUJOS
 62
     7
100
AcDbVertex
100
AcDb2dVertex
 10
76.38216364137467
 20
42.6497225437422
 30
0.0
  0
VERTEX
  5
379
330
373
100
AcDbEntity
  8
DIBUJOS
 62
     7
100
AcDbVertex
100
AcDb2dVertex
 10
76.3475574716013
 20
42.66367165654248
 30
0.0
  0
VERTEX
  5
37A
330
373
100
AcDbEntity
  8
DIBUJOS
 62
     7
100
AcDbVertex
100
AcDb2dVertex
 10
76.28214285723143
 20
42.69402689641304
 30
0.0
  0
VERTEX
  5
37B
330
373
100
AcDbEntity
  8
DIBUJOS
 62
     7
100
AcDbVertex
100
AcDb2dVertex
 10
76.2300443172182
 20
42.73046159457546
 30
0.0
  0
VERTEX
  5
37C
330
373
100
AcDbEntity
  8
DIBUJOS
 62
     7
100
AcDbVertex
100
AcDb2dVertex
 10
76.11808954224861
 20
42.81965001110848
 30
0.0
  0
VERTEX
  5
37D
330
373
100
AcDbEntity
  8
DIBUJOS
 62
     7
100
AcDbVertex
100
AcDb2dVertex
 10
76.07462001070853
 20
42.85450777468428
 30
0.0
  0
VERTEX
  5
37E
330
373
100
AcDbEntity
  8
DIBUJOS
 62
     7
100
AcDbVertex
100
AcDb2dVertex
 10
75.8792655083062
 20
43.04980736862724
 30
0.0
  0
VERTEX
  5
37F
330
373
100
AcDbEntity
  8
DIBUJOS
 62
     7
100
AcDbVertex
100
AcDb2dVertex
 10
75.79691436163846
 20
43.15139199285293
 30
0.0
  0
VERTEX
  5
380
330
373
100
AcDbEntity
  8
DIBUJOS
 62
     7
100
AcDbVertex
100
AcDb2dVertex
 10
75.70752360255645
 20
43.27386424205987
 30
0.0
  0
VERTEX
  5
381
330
373
100
AcDbEntity
  8
DIBUJOS
 62
     7
100
AcDbVertex
100
AcDb2dVertex
 10
75.61023393564969
 20
43.42868918161364
 30
0.0
  0
VERTEX
  5
382
330
373
100
AcDbEntity
  8
DIBUJOS
 62
     7
100
AcDbVertex
100
AcDb2dVertex
 10
75.57116303516948
 20
43.501228172597
 30
0.0
  0
VERTEX
  5
383
330
373
100
AcDbEntity
  8
DIBUJOS
 62
     7
100
AcDbVertex
100
AcDb2dVertex
 10
75.4511591259039
 20
43.76460328172184
 30
0.0
  0
VERTEX
  5
384
330
373
100
AcDbEntity
  8
DIBUJOS
 62
     7
100
AcDbVertex
100
AcDb2dVertex
 10
75.4366472488409
 20
43.80812667631173
 30
0.0
  0
VERTEX
  5
385
330
373
100
AcDbEntity
  8
DIBUJOS
 62
     7
100
AcDbVertex
100
AcDb2dVertex
 10
75.3621499420575
 20
44.03795663217376
 30
0.0
  0
VERTEX
  5
386
330
373
100
AcDbEntity
  8
DIBUJOS
 62
     7
100
AcDbVertex
100
AcDb2dVertex
 10
75.3451112557593
 20
44.10498386131597
 30
0.0
  0
VERTEX
  5
387
330
373
100
AcDbEntity
  8
DIBUJOS
 62
     7
100
AcDbVertex
100
AcDb2dVertex
 10
75.28976782398007
 20
44.34479506218983
 30
0.0
  0
VERTEX
  5
388
330
373
100
AcDbEntity
  8
DIBUJOS
 62
     7
100
AcDbVertex
100
AcDb2dVertex
 10
75.27989193580107
 20
44.39415461659286
 30
0.0
  0
VERTEX
  5
389
330
373
100
AcDbEntity
  8
DIBUJOS
 62
     7
100
AcDbVertex
100
AcDb2dVertex
 10
75.25118666179425
 20
44.63466267236966
 30
0.0
  0
VERTEX
  5
38A
330
373
100
AcDbEntity
  8
DIBUJOS
 62
     7
100
AcDbVertex
100
AcDb2dVertex
 10
75.24024416567362
 20
44.97483900138881
 30
0.0
  0
VERTEX
  5
38B
330
373
100
AcDbEntity
  8
DIBUJOS
 62
     7
100
AcDbVertex
100
AcDb2dVertex
 10
75.24032228343815
 20
45.02525585288576
 30
0.0
  0
VERTEX
  5
38C
330
373
100
AcDbEntity
  8
DIBUJOS
 62
     7
100
AcDbVertex
100
AcDb2dVertex
 10
75.25216012932393
 20
45.18185597023163
 30
0.0
  0
VERTEX
  5
38D
330
373
100
AcDbEntity
  8
DIBUJOS
 62
     7
100
AcDbVertex
100
AcDb2dVertex
 10
75.27645775868316
 20
45.26506104638947
 30
0.0
  0
VERTEX
  5
38E
330
373
100
AcDbEntity
  8
DIBUJOS
 62
     7
100
AcDbVertex
100
AcDb2dVertex
 10
75.32110807028215
 20
45.28738142908103
 30
0.0
  0
SEQEND
  5
38F
330
373
100
AcDbEntity
  8
DIBUJOS
 62
     7
  0
POLYLINE
  5
390
330
21B
100
AcDbEntity
  8
DIBUJOS
 62
     7
100
AcDb2dPolyline
 66
     1
 10
0.0
 20
0.0
 30
0.0
  0
VERTEX
  5
391
330
390
100
AcDbEntity
  8
DIBUJOS
 62
     7
100
AcDbVertex
100
AcDb2dVertex
 10
81.86269269293828
 20
42.61457041904327
 30
0.0
  0
VERTEX
  5
392
330
390
100
AcDbEntity
  8
DIBUJOS
 62
     7
100
AcDbVertex
100
AcDb2dVertex
 10
81.89635243594762
 20
42.62313692845462
 30
0.0
  0
VERTEX
  5
393
330
390
100
AcDbEntity
  8
DIBUJOS
 62
     7
100
AcDbVertex
100
AcDb2dVertex
 10
81.97414871602578
 20
42.6283212886384
 30
0.0
  0
VERTEX
  5
394
330
390
100
AcDbEntity
  8
DIBUJOS
 62
     7
100
AcDbVertex
100
AcDb2dVertex
 10
82.07534727569869
 20
42.64637343504887
 30
0.0
  0
VERTEX
  5
395
330
390
100
AcDbEntity
  8
DIBUJOS
 62
     7
100
AcDbVertex
100
AcDb2dVertex
 10
82.10883876506011
 20
42.65809381363348
 30
0.0
  0
VERTEX
  5
396
330
390
100
AcDbEntity
  8
DIBUJOS
 62
     7
100
AcDbVertex
100
AcDb2dVertex
 10
82.21347150185092
 20
42.71629621646053
 30
0.0
  0
VERTEX
  5
397
330
390
100
AcDbEntity
  8
DIBUJOS
 62
     7
100
AcDbVertex
100
AcDb2dVertex
 10
82.24309616185867
 20
42.73603943748446
 30
0.0
  0
VERTEX
  5
398
330
390
100
AcDbEntity
  8
DIBUJOS
 62
     7
100
AcDbVertex
100
AcDb2dVertex
 10
82.39293805272034
 20
42.86008862127836
 30
0.0
  0
VERTEX
  5
399
330
390
100
AcDbEntity
  8
DIBUJOS
 62
     7
100
AcDbVertex
100
AcDb2dVertex
 10
82.57573662670734
 20
43.05110796420088
 30
0.0
  0
VERTEX
  5
39A
330
390
100
AcDbEntity
  8
DIBUJOS
 62
     7
100
AcDbVertex
100
AcDb2dVertex
 10
82.69863690232681
 20
43.20690609767091
 30
0.0
  0
VERTEX
  5
39B
330
390
100
AcDbEntity
  8
DIBUJOS
 62
     7
100
AcDbVertex
100
AcDb2dVertex
 10
82.7544520452231
 20
43.29060678184211
 30
0.0
  0
VERTEX
  5
39C
330
390
100
AcDbEntity
  8
DIBUJOS
 62
     7
100
AcDbVertex
100
AcDb2dVertex
 10
82.85174171213052
 20
43.4565874072142
 30
0.0
  0
VERTEX
  5
39D
330
390
100
AcDbEntity
  8
DIBUJOS
 62
     7
100
AcDbVertex
100
AcDb2dVertex
 10
82.87965078584328
 20
43.51238986578484
 30
0.0
  0
VERTEX
  5
39E
330
390
100
AcDbEntity
  8
DIBUJOS
 62
     7
100
AcDbVertex
100
AcDb2dVertex
 10
82.9884898638122
 20
43.75344459221844
 30
0.0
  0
VERTEX
  5
39F
330
390
100
AcDbEntity
  8
DIBUJOS
 62
     7
100
AcDbVertex
100
AcDb2dVertex
 10
82.99965469510887
 20
43.781342817819
 30
0.0
  0
VERTEX
  5
3A0
330
390
100
AcDbEntity
  8
DIBUJOS
 62
     7
100
AcDbVertex
100
AcDb2dVertex
 10
83.09424629460328
 20
44.08259739755656
 30
0.0
  0
VERTEX
  5
3A1
330
390
100
AcDbEntity
  8
DIBUJOS
 62
     7
100
AcDbVertex
100
AcDb2dVertex
 10
83.10347019990036
 20
44.11502818371154
 30
0.0
  0
VERTEX
  5
3A2
330
390
100
AcDbEntity
  8
DIBUJOS
 62
     7
100
AcDbVertex
100
AcDb2dVertex
 10
83.16516220232741
 20
44.39409153920912
 30
0.0
  0
VERTEX
  5
3A3
330
390
100
AcDbEntity
  8
DIBUJOS
 62
     7
100
AcDbVertex
100
AcDb2dVertex
 10
83.17680775833014
 20
44.48917318556821
 30
0.0
  0
VERTEX
  5
3A4
330
390
100
AcDbEntity
  8
DIBUJOS
 62
     7
100
AcDbVertex
100
AcDb2dVertex
 10
83.19405375715819
 20
44.65140821583666
 30
0.0
  0
VERTEX
  5
3A5
330
390
100
AcDbEntity
  8
DIBUJOS
 62
     7
100
AcDbVertex
100
AcDb2dVertex
 10
83.1993116836305
 20
44.74597623207321
 30
0.0
  0
VERTEX
  5
3A6
330
390
100
AcDbEntity
  8
DIBUJOS
 62
     7
100
AcDbVertex
100
AcDb2dVertex
 10
83.20784454716178
 20
45.05302191634934
 30
0.0
  0
VERTEX
  5
3A7
330
390
100
AcDbEntity
  8
DIBUJOS
 62
     7
100
AcDbVertex
100
AcDb2dVertex
 10
83.18748886039216
 20
45.20975419583188
 30
0.0
  0
VERTEX
  5
3A8
330
390
100
AcDbEntity
  8
DIBUJOS
 62
     7
100
AcDbVertex
100
AcDb2dVertex
 10
83.18161200086077
 20
45.23214065959161
 30
0.0
  0
VERTEX
  5
3A9
330
390
100
AcDbEntity
  8
DIBUJOS
 62
     7
100
AcDbVertex
100
AcDb2dVertex
 10
83.1743560623296
 20
45.25948320348047
 30
0.0
  0
VERTEX
  5
3AA
330
390
100
AcDbEntity
  8
DIBUJOS
 62
     7
100
AcDbVertex
100
AcDb2dVertex
 10
83.15761181991414
 20
45.27622273957795
 30
0.0
  0
VERTEX
  5
3AB
330
390
100
AcDbEntity
  8
DIBUJOS
 62
     7
100
AcDbVertex
100
AcDb2dVertex
 10
83.1352851618494
 20
45.27622273957795
 30
0.0
  0
VERTEX
  5
3AC
330
390
100
AcDbEntity
  8
DIBUJOS
 62
     7
100
AcDbVertex
100
AcDb2dVertex
 10
83.12412333508131
 20
45.28738142908103
 30
0.0
  0
VERTEX
  5
3AD
330
390
100
AcDbEntity
  8
DIBUJOS
 62
     7
100
AcDbVertex
100
AcDb2dVertex
 10
83.12970274620073
 20
45.30970181177259
 30
0.0
  0
VERTEX
  5
3AE
330
390
100
AcDbEntity
  8
DIBUJOS
 62
     7
100
AcDbVertex
100
AcDb2dVertex
 10
83.07388760330443
 20
45.33760304105791
 30
0.0
  0
SEQEND
  5
3AF
330
390
100
AcDbEntity
  8
DIBUJOS
 62
     7
  0
POLYLINE
  5
3B0
330
21B
100
AcDbEntity
  8
DIBUJOS
 62
     7
100
AcDb2dPolyline
 66
     1
 10
0.0
 20
0.0
 30
0.0
  0
VERTEX
  5
3B1
330
3B0
100
AcDbEntity
  8
DIBUJOS
 62
     7
100
AcDbVertex
100
AcDb2dVertex
 10
76.61603020178661
 20
42.60898957244951
 30
0.0
  0
VERTEX
  5
3B2
330
3B0
100
AcDbEntity
  8
DIBUJOS
 62
     7
100
AcDbVertex
100
AcDb2dVertex
 10
76.61603020178661
 20
42.61457041904327
 30
0.0
  0
SEQEND
  5
3B3
330
3B0
100
AcDbEntity
  8
DIBUJOS
 62
     7
  0
POLYLINE
  5
3B4
330
21B
100
AcDbEntity
  8
DIBUJOS
 62
     7
100
AcDb2dPolyline
 66
     1
 10
0.0
 20
0.0
 30
0.0
  0
VERTEX
  5
3B5
330
3B4
100
AcDbEntity
  8
DIBUJOS
 62
     7
100
AcDbVertex
100
AcDb2dVertex
 10
76.62161261743526
 20
42.60898957244951
 30
0.0
  0
VERTEX
  5
3B6
330
3B4
100
AcDbEntity
  8
DIBUJOS
 62
     7
100
AcDbVertex
100
AcDb2dVertex
 10
76.61603020178661
 20
42.60898957244951
 30
0.0
  0
SEQEND
  5
3B7
330
3B4
100
AcDbEntity
  8
DIBUJOS
 62
     7
  0
POLYLINE
  5
3B8
330
21B
100
AcDbEntity
  8
DIBUJOS
 62
     7
100
AcDb2dPolyline
 66
     1
 10
0.0
 20
0.0
 30
0.0
  0
VERTEX
  5
3B9
330
3B8
100
AcDbEntity
  8
DIBUJOS
 62
     7
100
AcDbVertex
100
AcDb2dVertex
 10
76.62161261743526
 20
42.60898957244951
 30
0.0
  0
VERTEX
  5
3BA
330
3B8
100
AcDbEntity
  8
DIBUJOS
 62
     7
100
AcDbVertex
100
AcDb2dVertex
 10
76.62719202855405
 20
42.61457041904327
 30
0.0
  0
VERTEX
  5
3BB
330
3B8
100
AcDbEntity
  8
DIBUJOS
 62
     7
100
AcDbVertex
100
AcDb2dVertex
 10
77.02348344900733
 20
42.61457041904327
 30
0.0
  0
VERTEX
  5
3BC
330
3B8
100
AcDbEntity
  8
DIBUJOS
 62
     7
100
AcDbVertex
100
AcDb2dVertex
 10
79.46823898668569
 20
42.61181603996571
 30
0.0
  0
VERTEX
  5
3BD
330
3B8
100
AcDbEntity
  8
DIBUJOS
 62
     7
100
AcDbVertex
100
AcDb2dVertex
 10
79.90914766891512
 20
42.62014826195259
 30
0.0
  0
SEQEND
  5
3BE
330
3B8
100
AcDbEntity
  8
DIBUJOS
 62
     7
  0
POLYLINE
  5
3BF
330
21B
100
AcDbEntity
  8
DIBUJOS
 62
     7
100
AcDb2dPolyline
 66
     1
 10
0.0
 20
0.0
 30
0.0
  0
VERTEX
  5
3C0
330
3BF
100
AcDbEntity
  8
DIBUJOS
 62
     7
100
AcDbVertex
100
AcDb2dVertex
 10
81.85711027729026
 20
42.60898957244951
 30
0.0
  0
VERTEX
  5
3C1
330
3BF
100
AcDbEntity
  8
DIBUJOS
 62
     7
100
AcDbVertex
100
AcDb2dVertex
 10
81.83478361922616
 20
42.61457041904327
 30
0.0
  0
VERTEX
  5
3C2
330
3BF
100
AcDbEntity
  8
DIBUJOS
 62
     7
100
AcDbVertex
100
AcDb2dVertex
 10
79.9702958515184
 20
42.61208336792411
 30
0.0
  0
VERTEX
  5
3C3
330
3BF
100
AcDbEntity
  8
DIBUJOS
 62
     7
100
AcDbVertex
100
AcDb2dVertex
 10
79.91473008456315
 20
42.62014826195259
 30
0.0
  0
SEQEND
  5
3C4
330
3BF
100
AcDbEntity
  8
DIBUJOS
 62
     7
  0
POLYLINE
  5
3C5
330
21B
100
AcDbEntity
  8
DIBUJOS
 62
     7
100
AcDb2dPolyline
 66
     1
 10
0.0
 20
0.0
 30
0.0
  0
VERTEX
  5
3C6
330
3C5
100
AcDbEntity
  8
DIBUJOS
 62
     7
100
AcDbVertex
100
AcDb2dVertex
 10
81.86269269293828
 20
42.60898957244951
 30
0.0
  0
VERTEX
  5
3C7
330
3C5
100
AcDbEntity
  8
DIBUJOS
 62
     7
100
AcDbVertex
100
AcDb2dVertex
 10
81.85711027729026
 20
42.60898957244951
 30
0.0
  0
SEQEND
  5
3C8
330
3C5
100
AcDbEntity
  8
DIBUJOS
 62
     7
  0
POLYLINE
  5
3C9
330
21B
100
AcDbEntity
  8
DIBUJOS
 62
     7
100
AcDb2dPolyline
 66
     1
 10
0.0
 20
0.0
 30
0.0
  0
VERTEX
  5
3CA
330
3C9
100
AcDbEntity
  8
DIBUJOS
 62
     7
100
AcDbVertex
100
AcDb2dVertex
 10
81.86269269293828
 20
42.60898957244951
 30
0.0
  0
VERTEX
  5
3CB
330
3C9
100
AcDbEntity
  8
DIBUJOS
 62
     7
100
AcDbVertex
100
AcDb2dVertex
 10
81.86269269293828
 20
42.61457041904327
 30
0.0
  0
SEQEND
  5
3CC
330
3C9
100
AcDbEntity
  8
DIBUJOS
 62
     7
  0
POLYLINE
  5
3CD
330
21B
100
AcDbEntity
  8
DIBUJOS
 62
     7
100
AcDb2dPolyline
 66
     1
 10
0.0
 20
0.0
 30
0.0
  0
VERTEX
  5
3CE
330
3CD
100
AcDbEntity
  8
DIBUJOS
 62
     7
100
AcDbVertex
100
AcDb2dVertex
 10
76.61603020178661
 20
42.60898957244951
 30
0.0
  0
VERTEX
  5
3CF
330
3CD
100
AcDbEntity
  8
DIBUJOS
 62
     7
100
AcDbVertex
100
AcDb2dVertex
 10
76.59928595937116
 20
42.60340872585511
 30
0.0
  0
VERTEX
  5
3D0
330
3CD
100
AcDbEntity
  8
DIBUJOS
 62
     7
100
AcDbVertex
100
AcDb2dVertex
 10
76.58644760519132
 20
42.58164702856033
 30
0.0
  0
VERTEX
  5
3D1
330
3CD
100
AcDbEntity
  8
DIBUJOS
 62
     7
100
AcDbVertex
100
AcDb2dVertex
 10
76.58254171695506
 20
42.57550749657011
 30
0.0
  0
VERTEX
  5
3D2
330
3CD
100
AcDbEntity
  8
DIBUJOS
 62
     7
100
AcDbVertex
100
AcDb2dVertex
 10
76.58537799272044
 20
42.40806407663823
 30
0.0
  0
VERTEX
  5
3D3
330
3CD
100
AcDbEntity
  8
DIBUJOS
 62
     7
100
AcDbVertex
100
AcDb2dVertex
 10
76.58812112807384
 20
42.07889024550617
 30
0.0
  0
VERTEX
  5
3D4
330
3CD
100
AcDbEntity
  8
DIBUJOS
 62
     7
100
AcDbVertex
100
AcDb2dVertex
 10
76.61603020178661
 20
42.06215070940869
 30
0.0
  0
VERTEX
  5
3D5
330
3CD
100
AcDbEntity
  8
DIBUJOS
 62
     7
100
AcDbVertex
100
AcDb2dVertex
 10
81.85152786164225
 20
42.06215070940869
 30
0.0
  0
VERTEX
  5
3D6
330
3CD
100
AcDbEntity
  8
DIBUJOS
 62
     7
100
AcDbVertex
100
AcDb2dVertex
 10
81.87943693535502
 20
42.07889024550617
 30
0.0
  0
VERTEX
  5
3D7
330
3CD
100
AcDbEntity
  8
DIBUJOS
 62
     7
100
AcDbVertex
100
AcDb2dVertex
 10
81.88222814317871
 20
42.1570100830833
 30
0.0
  0
VERTEX
  5
3D8
330
3CD
100
AcDbEntity
  8
DIBUJOS
 62
     7
100
AcDbVertex
100
AcDb2dVertex
 10
81.88055161576695
 20
42.58722787515408
 30
0.0
  0
VERTEX
  5
3D9
330
3CD
100
AcDbEntity
  8
DIBUJOS
 62
     7
100
AcDbVertex
100
AcDb2dVertex
 10
81.86269269293828
 20
42.60898957244951
 30
0.0
  0
SEQEND
  5
3DA
330
3CD
100
AcDbEntity
  8
DIBUJOS
 62
     7
  0
ENDBLK
  5
21E
330
21B
100
AcDbEntity
  8
0
100
AcDbBlockEnd
  0
BLOCK
  5
3DD
330
3DB
100
AcDbEntity
  8
0
100
AcDbBlockBegin
  2
BLOCK_4
 70
     0
 10
0.0
 20
0.0
 30
0.0
  3
BLOCK_4
  1

  0
POLYLINE
  5
3DF
330
3DB
100
AcDbEntity
  8
DIBUJOS
 62
     7
100
AcDb2dPolyline
 66
     1
 10
0.0
 20
0.0
 30
0.0
  0
VERTEX
  5
3E0
330
3DF
100
AcDbEntity
  8
DIBUJOS
 62
     7
100
AcDbVertex
100
AcDb2dVertex
 10
64.90718652254127
 20
32.96304584399097
 30
0.0
  0
VERTEX
  5
3E1
330
3DF
100
AcDbEntity
  8
DIBUJOS
 62
     7
100
AcDbVertex
100
AcDb2dVertex
 10
64.90160410689293
 20
32.96304584399097
 30
0.0
  0
SEQEND
  5
3E2
330
3DF
100
AcDbEntity
  8
DIBUJOS
 62
     7
  0
POLYLINE
  5
3E3
330
3DB
100
AcDbEntity
  8
DIBUJOS
 62
     7
100
AcDb2dPolyline
 66
     1
 10
0.0
 20
0.0
 30
0.0
  0
VERTEX
  5
3E4
330
3E3
100
AcDbEntity
  8
DIBUJOS
 62
     7
100
AcDbVertex
100
AcDb2dVertex
 10
64.90718652254127
 20
32.96304584399097
 30
0.0
  0
VERTEX
  5
3E5
330
3E3
100
AcDbEntity
  8
DIBUJOS
 62
     7
100
AcDbVertex
100
AcDb2dVertex
 10
64.90718652254127
 20
32.96862518874267
 30
0.0
  0
SEQEND
  5
3E6
330
3E3
100
AcDbEntity
  8
DIBUJOS
 62
     7
  0
POLYLINE
  5
3E7
330
3DB
100
AcDbEntity
  8
DIBUJOS
 62
     7
100
AcDb2dPolyline
 66
     1
 10
0.0
 20
0.0
 30
0.0
  0
VERTEX
  5
3E8
330
3E7
100
AcDbEntity
  8
DIBUJOS
 62
     7
100
AcDbVertex
100
AcDb2dVertex
 10
64.91276743592499
 20
32.96304584399097
 30
0.0
  0
VERTEX
  5
3E9
330
3E7
100
AcDbEntity
  8
DIBUJOS
 62
     7
100
AcDbVertex
100
AcDb2dVertex
 10
64.90718652254127
 20
32.96304584399097
 30
0.0
  0
SEQEND
  5
3EA
330
3E7
100
AcDbEntity
  8
DIBUJOS
 62
     7
  0
POLYLINE
  5
3EB
330
3DB
100
AcDbEntity
  8
DIBUJOS
 62
     7
100
AcDb2dPolyline
 66
     1
 10
0.0
 20
0.0
 30
0.0
  0
VERTEX
  5
3EC
330
3EB
100
AcDbEntity
  8
DIBUJOS
 62
     7
100
AcDbVertex
100
AcDb2dVertex
 10
64.94067500737346
 20
32.96304584399097
 30
0.0
  0
VERTEX
  5
3ED
330
3EB
100
AcDbEntity
  8
DIBUJOS
 62
     7
100
AcDbVertex
100
AcDb2dVertex
 10
64.93509409398975
 20
32.96304584399097
 30
0.0
  0
SEQEND
  5
3EE
330
3EB
100
AcDbEntity
  8
DIBUJOS
 62
     7
  0
POLYLINE
  5
3EF
330
3DB
100
AcDbEntity
  8
DIBUJOS
 62
     7
100
AcDb2dPolyline
 66
     1
 10
0.0
 20
0.0
 30
0.0
  0
VERTEX
  5
3F0
330
3EF
100
AcDbEntity
  8
DIBUJOS
 62
     7
100
AcDbVertex
100
AcDb2dVertex
 10
64.94067500737346
 20
32.96304584399097
 30
0.0
  0
VERTEX
  5
3F1
330
3EF
100
AcDbEntity
  8
DIBUJOS
 62
     7
100
AcDbVertex
100
AcDb2dVertex
 10
64.94067500737346
 20
32.96862518874267
 30
0.0
  0
SEQEND
  5
3F2
330
3EF
100
AcDbEntity
  8
DIBUJOS
 62
     7
  0
POLYLINE
  5
3F3
330
3DB
100
AcDbEntity
  8
DIBUJOS
 62
     7
100
AcDb2dPolyline
 66
     1
 10
0.0
 20
0.0
 30
0.0
  0
VERTEX
  5
3F4
330
3F3
100
AcDbEntity
  8
DIBUJOS
 62
     7
100
AcDbVertex
100
AcDb2dVertex
 10
64.94625742302179
 20
32.96304584399097
 30
0.0
  0
VERTEX
  5
3F5
330
3F3
100
AcDbEntity
  8
DIBUJOS
 62
     7
100
AcDbVertex
100
AcDb2dVertex
 10
64.94067500737346
 20
32.96304584399097
 30
0.0
  0
SEQEND
  5
3F6
330
3F3
100
AcDbEntity
  8
DIBUJOS
 62
     7
  0
POLYLINE
  5
3F7
330
3DB
100
AcDbEntity
  8
DIBUJOS
 62
     7
100
AcDb2dPolyline
 66
     1
 10
0.0
 20
0.0
 30
0.0
  0
VERTEX
  5
3F8
330
3F7
100
AcDbEntity
  8
DIBUJOS
 62
     7
100
AcDbVertex
100
AcDb2dVertex
 10
64.91276743592499
 20
32.96304584399097
 30
0.0
  0
VERTEX
  5
3F9
330
3F7
100
AcDbEntity
  8
DIBUJOS
 62
     7
100
AcDbVertex
100
AcDb2dVertex
 10
64.91834985157365
 20
32.95746499739721
 30
0.0
  0
VERTEX
  5
3FA
330
3F7
100
AcDbEntity
  8
DIBUJOS
 62
     7
100
AcDbVertex
100
AcDb2dVertex
 10
64.93509409398975
 20
32.96304584399097
 30
0.0
  0
SEQEND
  5
3FB
330
3F7
100
AcDbEntity
  8
DIBUJOS
 62
     7
  0
POLYLINE
  5
3FC
330
3DB
100
AcDbEntity
  8
DIBUJOS
 62
     7
100
AcDb2dPolyline
 66
     1
 10
0.0
 20
0.0
 30
0.0
  0
VERTEX
  5
3FD
330
3FC
100
AcDbEntity
  8
DIBUJOS
 62
     7
100
AcDbVertex
100
AcDb2dVertex
 10
66.31931985322237
 20
32.63382695758532
 30
0.0
  0
VERTEX
  5
3FE
330
3FC
100
AcDbEntity
  8
DIBUJOS
 62
     7
100
AcDbVertex
100
AcDb2dVertex
 10
66.28638870859646
 20
32.65168236263269
 30
0.0
  0
VERTEX
  5
3FF
330
3FC
100
AcDbEntity
  8
DIBUJOS
 62
     7
100
AcDbVertex
100
AcDb2dVertex
 10
66.07987087716177
 20
32.74654173630729
 30
0.0
  0
VERTEX
  5
400
330
3FC
100
AcDbEntity
  8
DIBUJOS
 62
     7
100
AcDbVertex
100
AcDb2dVertex
 10
66.04526470738841
 20
32.76049235094995
 30
0.0
  0
VERTEX
  5
401
330
3FC
100
AcDbEntity
  8
DIBUJOS
 62
     7
100
AcDbVertex
100
AcDb2dVertex
 10
65.83316596257
 20
32.83861218852676
 30
0.0
  0
VERTEX
  5
402
330
3FC
100
AcDbEntity
  8
DIBUJOS
 62
     7
100
AcDbVertex
100
AcDb2dVertex
 10
65.66118820126171
 20
32.88689492188396
 30
0.0
  0
VERTEX
  5
403
330
3FC
100
AcDbEntity
  8
DIBUJOS
 62
     7
100
AcDbVertex
100
AcDb2dVertex
 10
65.51587563848956
 20
32.91523018364129
 30
0.0
  0
VERTEX
  5
404
330
3FC
100
AcDbEntity
  8
DIBUJOS
 62
     7
100
AcDbVertex
100
AcDb2dVertex
 10
65.393116575753
 20
32.93190964603947
 30
0.0
  0
VERTEX
  5
405
330
3FC
100
AcDbEntity
  8
DIBUJOS
 62
     7
100
AcDbVertex
100
AcDb2dVertex
 10
65.30335025049449
 20
32.94365405410375
 30
0.0
  0
VERTEX
  5
406
330
3FC
100
AcDbEntity
  8
DIBUJOS
 62
     7
100
AcDbVertex
100
AcDb2dVertex
 10
64.94625742302179
 20
32.96304584399097
 30
0.0
  0
SEQEND
  5
407
330
3FC
100
AcDbEntity
  8
DIBUJOS
 62
     7
  0
POLYLINE
  5
408
330
3DB
100
AcDbEntity
  8
DIBUJOS
 62
     7
100
AcDb2dPolyline
 66
     1
 10
0.0
 20
0.0
 30
0.0
  0
VERTEX
  5
409
330
408
100
AcDbEntity
  8
DIBUJOS
 62
     7
100
AcDbVertex
100
AcDb2dVertex
 10
66.32490076660609
 20
32.63382695758532
 30
0.0
  0
VERTEX
  5
40A
330
408
100
AcDbEntity
  8
DIBUJOS
 62
     7
100
AcDbVertex
100
AcDb2dVertex
 10
66.31931985322237
 20
32.63382695758532
 30
0.0
  0
SEQEND
  5
40B
330
408
100
AcDbEntity
  8
DIBUJOS
 62
     7
  0
POLYLINE
  5
40C
330
3DB
100
AcDbEntity
  8
DIBUJOS
 62
     7
100
AcDb2dPolyline
 66
     1
 10
0.0
 20
0.0
 30
0.0
  0
VERTEX
  5
40D
330
40C
100
AcDbEntity
  8
DIBUJOS
 62
     7
100
AcDbVertex
100
AcDb2dVertex
 10
66.31931985322237
 20
32.62824611099092
 30
0.0
  0
VERTEX
  5
40E
330
40C
100
AcDbEntity
  8
DIBUJOS
 62
     7
100
AcDbVertex
100
AcDb2dVertex
 10
66.31931985322237
 20
32.63382695758532
 30
0.0
  0
SEQEND
  5
40F
330
40C
100
AcDbEntity
  8
DIBUJOS
 62
     7
  0
POLYLINE
  5
410
330
3DB
100
AcDbEntity
  8
DIBUJOS
 62
     7
100
AcDb2dPolyline
 66
     1
 10
0.0
 20
0.0
 30
0.0
  0
VERTEX
  5
411
330
410
100
AcDbEntity
  8
DIBUJOS
 62
     7
100
AcDbVertex
100
AcDb2dVertex
 10
67.09515544718329
 20
32.0144476017194
 30
0.0
  0
VERTEX
  5
412
330
410
100
AcDbEntity
  8
DIBUJOS
 62
     7
100
AcDbVertex
100
AcDb2dVertex
 10
67.09751700730173
 20
32.01788231543311
 30
0.0
  0
VERTEX
  5
413
330
410
100
AcDbEntity
  8
DIBUJOS
 62
     7
100
AcDbVertex
100
AcDb2dVertex
 10
67.02123350778253
 20
32.11379898620164
 30
0.0
  0
VERTEX
  5
414
330
410
100
AcDbEntity
  8
DIBUJOS
 62
     7
100
AcDbVertex
100
AcDb2dVertex
 10
67.00163045563053
 20
32.13829704046481
 30
0.0
  0
VERTEX
  5
415
330
410
100
AcDbEntity
  8
DIBUJOS
 62
     7
100
AcDbVertex
100
AcDb2dVertex
 10
66.77809647186753
 20
32.35060800399111
 30
0.0
  0
VERTEX
  5
416
330
410
100
AcDbEntity
  8
DIBUJOS
 62
     7
100
AcDbVertex
100
AcDb2dVertex
 10
66.69987054408348
 20
32.40638643308241
 30
0.0
  0
VERTEX
  5
417
330
410
100
AcDbEntity
  8
DIBUJOS
 62
     7
100
AcDbVertex
100
AcDb2dVertex
 10
66.47504461267357
 20
32.55459125105767
 30
0.0
  0
VERTEX
  5
418
330
410
100
AcDbEntity
  8
DIBUJOS
 62
     7
100
AcDbVertex
100
AcDb2dVertex
 10
66.32490076660609
 20
32.63382695758532
 30
0.0
  0
SEQEND
  5
419
330
410
100
AcDbEntity
  8
DIBUJOS
 62
     7
  0
POLYLINE
  5
41A
330
3DB
100
AcDbEntity
  8
DIBUJOS
 62
     7
100
AcDb2dPolyline
 66
     1
 10
0.0
 20
0.0
 30
0.0
  0
VERTEX
  5
41B
330
41A
100
AcDbEntity
  8
DIBUJOS
 62
     7
100
AcDbVertex
100
AcDb2dVertex
 10
67.08957453379989
 20
32.0088682569677
 30
0.0
  0
VERTEX
  5
41C
330
41A
100
AcDbEntity
  8
DIBUJOS
 62
     7
100
AcDbVertex
100
AcDb2dVertex
 10
67.09515544718329
 20
32.0144476017194
 30
0.0
  0
SEQEND
  5
41D
330
41A
100
AcDbEntity
  8
DIBUJOS
 62
     7
  0
POLYLINE
  5
41E
330
3DB
100
AcDbEntity
  8
DIBUJOS
 62
     7
100
AcDb2dPolyline
 66
     1
 10
0.0
 20
0.0
 30
0.0
  0
VERTEX
  5
41F
330
41E
100
AcDbEntity
  8
DIBUJOS
 62
     7
100
AcDbVertex
100
AcDb2dVertex
 10
67.10073786283195
 20
32.0088682569677
 30
0.0
  0
VERTEX
  5
420
330
41E
100
AcDbEntity
  8
DIBUJOS
 62
     7
100
AcDbVertex
100
AcDb2dVertex
 10
67.09515544718329
 20
32.0144476017194
 30
0.0
  0
SEQEND
  5
421
330
41E
100
AcDbEntity
  8
DIBUJOS
 62
     7
  0
POLYLINE
  5
422
330
3DB
100
AcDbEntity
  8
DIBUJOS
 62
     7
100
AcDb2dPolyline
 66
     1
 10
0.0
 20
0.0
 30
0.0
  0
VERTEX
  5
423
330
422
100
AcDbEntity
  8
DIBUJOS
 62
     7
100
AcDbVertex
100
AcDb2dVertex
 10
67.09515544718329
 20
32.003288912216
 30
0.0
  0
VERTEX
  5
424
330
422
100
AcDbEntity
  8
DIBUJOS
 62
     7
100
AcDbVertex
100
AcDb2dVertex
 10
67.08957453379989
 20
32.0088682569677
 30
0.0
  0
SEQEND
  5
425
330
422
100
AcDbEntity
  8
DIBUJOS
 62
     7
  0
POLYLINE
  5
426
330
3DB
100
AcDbEntity
  8
DIBUJOS
 62
     7
100
AcDb2dPolyline
 66
     1
 10
0.0
 20
0.0
 30
0.0
  0
VERTEX
  5
427
330
426
100
AcDbEntity
  8
DIBUJOS
 62
     7
100
AcDbVertex
100
AcDb2dVertex
 10
67.09515544718329
 20
32.003288912216
 30
0.0
  0
VERTEX
  5
428
330
426
100
AcDbEntity
  8
DIBUJOS
 62
     7
100
AcDbVertex
100
AcDb2dVertex
 10
67.10073786283195
 20
32.0088682569677
 30
0.0
  0
SEQEND
  5
429
330
426
100
AcDbEntity
  8
DIBUJOS
 62
     7
  0
POLYLINE
  5
42A
330
3DB
100
AcDbEntity
  8
DIBUJOS
 62
     7
100
AcDb2dPolyline
 66
     1
 10
0.0
 20
0.0
 30
0.0
  0
VERTEX
  5
42B
330
42A
100
AcDbEntity
  8
DIBUJOS
 62
     7
100
AcDbVertex
100
AcDb2dVertex
 10
67.27376570716952
 20
31.78008808898771
 30
0.0
  0
VERTEX
  5
42C
330
42A
100
AcDbEntity
  8
DIBUJOS
 62
     7
100
AcDbVertex
100
AcDb2dVertex
 10
67.26388981899052
 20
31.79210733422228
 30
0.0
  0
VERTEX
  5
42D
330
42A
100
AcDbEntity
  8
DIBUJOS
 62
     7
100
AcDbVertex
100
AcDb2dVertex
 10
67.12306301863177
 20
31.9921287208699
 30
0.0
  0
VERTEX
  5
42E
330
42A
100
AcDbEntity
  8
DIBUJOS
 62
     7
100
AcDbVertex
100
AcDb2dVertex
 10
67.10073786283195
 20
32.0088682569677
 30
0.0
  0
SEQEND
  5
42F
330
42A
100
AcDbEntity
  8
DIBUJOS
 62
     7
  0
POLYLINE
  5
430
330
3DB
100
AcDbEntity
  8
DIBUJOS
 62
     7
100
AcDb2dPolyline
 66
     1
 10
0.0
 20
0.0
 30
0.0
  0
VERTEX
  5
431
330
430
100
AcDbEntity
  8
DIBUJOS
 62
     7
100
AcDbVertex
100
AcDb2dVertex
 10
67.27376570716952
 20
31.77450874423602
 30
0.0
  0
VERTEX
  5
432
330
430
100
AcDbEntity
  8
DIBUJOS
 62
     7
100
AcDbVertex
100
AcDb2dVertex
 10
67.27376570716952
 20
31.78008808898771
 30
0.0
  0
SEQEND
  5
433
330
430
100
AcDbEntity
  8
DIBUJOS
 62
     7
  0
POLYLINE
  5
434
330
3DB
100
AcDbEntity
  8
DIBUJOS
 62
     7
100
AcDb2dPolyline
 66
     1
 10
0.0
 20
0.0
 30
0.0
  0
VERTEX
  5
435
330
434
100
AcDbEntity
  8
DIBUJOS
 62
     7
100
AcDbVertex
100
AcDb2dVertex
 10
68.74171418074755
 20
30.13957300170796
 30
0.0
  0
VERTEX
  5
436
330
434
100
AcDbEntity
  8
DIBUJOS
 62
     7
100
AcDbVertex
100
AcDb2dVertex
 10
68.76404083881198
 20
30.19537320751519
 30
0.0
  0
SEQEND
  5
437
330
434
100
AcDbEntity
  8
DIBUJOS
 62
     7
  0
POLYLINE
  5
438
330
3DB
100
AcDbEntity
  8
DIBUJOS
 62
     7
100
AcDb2dPolyline
 66
     1
 10
0.0
 20
0.0
 30
0.0
  0
VERTEX
  5
439
330
438
100
AcDbEntity
  8
DIBUJOS
 62
     7
100
AcDbVertex
100
AcDb2dVertex
 10
61.12289234271542
 20
30.10051308291924
 30
0.0
  0
VERTEX
  5
43A
330
438
100
AcDbEntity
  8
DIBUJOS
 62
     7
100
AcDbVertex
100
AcDb2dVertex
 10
61.10614734916718
 20
30.1284128103625
 30
0.0
  0
SEQEND
  5
43B
330
438
100
AcDbEntity
  8
DIBUJOS
 62
     7
  0
POLYLINE
  5
43C
330
3DB
100
AcDbEntity
  8
DIBUJOS
 62
     7
100
AcDb2dPolyline
 66
     1
 10
0.0
 20
0.0
 30
0.0
  0
VERTEX
  5
43D
330
43C
100
AcDbEntity
  8
DIBUJOS
 62
     7
100
AcDbVertex
100
AcDb2dVertex
 10
68.72496993833145
 20
30.07819270022832
 30
0.0
  0
VERTEX
  5
43E
330
43C
100
AcDbEntity
  8
DIBUJOS
 62
     7
100
AcDbVertex
100
AcDb2dVertex
 10
68.71938752268312
 20
30.07819270022832
 30
0.0
  0
SEQEND
  5
43F
330
43C
100
AcDbEntity
  8
DIBUJOS
 62
     7
  0
POLYLINE
  5
440
330
3DB
100
AcDbEntity
  8
DIBUJOS
 62
     7
100
AcDb2dPolyline
 66
     1
 10
0.0
 20
0.0
 30
0.0
  0
VERTEX
  5
441
330
440
100
AcDbEntity
  8
DIBUJOS
 62
     7
100
AcDbVertex
100
AcDb2dVertex
 10
68.72496993833145
 20
30.07819270022832
 30
0.0
  0
VERTEX
  5
442
330
440
100
AcDbEntity
  8
DIBUJOS
 62
     7
100
AcDbVertex
100
AcDb2dVertex
 10
68.73055085171549
 20
30.08377279590073
 30
0.0
  0
VERTEX
  5
443
330
440
100
AcDbEntity
  8
DIBUJOS
 62
     7
100
AcDbVertex
100
AcDb2dVertex
 10
68.73055085171549
 20
30.12283271468945
 30
0.0
  0
SEQEND
  5
444
330
440
100
AcDbEntity
  8
DIBUJOS
 62
     7
  0
POLYLINE
  5
445
330
3DB
100
AcDbEntity
  8
DIBUJOS
 62
     7
100
AcDb2dPolyline
 66
     1
 10
0.0
 20
0.0
 30
0.0
  0
VERTEX
  5
446
330
445
100
AcDbEntity
  8
DIBUJOS
 62
     7
100
AcDbVertex
100
AcDb2dVertex
 10
68.72496993833145
 20
30.07261335547662
 30
0.0
  0
VERTEX
  5
447
330
445
100
AcDbEntity
  8
DIBUJOS
 62
     7
100
AcDbVertex
100
AcDb2dVertex
 10
68.72496993833145
 20
30.07819270022832
 30
0.0
  0
SEQEND
  5
448
330
445
100
AcDbEntity
  8
DIBUJOS
 62
     7
  0
POLYLINE
  5
449
330
3DB
100
AcDbEntity
  8
DIBUJOS
 62
     7
100
AcDb2dPolyline
 66
     1
 10
0.0
 20
0.0
 30
0.0
  0
VERTEX
  5
44A
330
449
100
AcDbEntity
  8
DIBUJOS
 62
     7
100
AcDbVertex
100
AcDb2dVertex
 10
61.13405492061533
 20
30.06145316413116
 30
0.0
  0
VERTEX
  5
44B
330
449
100
AcDbEntity
  8
DIBUJOS
 62
     7
100
AcDbVertex
100
AcDb2dVertex
 10
61.13963658513152
 20
30.06703325980421
 30
0.0
  0
SEQEND
  5
44C
330
449
100
AcDbEntity
  8
DIBUJOS
 62
     7
  0
POLYLINE
  5
44D
330
3DB
100
AcDbEntity
  8
DIBUJOS
 62
     7
100
AcDb2dPolyline
 66
     1
 10
0.0
 20
0.0
 30
0.0
  0
VERTEX
  5
44E
330
44D
100
AcDbEntity
  8
DIBUJOS
 62
     7
100
AcDbVertex
100
AcDb2dVertex
 10
68.70822419365075
 20
30.06145316413116
 30
0.0
  0
VERTEX
  5
44F
330
44D
100
AcDbEntity
  8
DIBUJOS
 62
     7
100
AcDbVertex
100
AcDb2dVertex
 10
68.70822419365075
 20
30.07819270022832
 30
0.0
  0
VERTEX
  5
450
330
44D
100
AcDbEntity
  8
DIBUJOS
 62
     7
100
AcDbVertex
100
AcDb2dVertex
 10
68.7138066092994
 20
30.08377279590073
 30
0.0
  0
VERTEX
  5
451
330
44D
100
AcDbEntity
  8
DIBUJOS
 62
     7
100
AcDbVertex
100
AcDb2dVertex
 10
68.71938752268312
 20
30.07819270022832
 30
0.0
  0
SEQEND
  5
452
330
44D
100
AcDbEntity
  8
DIBUJOS
 62
     7
  0
POLYLINE
  5
453
330
3DB
100
AcDbEntity
  8
DIBUJOS
 62
     7
100
AcDb2dPolyline
 66
     1
 10
0.0
 20
0.0
 30
0.0
  0
VERTEX
  5
454
330
453
100
AcDbEntity
  8
DIBUJOS
 62
     7
100
AcDbVertex
100
AcDb2dVertex
 10
61.98245140215359
 20
29.89405329763082
 30
0.0
  0
VERTEX
  5
455
330
453
100
AcDbEntity
  8
DIBUJOS
 62
     7
100
AcDbVertex
100
AcDb2dVertex
 10
61.97686973763741
 20
29.89405329763082
 30
0.0
  0
SEQEND
  5
456
330
453
100
AcDbEntity
  8
DIBUJOS
 62
     7
  0
POLYLINE
  5
457
330
3DB
100
AcDbEntity
  8
DIBUJOS
 62
     7
100
AcDb2dPolyline
 66
     1
 10
0.0
 20
0.0
 30
0.0
  0
VERTEX
  5
458
330
457
100
AcDbEntity
  8
DIBUJOS
 62
     7
100
AcDbVertex
100
AcDb2dVertex
 10
61.99361473118629
 20
29.89405329763082
 30
0.0
  0
VERTEX
  5
459
330
457
100
AcDbEntity
  8
DIBUJOS
 62
     7
100
AcDbVertex
100
AcDb2dVertex
 10
61.98803306666978
 20
29.89963339330387
 30
0.0
  0
VERTEX
  5
45A
330
457
100
AcDbEntity
  8
DIBUJOS
 62
     7
100
AcDbVertex
100
AcDb2dVertex
 10
61.98245140215359
 20
29.89405329763082
 30
0.0
  0
SEQEND
  5
45B
330
457
100
AcDbEntity
  8
DIBUJOS
 62
     7
  0
POLYLINE
  5
45C
330
3DB
100
AcDbEntity
  8
DIBUJOS
 62
     7
100
AcDb2dPolyline
 66
     1
 10
0.0
 20
0.0
 30
0.0
  0
VERTEX
  5
45D
330
45C
100
AcDbEntity
  8
DIBUJOS
 62
     7
100
AcDbVertex
100
AcDb2dVertex
 10
61.99919639570216
 20
29.89405329763082
 30
0.0
  0
VERTEX
  5
45E
330
45C
100
AcDbEntity
  8
DIBUJOS
 62
     7
100
AcDbVertex
100
AcDb2dVertex
 10
61.99361473118629
 20
29.89405329763082
 30
0.0
  0
SEQEND
  5
45F
330
45C
100
AcDbEntity
  8
DIBUJOS
 62
     7
  0
POLYLINE
  5
460
330
3DB
100
AcDbEntity
  8
DIBUJOS
 62
     7
100
AcDb2dPolyline
 66
     1
 10
0.0
 20
0.0
 30
0.0
  0
VERTEX
  5
461
330
460
100
AcDbEntity
  8
DIBUJOS
 62
     7
100
AcDbVertex
100
AcDb2dVertex
 10
61.99919639570216
 20
29.89405329763082
 30
0.0
  0
VERTEX
  5
462
330
460
100
AcDbEntity
  8
DIBUJOS
 62
     7
100
AcDbVertex
100
AcDb2dVertex
 10
62.00533615155646
 20
29.89851752435365
 30
0.0
  0
VERTEX
  5
463
330
460
100
AcDbEntity
  8
DIBUJOS
 62
     7
100
AcDbVertex
100
AcDb2dVertex
 10
62.06059320311465
 20
29.93311321641954
 30
0.0
  0
VERTEX
  5
464
330
460
100
AcDbEntity
  8
DIBUJOS
 62
     7
100
AcDbVertex
100
AcDb2dVertex
 10
62.11082743262755
 20
29.98333332655372
 30
0.0
  0
VERTEX
  5
465
330
460
100
AcDbEntity
  8
DIBUJOS
 62
     7
100
AcDbVertex
100
AcDb2dVertex
 10
62.18785305091173
 20
30.11781130441318
 30
0.0
  0
VERTEX
  5
466
330
460
100
AcDbEntity
  8
DIBUJOS
 62
     7
100
AcDbVertex
100
AcDb2dVertex
 10
62.21296941453556
 20
30.18365508169431
 30
0.0
  0
VERTEX
  5
467
330
460
100
AcDbEntity
  8
DIBUJOS
 62
     7
100
AcDbVertex
100
AcDb2dVertex
 10
62.23694030132105
 20
30.26828991187801
 30
0.0
  0
VERTEX
  5
468
330
460
100
AcDbEntity
  8
DIBUJOS
 62
     7
100
AcDbVertex
100
AcDb2dVertex
 10
62.24704753826472
 20
30.32891553752009
 30
0.0
  0
VERTEX
  5
469
330
460
100
AcDbEntity
  8
DIBUJOS
 62
     7
100
AcDbVertex
100
AcDb2dVertex
 10
62.26967164474113
 20
30.53555479298346
 30
0.0
  0
VERTEX
  5
46A
330
460
100
AcDbEntity
  8
DIBUJOS
 62
     7
100
AcDbVertex
100
AcDb2dVertex
 10
62.27528560794833
 20
30.61927875571265
 30
0.0
  0
VERTEX
  5
46B
330
460
100
AcDbEntity
  8
DIBUJOS
 62
     7
100
AcDbVertex
100
AcDb2dVertex
 10
62.31410788361996
 20
31.03203612730367
 30
0.0
  0
VERTEX
  5
46C
330
460
100
AcDbEntity
  8
DIBUJOS
 62
     7
100
AcDbVertex
100
AcDb2dVertex
 10
62.34751524615807
 20
31.22729291873741
 30
0.0
  0
VERTEX
  5
46D
330
460
100
AcDbEntity
  8
DIBUJOS
 62
     7
100
AcDbVertex
100
AcDb2dVertex
 10
62.38071229163707
 20
31.36109807117294
 30
0.0
  0
VERTEX
  5
46E
330
460
100
AcDbEntity
  8
DIBUJOS
 62
     7
100
AcDbVertex
100
AcDb2dVertex
 10
62.4086198630849
 20
31.45595744484754
 30
0.0
  0
VERTEX
  5
46F
330
460
100
AcDbEntity
  8
DIBUJOS
 62
     7
100
AcDbVertex
100
AcDb2dVertex
 10
62.44125506156409
 20
31.53959204795025
 30
0.0
  0
VERTEX
  5
470
330
460
100
AcDbEntity
  8
DIBUJOS
 62
     7
100
AcDbVertex
100
AcDb2dVertex
 10
62.46693026765882
 20
31.59650737178634
 30
0.0
  0
VERTEX
  5
471
330
460
100
AcDbEntity
  8
DIBUJOS
 62
     7
100
AcDbVertex
100
AcDb2dVertex
 10
62.54747644328196
 20
31.75133080949805
 30
0.0
  0
VERTEX
  5
472
330
460
100
AcDbEntity
  8
DIBUJOS
 62
     7
100
AcDbVertex
100
AcDb2dVertex
 10
62.5895526243073
 20
31.81442771691384
 30
0.0
  0
VERTEX
  5
473
330
460
100
AcDbEntity
  8
DIBUJOS
 62
     7
100
AcDbVertex
100
AcDb2dVertex
 10
62.69826325864366
 20
31.96866543606404
 30
0.0
  0
VERTEX
  5
474
330
460
100
AcDbEntity
  8
DIBUJOS
 62
     7
100
AcDbVertex
100
AcDb2dVertex
 10
62.79598632891835
 20
32.08813099665944
 30
0.0
  0
VERTEX
  5
475
330
460
100
AcDbEntity
  8
DIBUJOS
 62
     7
100
AcDbVertex
100
AcDb2dVertex
 10
62.8196845546598
 20
32.12046716673947
 30
0.0
  0
VERTEX
  5
476
330
460
100
AcDbEntity
  8
DIBUJOS
 62
     7
100
AcDbVertex
100
AcDb2dVertex
 10
62.96480482754953
 20
32.26554815239031
 30
0.0
  0
VERTEX
  5
477
330
460
100
AcDbEntity
  8
DIBUJOS
 62
     7
100
AcDbVertex
100
AcDb2dVertex
 10
63.07761814679908
 20
32.36460817943514
 30
0.0
  0
VERTEX
  5
478
330
460
100
AcDbEntity
  8
DIBUJOS
 62
     7
100
AcDbVertex
100
AcDb2dVertex
 10
63.25590466874078
 20
32.48745889294288
 30
0.0
  0
VERTEX
  5
479
330
460
100
AcDbEntity
  8
DIBUJOS
 62
     7
100
AcDbVertex
100
AcDb2dVertex
 10
63.28939390470512
 20
32.5097792756338
 30
0.0
  0
VERTEX
  5
47A
330
460
100
AcDbEntity
  8
DIBUJOS
 62
     7
100
AcDbVertex
100
AcDb2dVertex
 10
63.41746948223756
 20
32.58249097850093
 30
0.0
  0
VERTEX
  5
47B
330
460
100
AcDbEntity
  8
DIBUJOS
 62
     7
100
AcDbVertex
100
AcDb2dVertex
 10
63.5837994793827
 20
32.66842189872985
 30
0.0
  0
VERTEX
  5
47C
330
460
100
AcDbEntity
  8
DIBUJOS
 62
     7
100
AcDbVertex
100
AcDb2dVertex
 10
63.75236259301374
 20
32.7437528148528
 30
0.0
  0
VERTEX
  5
47D
330
460
100
AcDbEntity
  8
DIBUJOS
 62
     7
100
AcDbVertex
100
AcDb2dVertex
 10
63.9198095239679
 20
32.81071246108414
 30
0.0
  0
VERTEX
  5
47E
330
460
100
AcDbEntity
  8
DIBUJOS
 62
     7
100
AcDbVertex
100
AcDb2dVertex
 10
64.1978366576854
 20
32.89247576847772
 30
0.0
  0
VERTEX
  5
47F
330
460
100
AcDbEntity
  8
DIBUJOS
 62
     7
100
AcDbVertex
100
AcDb2dVertex
 10
64.28162246714759
 20
32.90939252198578
 30
0.0
  0
VERTEX
  5
480
330
460
100
AcDbEntity
  8
DIBUJOS
 62
     7
100
AcDbVertex
100
AcDb2dVertex
 10
64.53334344359371
 20
32.94364804673359
 30
0.0
  0
VERTEX
  5
481
330
460
100
AcDbEntity
  8
DIBUJOS
 62
     7
100
AcDbVertex
100
AcDb2dVertex
 10
64.90160410689293
 20
32.96304584399097
 30
0.0
  0
SEQEND
  5
482
330
460
100
AcDbEntity
  8
DIBUJOS
 62
     7
  0
POLYLINE
  5
483
330
3DB
100
AcDbEntity
  8
DIBUJOS
 62
     7
100
AcDb2dPolyline
 66
     1
 10
0.0
 20
0.0
 30
0.0
  0
VERTEX
  5
484
330
483
100
AcDbEntity
  8
DIBUJOS
 62
     7
100
AcDbVertex
100
AcDb2dVertex
 10
61.971288824254
 20
29.88847395287976
 30
0.0
  0
VERTEX
  5
485
330
483
100
AcDbEntity
  8
DIBUJOS
 62
     7
100
AcDbVertex
100
AcDb2dVertex
 10
61.97686973763741
 20
29.89405329763082
 30
0.0
  0
SEQEND
  5
486
330
483
100
AcDbEntity
  8
DIBUJOS
 62
     7
  0
POLYLINE
  5
487
330
3DB
100
AcDbEntity
  8
DIBUJOS
 62
     7
100
AcDb2dPolyline
 66
     1
 10
0.0
 20
0.0
 30
0.0
  0
VERTEX
  5
488
330
487
100
AcDbEntity
  8
DIBUJOS
 62
     7
100
AcDbVertex
100
AcDb2dVertex
 10
61.98245140215359
 20
29.88847395287976
 30
0.0
  0
VERTEX
  5
489
330
487
100
AcDbEntity
  8
DIBUJOS
 62
     7
100
AcDbVertex
100
AcDb2dVertex
 10
61.98245140215359
 20
29.89405329763082
 30
0.0
  0
SEQEND
  5
48A
330
487
100
AcDbEntity
  8
DIBUJOS
 62
     7
  0
POLYLINE
  5
48B
330
3DB
100
AcDbEntity
  8
DIBUJOS
 62
     7
100
AcDb2dPolyline
 66
     1
 10
0.0
 20
0.0
 30
0.0
  0
VERTEX
  5
48C
330
48B
100
AcDbEntity
  8
DIBUJOS
 62
     7
100
AcDbVertex
100
AcDb2dVertex
 10
61.99919639570216
 20
29.88847395287976
 30
0.0
  0
VERTEX
  5
48D
330
48B
100
AcDbEntity
  8
DIBUJOS
 62
     7
100
AcDbVertex
100
AcDb2dVertex
 10
61.99919639570216
 20
29.89405329763082
 30
0.0
  0
SEQEND
  5
48E
330
48B
100
AcDbEntity
  8
DIBUJOS
 62
     7
  0
POLYLINE
  5
48F
330
3DB
100
AcDbEntity
  8
DIBUJOS
 62
     7
100
AcDb2dPolyline
 66
     1
 10
0.0
 20
0.0
 30
0.0
  0
VERTEX
  5
490
330
48F
100
AcDbEntity
  8
DIBUJOS
 62
     7
100
AcDbVertex
100
AcDb2dVertex
 10
61.16754490771214
 20
29.88289385720606
 30
0.0
  0
VERTEX
  5
491
330
48F
100
AcDbEntity
  8
DIBUJOS
 62
     7
100
AcDbVertex
100
AcDb2dVertex
 10
61.13963658513152
 20
29.98333332655372
 30
0.0
  0
SEQEND
  5
492
330
48F
100
AcDbEntity
  8
DIBUJOS
 62
     7
  0
POLYLINE
  5
493
330
3DB
100
AcDbEntity
  8
DIBUJOS
 62
     7
100
AcDb2dPolyline
 66
     1
 10
0.0
 20
0.0
 30
0.0
  0
VERTEX
  5
494
330
493
100
AcDbEntity
  8
DIBUJOS
 62
     7
100
AcDbVertex
100
AcDb2dVertex
 10
61.971288824254
 20
29.88289385720606
 30
0.0
  0
VERTEX
  5
495
330
493
100
AcDbEntity
  8
DIBUJOS
 62
     7
100
AcDbVertex
100
AcDb2dVertex
 10
61.96570715973782
 20
29.88289385720606
 30
0.0
  0
SEQEND
  5
496
330
493
100
AcDbEntity
  8
DIBUJOS
 62
     7
  0
POLYLINE
  5
497
330
3DB
100
AcDbEntity
  8
DIBUJOS
 62
     7
100
AcDb2dPolyline
 66
     1
 10
0.0
 20
0.0
 30
0.0
  0
VERTEX
  5
498
330
497
100
AcDbEntity
  8
DIBUJOS
 62
     7
100
AcDbVertex
100
AcDb2dVertex
 10
61.971288824254
 20
29.88289385720606
 30
0.0
  0
VERTEX
  5
499
330
497
100
AcDbEntity
  8
DIBUJOS
 62
     7
100
AcDbVertex
100
AcDb2dVertex
 10
61.971288824254
 20
29.88847395287976
 30
0.0
  0
SEQEND
  5
49A
330
497
100
AcDbEntity
  8
DIBUJOS
 62
     7
  0
POLYLINE
  5
49B
330
3DB
100
AcDbEntity
  8
DIBUJOS
 62
     7
100
AcDb2dPolyline
 66
     1
 10
0.0
 20
0.0
 30
0.0
  0
VERTEX
  5
49C
330
49B
100
AcDbEntity
  8
DIBUJOS
 62
     7
100
AcDbVertex
100
AcDb2dVertex
 10
61.98245140215359
 20
29.88289385720606
 30
0.0
  0
VERTEX
  5
49D
330
49B
100
AcDbEntity
  8
DIBUJOS
 62
     7
100
AcDbVertex
100
AcDb2dVertex
 10
61.98245140215359
 20
29.88847395287976
 30
0.0
  0
SEQEND
  5
49E
330
49B
100
AcDbEntity
  8
DIBUJOS
 62
     7
  0
POLYLINE
  5
49F
330
3DB
100
AcDbEntity
  8
DIBUJOS
 62
     7
100
AcDb2dPolyline
 66
     1
 10
0.0
 20
0.0
 30
0.0
  0
VERTEX
  5
4A0
330
49F
100
AcDbEntity
  8
DIBUJOS
 62
     7
100
AcDbVertex
100
AcDb2dVertex
 10
61.95454383070544
 20
29.87731376153366
 30
0.0
  0
VERTEX
  5
4A1
330
49F
100
AcDbEntity
  8
DIBUJOS
 62
     7
100
AcDbVertex
100
AcDb2dVertex
 10
61.94896216618925
 20
29.87731376153366
 30
0.0
  0
SEQEND
  5
4A2
330
49F
100
AcDbEntity
  8
DIBUJOS
 62
     7
  0
POLYLINE
  5
4A3
330
3DB
100
AcDbEntity
  8
DIBUJOS
 62
     7
100
AcDb2dPolyline
 66
     1
 10
0.0
 20
0.0
 30
0.0
  0
VERTEX
  5
4A4
330
4A3
100
AcDbEntity
  8
DIBUJOS
 62
     7
100
AcDbVertex
100
AcDb2dVertex
 10
61.96012549522163
 20
29.87731376153366
 30
0.0
  0
VERTEX
  5
4A5
330
4A3
100
AcDbEntity
  8
DIBUJOS
 62
     7
100
AcDbVertex
100
AcDb2dVertex
 10
61.95454383070544
 20
29.87731376153366
 30
0.0
  0
SEQEND
  5
4A6
330
4A3
100
AcDbEntity
  8
DIBUJOS
 62
     7
  0
POLYLINE
  5
4A7
330
3DB
100
AcDbEntity
  8
DIBUJOS
 62
     7
100
AcDb2dPolyline
 66
     1
 10
0.0
 20
0.0
 30
0.0
  0
VERTEX
  5
4A8
330
4A7
100
AcDbEntity
  8
DIBUJOS
 62
     7
100
AcDbVertex
100
AcDb2dVertex
 10
61.96012549522163
 20
29.87731376153366
 30
0.0
  0
VERTEX
  5
4A9
330
4A7
100
AcDbEntity
  8
DIBUJOS
 62
     7
100
AcDbVertex
100
AcDb2dVertex
 10
61.96570715973782
 20
29.88289385720606
 30
0.0
  0
SEQEND
  5
4AA
330
4A7
100
AcDbEntity
  8
DIBUJOS
 62
     7
  0
POLYLINE
  5
4AB
330
3DB
100
AcDbEntity
  8
DIBUJOS
 62
     7
100
AcDb2dPolyline
 66
     1
 10
0.0
 20
0.0
 30
0.0
  0
VERTEX
  5
4AC
330
4AB
100
AcDbEntity
  8
DIBUJOS
 62
     7
100
AcDbVertex
100
AcDb2dVertex
 10
61.97686973763741
 20
29.87731376153366
 30
0.0
  0
VERTEX
  5
4AD
330
4AB
100
AcDbEntity
  8
DIBUJOS
 62
     7
100
AcDbVertex
100
AcDb2dVertex
 10
61.971288824254
 20
29.88289385720606
 30
0.0
  0
SEQEND
  5
4AE
330
4AB
100
AcDbEntity
  8
DIBUJOS
 62
     7
  0
POLYLINE
  5
4AF
330
3DB
100
AcDbEntity
  8
DIBUJOS
 62
     7
100
AcDb2dPolyline
 66
     1
 10
0.0
 20
0.0
 30
0.0
  0
VERTEX
  5
4B0
330
4AF
100
AcDbEntity
  8
DIBUJOS
 62
     7
100
AcDbVertex
100
AcDb2dVertex
 10
61.97686973763741
 20
29.87731376153366
 30
0.0
  0
VERTEX
  5
4B1
330
4AF
100
AcDbEntity
  8
DIBUJOS
 62
     7
100
AcDbVertex
100
AcDb2dVertex
 10
61.98245140215359
 20
29.88289385720606
 30
0.0
  0
SEQEND
  5
4B2
330
4AF
100
AcDbEntity
  8
DIBUJOS
 62
     7
  0
POLYLINE
  5
4B3
330
3DB
100
AcDbEntity
  8
DIBUJOS
 62
     7
100
AcDb2dPolyline
 66
     1
 10
0.0
 20
0.0
 30
0.0
  0
VERTEX
  5
4B4
330
4B3
100
AcDbEntity
  8
DIBUJOS
 62
     7
100
AcDbVertex
100
AcDb2dVertex
 10
61.98245140215359
 20
29.88289385720606
 30
0.0
  0
VERTEX
  5
4B5
330
4B3
100
AcDbEntity
  8
DIBUJOS
 62
     7
100
AcDbVertex
100
AcDb2dVertex
 10
61.98803306666978
 20
29.87731376153366
 30
0.0
  0
VERTEX
  5
4B6
330
4B3
100
AcDbEntity
  8
DIBUJOS
 62
     7
100
AcDbVertex
100
AcDb2dVertex
 10
61.99919639570216
 20
29.88847395287976
 30
0.0
  0
SEQEND
  5
4B7
330
4B3
100
AcDbEntity
  8
DIBUJOS
 62
     7
  0
POLYLINE
  5
4B8
330
3DB
100
AcDbEntity
  8
DIBUJOS
 62
     7
100
AcDb2dPolyline
 66
     1
 10
0.0
 20
0.0
 30
0.0
  0
VERTEX
  5
4B9
330
4B8
100
AcDbEntity
  8
DIBUJOS
 62
     7
100
AcDbVertex
100
AcDb2dVertex
 10
61.94338050167339
 20
29.87173366586125
 30
0.0
  0
VERTEX
  5
4BA
330
4B8
100
AcDbEntity
  8
DIBUJOS
 62
     7
100
AcDbVertex
100
AcDb2dVertex
 10
61.94896216618925
 20
29.87731376153366
 30
0.0
  0
SEQEND
  5
4BB
330
4B8
100
AcDbEntity
  8
DIBUJOS
 62
     7
  0
POLYLINE
  5
4BC
330
3DB
100
AcDbEntity
  8
DIBUJOS
 62
     7
100
AcDb2dPolyline
 66
     1
 10
0.0
 20
0.0
 30
0.0
  0
VERTEX
  5
4BD
330
4BC
100
AcDbEntity
  8
DIBUJOS
 62
     7
100
AcDbVertex
100
AcDb2dVertex
 10
61.95454383070544
 20
29.87173366586125
 30
0.0
  0
VERTEX
  5
4BE
330
4BC
100
AcDbEntity
  8
DIBUJOS
 62
     7
100
AcDbVertex
100
AcDb2dVertex
 10
61.95454383070544
 20
29.87731376153366
 30
0.0
  0
SEQEND
  5
4BF
330
4BC
100
AcDbEntity
  8
DIBUJOS
 62
     7
  0
POLYLINE
  5
4C0
330
3DB
100
AcDbEntity
  8
DIBUJOS
 62
     7
100
AcDb2dPolyline
 66
     1
 10
0.0
 20
0.0
 30
0.0
  0
VERTEX
  5
4C1
330
4C0
100
AcDbEntity
  8
DIBUJOS
 62
     7
100
AcDbVertex
100
AcDb2dVertex
 10
61.96570715973782
 20
29.87173366586125
 30
0.0
  0
VERTEX
  5
4C2
330
4C0
100
AcDbEntity
  8
DIBUJOS
 62
     7
100
AcDbVertex
100
AcDb2dVertex
 10
61.96012549522163
 20
29.87731376153366
 30
0.0
  0
SEQEND
  5
4C3
330
4C0
100
AcDbEntity
  8
DIBUJOS
 62
     7
  0
POLYLINE
  5
4C4
330
3DB
100
AcDbEntity
  8
DIBUJOS
 62
     7
100
AcDb2dPolyline
 66
     1
 10
0.0
 20
0.0
 30
0.0
  0
VERTEX
  5
4C5
330
4C4
100
AcDbEntity
  8
DIBUJOS
 62
     7
100
AcDbVertex
100
AcDb2dVertex
 10
61.16754490771214
 20
29.86615357018755
 30
0.0
  0
VERTEX
  5
4C6
330
4C4
100
AcDbEntity
  8
DIBUJOS
 62
     7
100
AcDbVertex
100
AcDb2dVertex
 10
61.16754490771214
 20
29.87173366586125
 30
0.0
  0
SEQEND
  5
4C7
330
4C4
100
AcDbEntity
  8
DIBUJOS
 62
     7
  0
POLYLINE
  5
4C8
330
3DB
100
AcDbEntity
  8
DIBUJOS
 62
     7
100
AcDb2dPolyline
 66
     1
 10
0.0
 20
0.0
 30
0.0
  0
VERTEX
  5
4C9
330
4C8
100
AcDbEntity
  8
DIBUJOS
 62
     7
100
AcDbVertex
100
AcDb2dVertex
 10
61.94338050167339
 20
29.86615357018755
 30
0.0
  0
VERTEX
  5
4CA
330
4C8
100
AcDbEntity
  8
DIBUJOS
 62
     7
100
AcDbVertex
100
AcDb2dVertex
 10
61.9377988371572
 20
29.86615357018755
 30
0.0
  0
SEQEND
  5
4CB
330
4C8
100
AcDbEntity
  8
DIBUJOS
 62
     7
  0
POLYLINE
  5
4CC
330
3DB
100
AcDbEntity
  8
DIBUJOS
 62
     7
100
AcDb2dPolyline
 66
     1
 10
0.0
 20
0.0
 30
0.0
  0
VERTEX
  5
4CD
330
4CC
100
AcDbEntity
  8
DIBUJOS
 62
     7
100
AcDbVertex
100
AcDb2dVertex
 10
61.94338050167339
 20
29.86615357018755
 30
0.0
  0
VERTEX
  5
4CE
330
4CC
100
AcDbEntity
  8
DIBUJOS
 62
     7
100
AcDbVertex
100
AcDb2dVertex
 10
61.94338050167339
 20
29.87173366586125
 30
0.0
  0
SEQEND
  5
4CF
330
4CC
100
AcDbEntity
  8
DIBUJOS
 62
     7
  0
POLYLINE
  5
4D0
330
3DB
100
AcDbEntity
  8
DIBUJOS
 62
     7
100
AcDb2dPolyline
 66
     1
 10
0.0
 20
0.0
 30
0.0
  0
VERTEX
  5
4D1
330
4D0
100
AcDbEntity
  8
DIBUJOS
 62
     7
100
AcDbVertex
100
AcDb2dVertex
 10
61.96012549522163
 20
29.86615357018755
 30
0.0
  0
VERTEX
  5
4D2
330
4D0
100
AcDbEntity
  8
DIBUJOS
 62
     7
100
AcDbVertex
100
AcDb2dVertex
 10
61.95454383070544
 20
29.87173366586125
 30
0.0
  0
SEQEND
  5
4D3
330
4D0
100
AcDbEntity
  8
DIBUJOS
 62
     7
  0
POLYLINE
  5
4D4
330
3DB
100
AcDbEntity
  8
DIBUJOS
 62
     7
100
AcDb2dPolyline
 66
     1
 10
0.0
 20
0.0
 30
0.0
  0
VERTEX
  5
4D5
330
4D4
100
AcDbEntity
  8
DIBUJOS
 62
     7
100
AcDbVertex
100
AcDb2dVertex
 10
61.96012549522163
 20
29.86615357018755
 30
0.0
  0
VERTEX
  5
4D6
330
4D4
100
AcDbEntity
  8
DIBUJOS
 62
     7
100
AcDbVertex
100
AcDb2dVertex
 10
61.96570715973782
 20
29.87173366586125
 30
0.0
  0
SEQEND
  5
4D7
330
4D4
100
AcDbEntity
  8
DIBUJOS
 62
     7
  0
POLYLINE
  5
4D8
330
3DB
100
AcDbEntity
  8
DIBUJOS
 62
     7
100
AcDb2dPolyline
 66
     1
 10
0.0
 20
0.0
 30
0.0
  0
VERTEX
  5
4D9
330
4D8
100
AcDbEntity
  8
DIBUJOS
 62
     7
100
AcDbVertex
100
AcDb2dVertex
 10
61.96570715973782
 20
29.87173366586125
 30
0.0
  0
VERTEX
  5
4DA
330
4D8
100
AcDbEntity
  8
DIBUJOS
 62
     7
100
AcDbVertex
100
AcDb2dVertex
 10
61.971288824254
 20
29.86615357018755
 30
0.0
  0
VERTEX
  5
4DB
330
4D8
100
AcDbEntity
  8
DIBUJOS
 62
     7
100
AcDbVertex
100
AcDb2dVertex
 10
61.97686973763741
 20
29.87731376153366
 30
0.0
  0
SEQEND
  5
4DC
330
4D8
100
AcDbEntity
  8
DIBUJOS
 62
     7
  0
POLYLINE
  5
4DD
330
3DB
100
AcDbEntity
  8
DIBUJOS
 62
     7
100
AcDb2dPolyline
 66
     1
 10
0.0
 20
0.0
 30
0.0
  0
VERTEX
  5
4DE
330
4DD
100
AcDbEntity
  8
DIBUJOS
 62
     7
100
AcDbVertex
100
AcDb2dVertex
 10
61.94896216618925
 20
29.86057347451515
 30
0.0
  0
VERTEX
  5
4DF
330
4DD
100
AcDbEntity
  8
DIBUJOS
 62
     7
100
AcDbVertex
100
AcDb2dVertex
 10
61.94338050167339
 20
29.86615357018755
 30
0.0
  0
SEQEND
  5
4E0
330
4DD
100
AcDbEntity
  8
DIBUJOS
 62
     7
  0
POLYLINE
  5
4E1
330
3DB
100
AcDbEntity
  8
DIBUJOS
 62
     7
100
AcDb2dPolyline
 66
     1
 10
0.0
 20
0.0
 30
0.0
  0
VERTEX
  5
4E2
330
4E1
100
AcDbEntity
  8
DIBUJOS
 62
     7
100
AcDbVertex
100
AcDb2dVertex
 10
61.92663625925729
 20
29.85499337884274
 30
0.0
  0
VERTEX
  5
4E3
330
4E1
100
AcDbEntity
  8
DIBUJOS
 62
     7
100
AcDbVertex
100
AcDb2dVertex
 10
61.92663625925729
 20
29.86057347451515
 30
0.0
  0
VERTEX
  5
4E4
330
4E1
100
AcDbEntity
  8
DIBUJOS
 62
     7
100
AcDbVertex
100
AcDb2dVertex
 10
61.9377988371572
 20
29.86615357018755
 30
0.0
  0
SEQEND
  5
4E5
330
4E1
100
AcDbEntity
  8
DIBUJOS
 62
     7
  0
POLYLINE
  5
4E6
330
3DB
100
AcDbEntity
  8
DIBUJOS
 62
     7
100
AcDb2dPolyline
 66
     1
 10
0.0
 20
0.0
 30
0.0
  0
VERTEX
  5
4E7
330
4E6
100
AcDbEntity
  8
DIBUJOS
 62
     7
100
AcDbVertex
100
AcDb2dVertex
 10
61.94896216618925
 20
29.85499337884274
 30
0.0
  0
VERTEX
  5
4E8
330
4E6
100
AcDbEntity
  8
DIBUJOS
 62
     7
100
AcDbVertex
100
AcDb2dVertex
 10
61.94896216618925
 20
29.86057347451515
 30
0.0
  0
SEQEND
  5
4E9
330
4E6
100
AcDbEntity
  8
DIBUJOS
 62
     7
  0
POLYLINE
  5
4EA
330
3DB
100
AcDbEntity
  8
DIBUJOS
 62
     7
100
AcDb2dPolyline
 66
     1
 10
0.0
 20
0.0
 30
0.0
  0
VERTEX
  5
4EB
330
4EA
100
AcDbEntity
  8
DIBUJOS
 62
     7
100
AcDbVertex
100
AcDb2dVertex
 10
61.95454383070544
 20
29.85499337884274
 30
0.0
  0
VERTEX
  5
4EC
330
4EA
100
AcDbEntity
  8
DIBUJOS
 62
     7
100
AcDbVertex
100
AcDb2dVertex
 10
61.94896216618925
 20
29.85499337884274
 30
0.0
  0
SEQEND
  5
4ED
330
4EA
100
AcDbEntity
  8
DIBUJOS
 62
     7
  0
POLYLINE
  5
4EE
330
3DB
100
AcDbEntity
  8
DIBUJOS
 62
     7
100
AcDb2dPolyline
 66
     1
 10
0.0
 20
0.0
 30
0.0
  0
VERTEX
  5
4EF
330
4EE
100
AcDbEntity
  8
DIBUJOS
 62
     7
100
AcDbVertex
100
AcDb2dVertex
 10
61.95454383070544
 20
29.85499337884274
 30
0.0
  0
VERTEX
  5
4F0
330
4EE
100
AcDbEntity
  8
DIBUJOS
 62
     7
100
AcDbVertex
100
AcDb2dVertex
 10
61.96012549522163
 20
29.86615357018755
 30
0.0
  0
SEQEND
  5
4F1
330
4EE
100
AcDbEntity
  8
DIBUJOS
 62
     7
  0
POLYLINE
  5
4F2
330
3DB
100
AcDbEntity
  8
DIBUJOS
 62
     7
100
AcDb2dPolyline
 66
     1
 10
0.0
 20
0.0
 30
0.0
  0
VERTEX
  5
4F3
330
4F2
100
AcDbEntity
  8
DIBUJOS
 62
     7
100
AcDbVertex
100
AcDb2dVertex
 10
61.92663625925729
 20
29.84941403409103
 30
0.0
  0
VERTEX
  5
4F4
330
4F2
100
AcDbEntity
  8
DIBUJOS
 62
     7
100
AcDbVertex
100
AcDb2dVertex
 10
61.92105459474078
 20
29.84941403409103
 30
0.0
  0
SEQEND
  5
4F5
330
4F2
100
AcDbEntity
  8
DIBUJOS
 62
     7
  0
POLYLINE
  5
4F6
330
3DB
100
AcDbEntity
  8
DIBUJOS
 62
     7
100
AcDb2dPolyline
 66
     1
 10
0.0
 20
0.0
 30
0.0
  0
VERTEX
  5
4F7
330
4F6
100
AcDbEntity
  8
DIBUJOS
 62
     7
100
AcDbVertex
100
AcDb2dVertex
 10
61.92663625925729
 20
29.84941403409103
 30
0.0
  0
VERTEX
  5
4F8
330
4F6
100
AcDbEntity
  8
DIBUJOS
 62
     7
100
AcDbVertex
100
AcDb2dVertex
 10
61.92663625925729
 20
29.85499337884274
 30
0.0
  0
SEQEND
  5
4F9
330
4F6
100
AcDbEntity
  8
DIBUJOS
 62
     7
  0
POLYLINE
  5
4FA
330
3DB
100
AcDbEntity
  8
DIBUJOS
 62
     7
100
AcDb2dPolyline
 66
     1
 10
0.0
 20
0.0
 30
0.0
  0
VERTEX
  5
4FB
330
4FA
100
AcDbEntity
  8
DIBUJOS
 62
     7
100
AcDbVertex
100
AcDb2dVertex
 10
61.93221792377348
 20
29.84941403409103
 30
0.0
  0
VERTEX
  5
4FC
330
4FA
100
AcDbEntity
  8
DIBUJOS
 62
     7
100
AcDbVertex
100
AcDb2dVertex
 10
61.92663625925729
 20
29.84941403409103
 30
0.0
  0
SEQEND
  5
4FD
330
4FA
100
AcDbEntity
  8
DIBUJOS
 62
     7
  0
POLYLINE
  5
4FE
330
3DB
100
AcDbEntity
  8
DIBUJOS
 62
     7
100
AcDb2dPolyline
 66
     1
 10
0.0
 20
0.0
 30
0.0
  0
VERTEX
  5
4FF
330
4FE
100
AcDbEntity
  8
DIBUJOS
 62
     7
100
AcDbVertex
100
AcDb2dVertex
 10
61.93221792377348
 20
29.84941403409103
 30
0.0
  0
VERTEX
  5
500
330
4FE
100
AcDbEntity
  8
DIBUJOS
 62
     7
100
AcDbVertex
100
AcDb2dVertex
 10
61.94896216618925
 20
29.85499337884274
 30
0.0
  0
SEQEND
  5
501
330
4FE
100
AcDbEntity
  8
DIBUJOS
 62
     7
  0
POLYLINE
  5
502
330
3DB
100
AcDbEntity
  8
DIBUJOS
 62
     7
100
AcDb2dPolyline
 66
     1
 10
0.0
 20
0.0
 30
0.0
  0
VERTEX
  5
503
330
502
100
AcDbEntity
  8
DIBUJOS
 62
     7
100
AcDbVertex
100
AcDb2dVertex
 10
61.87640202974439
 20
29.83825384274493
 30
0.0
  0
VERTEX
  5
504
330
502
100
AcDbEntity
  8
DIBUJOS
 62
     7
100
AcDbVertex
100
AcDb2dVertex
 10
61.87082036522852
 20
29.83825384274493
 30
0.0
  0
SEQEND
  5
505
330
502
100
AcDbEntity
  8
DIBUJOS
 62
     7
  0
POLYLINE
  5
506
330
3DB
100
AcDbEntity
  8
DIBUJOS
 62
     7
100
AcDb2dPolyline
 66
     1
 10
0.0
 20
0.0
 30
0.0
  0
VERTEX
  5
507
330
506
100
AcDbEntity
  8
DIBUJOS
 62
     7
100
AcDbVertex
100
AcDb2dVertex
 10
61.88198369426058
 20
29.83825384274493
 30
0.0
  0
VERTEX
  5
508
330
506
100
AcDbEntity
  8
DIBUJOS
 62
     7
100
AcDbVertex
100
AcDb2dVertex
 10
61.87640202974439
 20
29.83825384274493
 30
0.0
  0
SEQEND
  5
509
330
506
100
AcDbEntity
  8
DIBUJOS
 62
     7
  0
POLYLINE
  5
50A
330
3DB
100
AcDbEntity
  8
DIBUJOS
 62
     7
100
AcDb2dPolyline
 66
     1
 10
0.0
 20
0.0
 30
0.0
  0
VERTEX
  5
50B
330
50A
100
AcDbEntity
  8
DIBUJOS
 62
     7
100
AcDbVertex
100
AcDb2dVertex
 10
61.89314627216049
 20
29.83825384274493
 30
0.0
  0
VERTEX
  5
50C
330
50A
100
AcDbEntity
  8
DIBUJOS
 62
     7
100
AcDbVertex
100
AcDb2dVertex
 10
61.88198369426058
 20
29.83825384274493
 30
0.0
  0
SEQEND
  5
50D
330
50A
100
AcDbEntity
  8
DIBUJOS
 62
     7
  0
POLYLINE
  5
50E
330
3DB
100
AcDbEntity
  8
DIBUJOS
 62
     7
100
AcDb2dPolyline
 66
     1
 10
0.0
 20
0.0
 30
0.0
  0
VERTEX
  5
50F
330
50E
100
AcDbEntity
  8
DIBUJOS
 62
     7
100
AcDbVertex
100
AcDb2dVertex
 10
61.89872793667667
 20
29.83825384274493
 30
0.0
  0
VERTEX
  5
510
330
50E
100
AcDbEntity
  8
DIBUJOS
 62
     7
100
AcDbVertex
100
AcDb2dVertex
 10
61.89314627216049
 20
29.83825384274493
 30
0.0
  0
SEQEND
  5
511
330
50E
100
AcDbEntity
  8
DIBUJOS
 62
     7
  0
POLYLINE
  5
512
330
3DB
100
AcDbEntity
  8
DIBUJOS
 62
     7
100
AcDb2dPolyline
 66
     1
 10
0.0
 20
0.0
 30
0.0
  0
VERTEX
  5
513
330
512
100
AcDbEntity
  8
DIBUJOS
 62
     7
100
AcDbVertex
100
AcDb2dVertex
 10
61.90430960119286
 20
29.83825384274493
 30
0.0
  0
VERTEX
  5
514
330
512
100
AcDbEntity
  8
DIBUJOS
 62
     7
100
AcDbVertex
100
AcDb2dVertex
 10
61.89872793667667
 20
29.83825384274493
 30
0.0
  0
SEQEND
  5
515
330
512
100
AcDbEntity
  8
DIBUJOS
 62
     7
  0
POLYLINE
  5
516
330
3DB
100
AcDbEntity
  8
DIBUJOS
 62
     7
100
AcDb2dPolyline
 66
     1
 10
0.0
 20
0.0
 30
0.0
  0
VERTEX
  5
517
330
516
100
AcDbEntity
  8
DIBUJOS
 62
     7
100
AcDbVertex
100
AcDb2dVertex
 10
61.90430960119286
 20
29.83825384274493
 30
0.0
  0
VERTEX
  5
518
330
516
100
AcDbEntity
  8
DIBUJOS
 62
     7
100
AcDbVertex
100
AcDb2dVertex
 10
61.92105459474078
 20
29.84941403409103
 30
0.0
  0
SEQEND
  5
519
330
516
100
AcDbEntity
  8
DIBUJOS
 62
     7
  0
POLYLINE
  5
51A
330
3DB
100
AcDbEntity
  8
DIBUJOS
 62
     7
100
AcDb2dPolyline
 66
     1
 10
0.0
 20
0.0
 30
0.0
  0
VERTEX
  5
51B
330
51A
100
AcDbEntity
  8
DIBUJOS
 62
     7
100
AcDbVertex
100
AcDb2dVertex
 10
61.87640202974439
 20
29.83267374707253
 30
0.0
  0
VERTEX
  5
51C
330
51A
100
AcDbEntity
  8
DIBUJOS
 62
     7
100
AcDbVertex
100
AcDb2dVertex
 10
61.87640202974439
 20
29.83825384274493
 30
0.0
  0
SEQEND
  5
51D
330
51A
100
AcDbEntity
  8
DIBUJOS
 62
     7
  0
POLYLINE
  5
51E
330
3DB
100
AcDbEntity
  8
DIBUJOS
 62
     7
100
AcDb2dPolyline
 66
     1
 10
0.0
 20
0.0
 30
0.0
  0
VERTEX
  5
51F
330
51E
100
AcDbEntity
  8
DIBUJOS
 62
     7
100
AcDbVertex
100
AcDb2dVertex
 10
61.89872793667667
 20
29.83267374707253
 30
0.0
  0
VERTEX
  5
520
330
51E
100
AcDbEntity
  8
DIBUJOS
 62
     7
100
AcDbVertex
100
AcDb2dVertex
 10
61.89872793667667
 20
29.83825384274493
 30
0.0
  0
SEQEND
  5
521
330
51E
100
AcDbEntity
  8
DIBUJOS
 62
     7
  0
POLYLINE
  5
522
330
3DB
100
AcDbEntity
  8
DIBUJOS
 62
     7
100
AcDb2dPolyline
 66
     1
 10
0.0
 20
0.0
 30
0.0
  0
VERTEX
  5
523
330
522
100
AcDbEntity
  8
DIBUJOS
 62
     7
100
AcDbVertex
100
AcDb2dVertex
 10
67.95471525775393
 20
29.83267374707253
 30
0.0
  0
VERTEX
  5
524
330
522
100
AcDbEntity
  8
DIBUJOS
 62
     7
100
AcDbVertex
100
AcDb2dVertex
 10
67.9095046014191
 20
29.85387750989188
 30
0.0
  0
VERTEX
  5
525
330
522
100
AcDbEntity
  8
DIBUJOS
 62
     7
100
AcDbVertex
100
AcDb2dVertex
 10
67.78168741341605
 20
29.93311321641954
 30
0.0
  0
VERTEX
  5
526
330
522
100
AcDbEntity
  8
DIBUJOS
 62
     7
100
AcDbVertex
100
AcDb2dVertex
 10
67.73703409728718
 20
29.97775323088067
 30
0.0
  0
VERTEX
  5
527
330
522
100
AcDbEntity
  8
DIBUJOS
 62
     7
100
AcDbVertex
100
AcDb2dVertex
 10
67.68813988789243
 20
30.05129770539351
 30
0.0
  0
VERTEX
  5
528
330
522
100
AcDbEntity
  8
DIBUJOS
 62
     7
100
AcDbVertex
100
AcDb2dVertex
 10
67.64884514997094
 20
30.13455084051098
 30
0.0
  0
VERTEX
  5
529
330
522
100
AcDbEntity
  8
DIBUJOS
 62
     7
100
AcDbVertex
100
AcDb2dVertex
 10
67.62149642099274
 20
30.21267067808778
 30
0.0
  0
VERTEX
  5
52A
330
522
100
AcDbEntity
  8
DIBUJOS
 62
     7
100
AcDbVertex
100
AcDb2dVertex
 10
67.58406899810112
 20
30.39029508807903
 30
0.0
  0
VERTEX
  5
52B
330
522
100
AcDbEntity
  8
DIBUJOS
 62
     7
100
AcDbVertex
100
AcDb2dVertex
 10
67.55586397824132
 20
30.73085438692643
 30
0.0
  0
VERTEX
  5
52C
330
522
100
AcDbEntity
  8
DIBUJOS
 62
     7
100
AcDbVertex
100
AcDb2dVertex
 10
67.52267294182143
 20
31.04873361181232
 30
0.0
  0
VERTEX
  5
52D
330
522
100
AcDbEntity
  8
DIBUJOS
 62
     7
100
AcDbVertex
100
AcDb2dVertex
 10
67.49476537037295
 20
31.21055338263961
 30
0.0
  0
VERTEX
  5
52E
330
522
100
AcDbEntity
  8
DIBUJOS
 62
     7
100
AcDbVertex
100
AcDb2dVertex
 10
67.46521281907127
 20
31.33424813161204
 30
0.0
  0
VERTEX
  5
52F
330
522
100
AcDbEntity
  8
DIBUJOS
 62
     7
100
AcDbVertex
100
AcDb2dVertex
 10
67.43366075344579
 20
31.44479725350144
 30
0.0
  0
VERTEX
  5
530
330
522
100
AcDbEntity
  8
DIBUJOS
 62
     7
100
AcDbVertex
100
AcDb2dVertex
 10
67.38930338346395
 20
31.56191092879911
 30
0.0
  0
VERTEX
  5
531
330
522
100
AcDbEntity
  8
DIBUJOS
 62
     7
100
AcDbVertex
100
AcDb2dVertex
 10
67.38427981028589
 20
31.57307112014457
 30
0.0
  0
VERTEX
  5
532
330
522
100
AcDbEntity
  8
DIBUJOS
 62
     7
100
AcDbVertex
100
AcDb2dVertex
 10
67.28621647705559
 20
31.75862676018525
 30
0.0
  0
VERTEX
  5
533
330
522
100
AcDbEntity
  8
DIBUJOS
 62
     7
100
AcDbVertex
100
AcDb2dVertex
 10
67.27376570716952
 20
31.77450874423602
 30
0.0
  0
SEQEND
  5
534
330
522
100
AcDbEntity
  8
DIBUJOS
 62
     7
  0
POLYLINE
  5
535
330
3DB
100
AcDbEntity
  8
DIBUJOS
 62
     7
100
AcDb2dPolyline
 66
     1
 10
0.0
 20
0.0
 30
0.0
  0
VERTEX
  5
536
330
535
100
AcDbEntity
  8
DIBUJOS
 62
     7
100
AcDbVertex
100
AcDb2dVertex
 10
67.96029617113764
 20
29.83267374707253
 30
0.0
  0
VERTEX
  5
537
330
535
100
AcDbEntity
  8
DIBUJOS
 62
     7
100
AcDbVertex
100
AcDb2dVertex
 10
67.95471525775393
 20
29.83267374707253
 30
0.0
  0
SEQEND
  5
538
330
535
100
AcDbEntity
  8
DIBUJOS
 62
     7
  0
POLYLINE
  5
539
330
3DB
100
AcDbEntity
  8
DIBUJOS
 62
     7
100
AcDb2dPolyline
 66
     1
 10
0.0
 20
0.0
 30
0.0
  0
VERTEX
  5
53A
330
539
100
AcDbEntity
  8
DIBUJOS
 62
     7
100
AcDbVertex
100
AcDb2dVertex
 10
67.96587858678663
 20
29.83267374707253
 30
0.0
  0
VERTEX
  5
53B
330
539
100
AcDbEntity
  8
DIBUJOS
 62
     7
100
AcDbVertex
100
AcDb2dVertex
 10
67.96029617113764
 20
29.83267374707253
 30
0.0
  0
SEQEND
  5
53C
330
539
100
AcDbEntity
  8
DIBUJOS
 62
     7
  0
POLYLINE
  5
53D
330
3DB
100
AcDbEntity
  8
DIBUJOS
 62
     7
100
AcDb2dPolyline
 66
     1
 10
0.0
 20
0.0
 30
0.0
  0
VERTEX
  5
53E
330
53D
100
AcDbEntity
  8
DIBUJOS
 62
     7
100
AcDbVertex
100
AcDb2dVertex
 10
61.87640202974439
 20
29.82709365139947
 30
0.0
  0
VERTEX
  5
53F
330
53D
100
AcDbEntity
  8
DIBUJOS
 62
     7
100
AcDbVertex
100
AcDb2dVertex
 10
61.87640202974439
 20
29.83267374707253
 30
0.0
  0
SEQEND
  5
540
330
53D
100
AcDbEntity
  8
DIBUJOS
 62
     7
  0
POLYLINE
  5
541
330
3DB
100
AcDbEntity
  8
DIBUJOS
 62
     7
100
AcDb2dPolyline
 66
     1
 10
0.0
 20
0.0
 30
0.0
  0
VERTEX
  5
542
330
541
100
AcDbEntity
  8
DIBUJOS
 62
     7
100
AcDbVertex
100
AcDb2dVertex
 10
67.96029617113764
 20
29.82709365139947
 30
0.0
  0
VERTEX
  5
543
330
541
100
AcDbEntity
  8
DIBUJOS
 62
     7
100
AcDbVertex
100
AcDb2dVertex
 10
67.96029617113764
 20
29.83267374707253
 30
0.0
  0
SEQEND
  5
544
330
541
100
AcDbEntity
  8
DIBUJOS
 62
     7
  0
POLYLINE
  5
545
330
3DB
100
AcDbEntity
  8
DIBUJOS
 62
     7
100
AcDb2dPolyline
 66
     1
 10
0.0
 20
0.0
 30
0.0
  0
VERTEX
  5
546
330
545
100
AcDbEntity
  8
DIBUJOS
 62
     7
100
AcDbVertex
100
AcDb2dVertex
 10
61.87640202974439
 20
29.82151355572642
 30
0.0
  0
VERTEX
  5
547
330
545
100
AcDbEntity
  8
DIBUJOS
 62
     7
100
AcDbVertex
100
AcDb2dVertex
 10
61.87640202974439
 20
29.82709365139947
 30
0.0
  0
SEQEND
  5
548
330
545
100
AcDbEntity
  8
DIBUJOS
 62
     7
  0
POLYLINE
  5
549
330
3DB
100
AcDbEntity
  8
DIBUJOS
 62
     7
100
AcDb2dPolyline
 66
     1
 10
0.0
 20
0.0
 30
0.0
  0
VERTEX
  5
54A
330
549
100
AcDbEntity
  8
DIBUJOS
 62
     7
100
AcDbVertex
100
AcDb2dVertex
 10
61.88198369426058
 20
29.82151355572642
 30
0.0
  0
VERTEX
  5
54B
330
549
100
AcDbEntity
  8
DIBUJOS
 62
     7
100
AcDbVertex
100
AcDb2dVertex
 10
61.87640202974439
 20
29.82151355572642
 30
0.0
  0
SEQEND
  5
54C
330
549
100
AcDbEntity
  8
DIBUJOS
 62
     7
  0
POLYLINE
  5
54D
330
3DB
100
AcDbEntity
  8
DIBUJOS
 62
     7
100
AcDb2dPolyline
 66
     1
 10
0.0
 20
0.0
 30
0.0
  0
VERTEX
  5
54E
330
54D
100
AcDbEntity
  8
DIBUJOS
 62
     7
100
AcDbVertex
100
AcDb2dVertex
 10
61.88198369426058
 20
29.82151355572642
 30
0.0
  0
VERTEX
  5
54F
330
54D
100
AcDbEntity
  8
DIBUJOS
 62
     7
100
AcDbVertex
100
AcDb2dVertex
 10
61.89872793667667
 20
29.83267374707253
 30
0.0
  0
SEQEND
  5
550
330
54D
100
AcDbEntity
  8
DIBUJOS
 62
     7
  0
POLYLINE
  5
551
330
3DB
100
AcDbEntity
  8
DIBUJOS
 62
     7
100
AcDb2dPolyline
 66
     1
 10
0.0
 20
0.0
 30
0.0
  0
VERTEX
  5
552
330
551
100
AcDbEntity
  8
DIBUJOS
 62
     7
100
AcDbVertex
100
AcDb2dVertex
 10
61.22336005060876
 20
29.81035336438097
 30
0.0
  0
VERTEX
  5
553
330
551
100
AcDbEntity
  8
DIBUJOS
 62
     7
100
AcDbVertex
100
AcDb2dVertex
 10
61.17312657222833
 20
30.00565295832393
 30
0.0
  0
SEQEND
  5
554
330
551
100
AcDbEntity
  8
DIBUJOS
 62
     7
  0
POLYLINE
  5
555
330
3DB
100
AcDbEntity
  8
DIBUJOS
 62
     7
100
AcDb2dPolyline
 66
     1
 10
0.0
 20
0.0
 30
0.0
  0
VERTEX
  5
556
330
555
100
AcDbEntity
  8
DIBUJOS
 62
     7
100
AcDbVertex
100
AcDb2dVertex
 10
61.22336005060876
 20
29.80477401962926
 30
0.0
  0
VERTEX
  5
557
330
555
100
AcDbEntity
  8
DIBUJOS
 62
     7
100
AcDbVertex
100
AcDb2dVertex
 10
61.21777838609258
 20
29.80477401962926
 30
0.0
  0
SEQEND
  5
558
330
555
100
AcDbEntity
  8
DIBUJOS
 62
     7
  0
POLYLINE
  5
559
330
3DB
100
AcDbEntity
  8
DIBUJOS
 62
     7
100
AcDb2dPolyline
 66
     1
 10
0.0
 20
0.0
 30
0.0
  0
VERTEX
  5
55A
330
559
100
AcDbEntity
  8
DIBUJOS
 62
     7
100
AcDbVertex
100
AcDb2dVertex
 10
61.22336005060876
 20
29.80477401962926
 30
0.0
  0
VERTEX
  5
55B
330
559
100
AcDbEntity
  8
DIBUJOS
 62
     7
100
AcDbVertex
100
AcDb2dVertex
 10
61.22336005060876
 20
29.81035336438097
 30
0.0
  0
SEQEND
  5
55C
330
559
100
AcDbEntity
  8
DIBUJOS
 62
     7
  0
POLYLINE
  5
55D
330
3DB
100
AcDbEntity
  8
DIBUJOS
 62
     7
100
AcDb2dPolyline
 66
     1
 10
0.0
 20
0.0
 30
0.0
  0
VERTEX
  5
55E
330
55D
100
AcDbEntity
  8
DIBUJOS
 62
     7
100
AcDbVertex
100
AcDb2dVertex
 10
68.6468281373704
 20
29.80477401962926
 30
0.0
  0
VERTEX
  5
55F
330
55D
100
AcDbEntity
  8
DIBUJOS
 62
     7
100
AcDbVertex
100
AcDb2dVertex
 10
68.6468281373704
 20
29.82151355572642
 30
0.0
  0
SEQEND
  5
560
330
55D
100
AcDbEntity
  8
DIBUJOS
 62
     7
  0
POLYLINE
  5
561
330
3DB
100
AcDbEntity
  8
DIBUJOS
 62
     7
100
AcDb2dPolyline
 66
     1
 10
0.0
 20
0.0
 30
0.0
  0
VERTEX
  5
562
330
561
100
AcDbEntity
  8
DIBUJOS
 62
     7
100
AcDbVertex
100
AcDb2dVertex
 10
61.21219747270853
 20
29.79919392395621
 30
0.0
  0
VERTEX
  5
563
330
561
100
AcDbEntity
  8
DIBUJOS
 62
     7
100
AcDbVertex
100
AcDb2dVertex
 10
61.21777838609258
 20
29.80477401962926
 30
0.0
  0
SEQEND
  5
564
330
561
100
AcDbEntity
  8
DIBUJOS
 62
     7
  0
POLYLINE
  5
565
330
3DB
100
AcDbEntity
  8
DIBUJOS
 62
     7
100
AcDb2dPolyline
 66
     1
 10
0.0
 20
0.0
 30
0.0
  0
VERTEX
  5
566
330
565
100
AcDbEntity
  8
DIBUJOS
 62
     7
100
AcDbVertex
100
AcDb2dVertex
 10
61.21777838609258
 20
29.94985350343805
 30
0.0
  0
VERTEX
  5
567
330
565
100
AcDbEntity
  8
DIBUJOS
 62
     7
100
AcDbVertex
100
AcDb2dVertex
 10
61.23452337964082
 20
29.94985350343805
 30
0.0
  0
VERTEX
  5
568
330
565
100
AcDbEntity
  8
DIBUJOS
 62
     7
100
AcDbVertex
100
AcDb2dVertex
 10
61.25126762205691
 20
29.92195377599479
 30
0.0
  0
VERTEX
  5
569
330
565
100
AcDbEntity
  8
DIBUJOS
 62
     7
100
AcDbVertex
100
AcDb2dVertex
 10
61.35675965425983
 20
29.87619789258344
 30
0.0
  0
VERTEX
  5
56A
330
565
100
AcDbEntity
  8
DIBUJOS
 62
     7
100
AcDbVertex
100
AcDb2dVertex
 10
61.39024889022449
 20
29.86447976676256
 30
0.0
  0
VERTEX
  5
56B
330
565
100
AcDbEntity
  8
DIBUJOS
 62
     7
100
AcDbVertex
100
AcDb2dVertex
 10
61.49165175789706
 20
29.82935617707074
 30
0.0
  0
VERTEX
  5
56C
330
565
100
AcDbEntity
  8
DIBUJOS
 62
     7
100
AcDbVertex
100
AcDb2dVertex
 10
61.69221085637445
 20
29.79919392395621
 30
0.0
  0
VERTEX
  5
56D
330
565
100
AcDbEntity
  8
DIBUJOS
 62
     7
100
AcDbVertex
100
AcDb2dVertex
 10
61.74759710269765
 20
29.81250024818237
 30
0.0
  0
VERTEX
  5
56E
330
565
100
AcDbEntity
  8
DIBUJOS
 62
     7
100
AcDbVertex
100
AcDb2dVertex
 10
61.87082036522852
 20
29.83825384274493
 30
0.0
  0
SEQEND
  5
56F
330
565
100
AcDbEntity
  8
DIBUJOS
 62
     7
  0
POLYLINE
  5
570
330
3DB
100
AcDbEntity
  8
DIBUJOS
 62
     7
100
AcDb2dPolyline
 66
     1
 10
0.0
 20
0.0
 30
0.0
  0
VERTEX
  5
571
330
570
100
AcDbEntity
  8
DIBUJOS
 62
     7
100
AcDbVertex
100
AcDb2dVertex
 10
67.96587858678663
 20
29.83267374707253
 30
0.0
  0
VERTEX
  5
572
330
570
100
AcDbEntity
  8
DIBUJOS
 62
     7
100
AcDbVertex
100
AcDb2dVertex
 10
67.97145950017003
 20
29.83825384274493
 30
0.0
  0
VERTEX
  5
573
330
570
100
AcDbEntity
  8
DIBUJOS
 62
     7
100
AcDbVertex
100
AcDb2dVertex
 10
68.06119427786902
 20
29.81807959293407
 30
0.0
  0
VERTEX
  5
574
330
570
100
AcDbEntity
  8
DIBUJOS
 62
     7
100
AcDbVertex
100
AcDb2dVertex
 10
68.08266164052168
 20
29.81378732717332
 30
0.0
  0
VERTEX
  5
575
330
570
100
AcDbEntity
  8
DIBUJOS
 62
     7
100
AcDbVertex
100
AcDb2dVertex
 10
68.14448734450791
 20
29.79919392395621
 30
0.0
  0
VERTEX
  5
576
330
570
100
AcDbEntity
  8
DIBUJOS
 62
     7
100
AcDbVertex
100
AcDb2dVertex
 10
68.18355824498843
 20
29.79919392395621
 30
0.0
  0
VERTEX
  5
577
330
570
100
AcDbEntity
  8
DIBUJOS
 62
     7
100
AcDbVertex
100
AcDb2dVertex
 10
68.344994614853
 20
29.82923978427953
 30
0.0
  0
VERTEX
  5
578
330
570
100
AcDbEntity
  8
DIBUJOS
 62
     7
100
AcDbVertex
100
AcDb2dVertex
 10
68.43975146346513
 20
29.86168934346536
 30
0.0
  0
VERTEX
  5
579
330
570
100
AcDbEntity
  8
DIBUJOS
 62
     7
100
AcDbVertex
100
AcDb2dVertex
 10
68.49110187565458
 20
29.88121930285972
 30
0.0
  0
VERTEX
  5
57A
330
570
100
AcDbEntity
  8
DIBUJOS
 62
     7
100
AcDbVertex
100
AcDb2dVertex
 10
68.56868633640967
 20
29.91079358464933
 30
0.0
  0
VERTEX
  5
57B
330
570
100
AcDbEntity
  8
DIBUJOS
 62
     7
100
AcDbVertex
100
AcDb2dVertex
 10
68.59101149220916
 20
29.93869331209259
 30
0.0
  0
VERTEX
  5
57C
330
570
100
AcDbEntity
  8
DIBUJOS
 62
     7
100
AcDbVertex
100
AcDb2dVertex
 10
68.62394413910032
 20
29.95654946806131
 30
0.0
  0
VERTEX
  5
57D
330
570
100
AcDbEntity
  8
DIBUJOS
 62
     7
100
AcDbVertex
100
AcDb2dVertex
 10
68.63008239268969
 20
29.96101369478351
 30
0.0
  0
SEQEND
  5
57E
330
570
100
AcDbEntity
  8
DIBUJOS
 62
     7
  0
POLYLINE
  5
57F
330
3DB
100
AcDbEntity
  8
DIBUJOS
 62
     7
100
AcDb2dPolyline
 66
     1
 10
0.0
 20
0.0
 30
0.0
  0
VERTEX
  5
580
330
57F
100
AcDbEntity
  8
DIBUJOS
 62
     7
100
AcDbVertex
100
AcDb2dVertex
 10
68.65240905075412
 20
29.79919392395621
 30
0.0
  0
VERTEX
  5
581
330
57F
100
AcDbEntity
  8
DIBUJOS
 62
     7
100
AcDbVertex
100
AcDb2dVertex
 10
68.6468281373704
 20
29.80477401962926
 30
0.0
  0
SEQEND
  5
582
330
57F
100
AcDbEntity
  8
DIBUJOS
 62
     7
  0
POLYLINE
  5
583
330
3DB
100
AcDbEntity
  8
DIBUJOS
 62
     7
100
AcDb2dPolyline
 66
     1
 10
0.0
 20
0.0
 30
0.0
  0
VERTEX
  5
584
330
583
100
AcDbEntity
  8
DIBUJOS
 62
     7
100
AcDbVertex
100
AcDb2dVertex
 10
68.65799146640278
 20
29.79919392395621
 30
0.0
  0
VERTEX
  5
585
330
583
100
AcDbEntity
  8
DIBUJOS
 62
     7
100
AcDbVertex
100
AcDb2dVertex
 10
68.65240905075412
 20
29.79919392395621
 30
0.0
  0
SEQEND
  5
586
330
583
100
AcDbEntity
  8
DIBUJOS
 62
     7
  0
POLYLINE
  5
587
330
3DB
100
AcDbEntity
  8
DIBUJOS
 62
     7
100
AcDb2dPolyline
 66
     1
 10
0.0
 20
0.0
 30
0.0
  0
VERTEX
  5
588
330
587
100
AcDbEntity
  8
DIBUJOS
 62
     7
100
AcDbVertex
100
AcDb2dVertex
 10
68.65799146640278
 20
29.79919392395621
 30
0.0
  0
VERTEX
  5
589
330
587
100
AcDbEntity
  8
DIBUJOS
 62
     7
100
AcDbVertex
100
AcDb2dVertex
 10
68.66524740493395
 20
29.81537552557859
 30
0.0
  0
VERTEX
  5
58A
330
587
100
AcDbEntity
  8
DIBUJOS
 62
     7
100
AcDbVertex
100
AcDb2dVertex
 10
68.71477406776997
 20
29.95056312400234
 30
0.0
  0
VERTEX
  5
58B
330
587
100
AcDbEntity
  8
DIBUJOS
 62
     7
100
AcDbVertex
100
AcDb2dVertex
 10
68.72496993833145
 20
30.07261335547662
 30
0.0
  0
SEQEND
  5
58C
330
587
100
AcDbEntity
  8
DIBUJOS
 62
     7
  0
POLYLINE
  5
58D
330
3DB
100
AcDbEntity
  8
DIBUJOS
 62
     7
100
AcDb2dPolyline
 66
     1
 10
0.0
 20
0.0
 30
0.0
  0
VERTEX
  5
58E
330
58D
100
AcDbEntity
  8
DIBUJOS
 62
     7
100
AcDbVertex
100
AcDb2dVertex
 10
61.20103414367648
 20
29.7936138282838
 30
0.0
  0
VERTEX
  5
58F
330
58D
100
AcDbEntity
  8
DIBUJOS
 62
     7
100
AcDbVertex
100
AcDb2dVertex
 10
61.20103414367648
 20
29.79919392395621
 30
0.0
  0
VERTEX
  5
590
330
58D
100
AcDbEntity
  8
DIBUJOS
 62
     7
100
AcDbVertex
100
AcDb2dVertex
 10
61.20661580819235
 20
29.80477401962926
 30
0.0
  0
VERTEX
  5
591
330
58D
100
AcDbEntity
  8
DIBUJOS
 62
     7
100
AcDbVertex
100
AcDb2dVertex
 10
61.21219747270853
 20
29.79919392395621
 30
0.0
  0
SEQEND
  5
592
330
58D
100
AcDbEntity
  8
DIBUJOS
 62
     7
  0
POLYLINE
  5
593
330
3DB
100
AcDbEntity
  8
DIBUJOS
 62
     7
100
AcDb2dPolyline
 66
     1
 10
0.0
 20
0.0
 30
0.0
  0
VERTEX
  5
594
330
593
100
AcDbEntity
  8
DIBUJOS
 62
     7
100
AcDbVertex
100
AcDb2dVertex
 10
61.22894171512495
 20
29.7936138282838
 30
0.0
  0
VERTEX
  5
595
330
593
100
AcDbEntity
  8
DIBUJOS
 62
     7
100
AcDbVertex
100
AcDb2dVertex
 10
61.22336005060876
 20
29.80477401962926
 30
0.0
  0
SEQEND
  5
596
330
593
100
AcDbEntity
  8
DIBUJOS
 62
     7
  0
POLYLINE
  5
597
330
3DB
100
AcDbEntity
  8
DIBUJOS
 62
     7
100
AcDb2dPolyline
 66
     1
 10
0.0
 20
0.0
 30
0.0
  0
VERTEX
  5
598
330
597
100
AcDbEntity
  8
DIBUJOS
 62
     7
100
AcDbVertex
100
AcDb2dVertex
 10
68.65799146640278
 20
29.7936138282838
 30
0.0
  0
VERTEX
  5
599
330
597
100
AcDbEntity
  8
DIBUJOS
 62
     7
100
AcDbVertex
100
AcDb2dVertex
 10
68.65799146640278
 20
29.79919392395621
 30
0.0
  0
SEQEND
  5
59A
330
597
100
AcDbEntity
  8
DIBUJOS
 62
     7
  0
POLYLINE
  5
59B
330
3DB
100
AcDbEntity
  8
DIBUJOS
 62
     7
100
AcDb2dPolyline
 66
     1
 10
0.0
 20
0.0
 30
0.0
  0
VERTEX
  5
59C
330
59B
100
AcDbEntity
  8
DIBUJOS
 62
     7
100
AcDbVertex
100
AcDb2dVertex
 10
61.22894171512495
 20
29.78803373261075
 30
0.0
  0
VERTEX
  5
59D
330
59B
100
AcDbEntity
  8
DIBUJOS
 62
     7
100
AcDbVertex
100
AcDb2dVertex
 10
61.22336005060876
 20
29.78803373261075
 30
0.0
  0
SEQEND
  5
59E
330
59B
100
AcDbEntity
  8
DIBUJOS
 62
     7
  0
POLYLINE
  5
59F
330
3DB
100
AcDbEntity
  8
DIBUJOS
 62
     7
100
AcDb2dPolyline
 66
     1
 10
0.0
 20
0.0
 30
0.0
  0
VERTEX
  5
5A0
330
59F
100
AcDbEntity
  8
DIBUJOS
 62
     7
100
AcDbVertex
100
AcDb2dVertex
 10
61.22894171512495
 20
29.78803373261075
 30
0.0
  0
VERTEX
  5
5A1
330
59F
100
AcDbEntity
  8
DIBUJOS
 62
     7
100
AcDbVertex
100
AcDb2dVertex
 10
61.22894171512495
 20
29.7936138282838
 30
0.0
  0
SEQEND
  5
5A2
330
59F
100
AcDbEntity
  8
DIBUJOS
 62
     7
  0
POLYLINE
  5
5A3
330
3DB
100
AcDbEntity
  8
DIBUJOS
 62
     7
100
AcDb2dPolyline
 66
     1
 10
0.0
 20
0.0
 30
0.0
  0
VERTEX
  5
5A4
330
5A3
100
AcDbEntity
  8
DIBUJOS
 62
     7
100
AcDbVertex
100
AcDb2dVertex
 10
68.64124572172175
 20
29.78803373261075
 30
0.0
  0
VERTEX
  5
5A5
330
5A3
100
AcDbEntity
  8
DIBUJOS
 62
     7
100
AcDbVertex
100
AcDb2dVertex
 10
68.6468281373704
 20
29.80477401962926
 30
0.0
  0
SEQEND
  5
5A6
330
5A3
100
AcDbEntity
  8
DIBUJOS
 62
     7
  0
POLYLINE
  5
5A7
330
3DB
100
AcDbEntity
  8
DIBUJOS
 62
     7
100
AcDb2dPolyline
 66
     1
 10
0.0
 20
0.0
 30
0.0
  0
VERTEX
  5
5A8
330
5A7
100
AcDbEntity
  8
DIBUJOS
 62
     7
100
AcDbVertex
100
AcDb2dVertex
 10
61.21777838609258
 20
29.7824536369377
 30
0.0
  0
VERTEX
  5
5A9
330
5A7
100
AcDbEntity
  8
DIBUJOS
 62
     7
100
AcDbVertex
100
AcDb2dVertex
 10
61.21219747270853
 20
29.79919392395621
 30
0.0
  0
SEQEND
  5
5AA
330
5A7
100
AcDbEntity
  8
DIBUJOS
 62
     7
  0
POLYLINE
  5
5AB
330
3DB
100
AcDbEntity
  8
DIBUJOS
 62
     7
100
AcDb2dPolyline
 66
     1
 10
0.0
 20
0.0
 30
0.0
  0
VERTEX
  5
5AC
330
5AB
100
AcDbEntity
  8
DIBUJOS
 62
     7
100
AcDbVertex
100
AcDb2dVertex
 10
61.21777838609258
 20
29.7824536369377
 30
0.0
  0
VERTEX
  5
5AD
330
5AB
100
AcDbEntity
  8
DIBUJOS
 62
     7
100
AcDbVertex
100
AcDb2dVertex
 10
61.22336005060876
 20
29.78803373261075
 30
0.0
  0
SEQEND
  5
5AE
330
5AB
100
AcDbEntity
  8
DIBUJOS
 62
     7
  0
POLYLINE
  5
5AF
330
3DB
100
AcDbEntity
  8
DIBUJOS
 62
     7
100
AcDb2dPolyline
 66
     1
 10
0.0
 20
0.0
 30
0.0
  0
VERTEX
  5
5B0
330
5AF
100
AcDbEntity
  8
DIBUJOS
 62
     7
100
AcDbVertex
100
AcDb2dVertex
 10
68.6468281373704
 20
29.7824536369377
 30
0.0
  0
VERTEX
  5
5B1
330
5AF
100
AcDbEntity
  8
DIBUJOS
 62
     7
100
AcDbVertex
100
AcDb2dVertex
 10
68.64124572172175
 20
29.78803373261075
 30
0.0
  0
SEQEND
  5
5B2
330
5AF
100
AcDbEntity
  8
DIBUJOS
 62
     7
  0
POLYLINE
  5
5B3
330
3DB
100
AcDbEntity
  8
DIBUJOS
 62
     7
100
AcDb2dPolyline
 66
     1
 10
0.0
 20
0.0
 30
0.0
  0
VERTEX
  5
5B4
330
5B3
100
AcDbEntity
  8
DIBUJOS
 62
     7
100
AcDbVertex
100
AcDb2dVertex
 10
68.65240905075412
 20
29.7824536369377
 30
0.0
  0
VERTEX
  5
5B5
330
5B3
100
AcDbEntity
  8
DIBUJOS
 62
     7
100
AcDbVertex
100
AcDb2dVertex
 10
68.6468281373704
 20
29.7824536369377
 30
0.0
  0
SEQEND
  5
5B6
330
5B3
100
AcDbEntity
  8
DIBUJOS
 62
     7
  0
POLYLINE
  5
5B7
330
3DB
100
AcDbEntity
  8
DIBUJOS
 62
     7
100
AcDb2dPolyline
 66
     1
 10
0.0
 20
0.0
 30
0.0
  0
VERTEX
  5
5B8
330
5B7
100
AcDbEntity
  8
DIBUJOS
 62
     7
100
AcDbVertex
100
AcDb2dVertex
 10
68.65240905075412
 20
29.7824536369377
 30
0.0
  0
VERTEX
  5
5B9
330
5B7
100
AcDbEntity
  8
DIBUJOS
 62
     7
100
AcDbVertex
100
AcDb2dVertex
 10
68.65799146640278
 20
29.7936138282838
 30
0.0
  0
SEQEND
  5
5BA
330
5B7
100
AcDbEntity
  8
DIBUJOS
 62
     7
  0
POLYLINE
  5
5BB
330
3DB
100
AcDbEntity
  8
DIBUJOS
 62
     7
100
AcDb2dPolyline
 66
     1
 10
0.0
 20
0.0
 30
0.0
  0
VERTEX
  5
5BC
330
5BB
100
AcDbEntity
  8
DIBUJOS
 62
     7
100
AcDbVertex
100
AcDb2dVertex
 10
68.65240905075412
 20
29.77687429218664
 30
0.0
  0
VERTEX
  5
5BD
330
5BB
100
AcDbEntity
  8
DIBUJOS
 62
     7
100
AcDbVertex
100
AcDb2dVertex
 10
68.65240905075412
 20
29.7824536369377
 30
0.0
  0
SEQEND
  5
5BE
330
5BB
100
AcDbEntity
  8
DIBUJOS
 62
     7
  0
POLYLINE
  5
5BF
330
3DB
100
AcDbEntity
  8
DIBUJOS
 62
     7
100
AcDb2dPolyline
 66
     1
 10
0.0
 20
0.0
 30
0.0
  0
VERTEX
  5
5C0
330
5BF
100
AcDbEntity
  8
DIBUJOS
 62
     7
100
AcDbVertex
100
AcDb2dVertex
 10
61.23452337964082
 20
29.77129419651359
 30
0.0
  0
VERTEX
  5
5C1
330
5BF
100
AcDbEntity
  8
DIBUJOS
 62
     7
100
AcDbVertex
100
AcDb2dVertex
 10
61.22894171512495
 20
29.78803373261075
 30
0.0
  0
SEQEND
  5
5C2
330
5BF
100
AcDbEntity
  8
DIBUJOS
 62
     7
  0
POLYLINE
  5
5C3
330
3DB
100
AcDbEntity
  8
DIBUJOS
 62
     7
100
AcDb2dPolyline
 66
     1
 10
0.0
 20
0.0
 30
0.0
  0
VERTEX
  5
5C4
330
5C3
100
AcDbEntity
  8
DIBUJOS
 62
     7
100
AcDbVertex
100
AcDb2dVertex
 10
68.63566480833802
 20
29.77129419651359
 30
0.0
  0
VERTEX
  5
5C5
330
5C3
100
AcDbEntity
  8
DIBUJOS
 62
     7
100
AcDbVertex
100
AcDb2dVertex
 10
68.64124572172175
 20
29.78803373261075
 30
0.0
  0
SEQEND
  5
5C6
330
5C3
100
AcDbEntity
  8
DIBUJOS
 62
     7
  0
POLYLINE
  5
5C7
330
3DB
100
AcDbEntity
  8
DIBUJOS
 62
     7
100
AcDb2dPolyline
 66
     1
 10
0.0
 20
0.0
 30
0.0
  0
VERTEX
  5
5C8
330
5C7
100
AcDbEntity
  8
DIBUJOS
 62
     7
100
AcDbVertex
100
AcDb2dVertex
 10
68.6468281373704
 20
29.77129419651359
 30
0.0
  0
VERTEX
  5
5C9
330
5C7
100
AcDbEntity
  8
DIBUJOS
 62
     7
100
AcDbVertex
100
AcDb2dVertex
 10
68.65240905075412
 20
29.77687429218664
 30
0.0
  0
SEQEND
  5
5CA
330
5C7
100
AcDbEntity
  8
DIBUJOS
 62
     7
  0
POLYLINE
  5
5CB
330
3DB
100
AcDbEntity
  8
DIBUJOS
 62
     7
100
AcDb2dPolyline
 66
     1
 10
0.0
 20
0.0
 30
0.0
  0
VERTEX
  5
5CC
330
5CB
100
AcDbEntity
  8
DIBUJOS
 62
     7
100
AcDbVertex
100
AcDb2dVertex
 10
61.23452337964082
 20
29.76571410084054
 30
0.0
  0
VERTEX
  5
5CD
330
5CB
100
AcDbEntity
  8
DIBUJOS
 62
     7
100
AcDbVertex
100
AcDb2dVertex
 10
61.22894171512495
 20
29.76571410084054
 30
0.0
  0
SEQEND
  5
5CE
330
5CB
100
AcDbEntity
  8
DIBUJOS
 62
     7
  0
POLYLINE
  5
5CF
330
3DB
100
AcDbEntity
  8
DIBUJOS
 62
     7
100
AcDb2dPolyline
 66
     1
 10
0.0
 20
0.0
 30
0.0
  0
VERTEX
  5
5D0
330
5CF
100
AcDbEntity
  8
DIBUJOS
 62
     7
100
AcDbVertex
100
AcDb2dVertex
 10
61.23452337964082
 20
29.76571410084054
 30
0.0
  0
VERTEX
  5
5D1
330
5CF
100
AcDbEntity
  8
DIBUJOS
 62
     7
100
AcDbVertex
100
AcDb2dVertex
 10
61.23452337964082
 20
29.77129419651359
 30
0.0
  0
SEQEND
  5
5D2
330
5CF
100
AcDbEntity
  8
DIBUJOS
 62
     7
  0
POLYLINE
  5
5D3
330
3DB
100
AcDbEntity
  8
DIBUJOS
 62
     7
100
AcDb2dPolyline
 66
     1
 10
0.0
 20
0.0
 30
0.0
  0
VERTEX
  5
5D4
330
5D3
100
AcDbEntity
  8
DIBUJOS
 62
     7
100
AcDbVertex
100
AcDb2dVertex
 10
68.63566480833802
 20
29.76571410084054
 30
0.0
  0
VERTEX
  5
5D5
330
5D3
100
AcDbEntity
  8
DIBUJOS
 62
     7
100
AcDbVertex
100
AcDb2dVertex
 10
68.63566480833802
 20
29.77129419651359
 30
0.0
  0
SEQEND
  5
5D6
330
5D3
100
AcDbEntity
  8
DIBUJOS
 62
     7
  0
POLYLINE
  5
5D7
330
3DB
100
AcDbEntity
  8
DIBUJOS
 62
     7
100
AcDb2dPolyline
 66
     1
 10
0.0
 20
0.0
 30
0.0
  0
VERTEX
  5
5D8
330
5D7
100
AcDbEntity
  8
DIBUJOS
 62
     7
100
AcDbVertex
100
AcDb2dVertex
 10
68.64124572172175
 20
29.76571410084054
 30
0.0
  0
VERTEX
  5
5D9
330
5D7
100
AcDbEntity
  8
DIBUJOS
 62
     7
100
AcDbVertex
100
AcDb2dVertex
 10
68.63566480833802
 20
29.76571410084054
 30
0.0
  0
SEQEND
  5
5DA
330
5D7
100
AcDbEntity
  8
DIBUJOS
 62
     7
  0
POLYLINE
  5
5DB
330
3DB
100
AcDbEntity
  8
DIBUJOS
 62
     7
100
AcDb2dPolyline
 66
     1
 10
0.0
 20
0.0
 30
0.0
  0
VERTEX
  5
5DC
330
5DB
100
AcDbEntity
  8
DIBUJOS
 62
     7
100
AcDbVertex
100
AcDb2dVertex
 10
68.6468281373704
 20
29.76571410084054
 30
0.0
  0
VERTEX
  5
5DD
330
5DB
100
AcDbEntity
  8
DIBUJOS
 62
     7
100
AcDbVertex
100
AcDb2dVertex
 10
68.64124572172175
 20
29.76571410084054
 30
0.0
  0
SEQEND
  5
5DE
330
5DB
100
AcDbEntity
  8
DIBUJOS
 62
     7
  0
POLYLINE
  5
5DF
330
3DB
100
AcDbEntity
  8
DIBUJOS
 62
     7
100
AcDb2dPolyline
 66
     1
 10
0.0
 20
0.0
 30
0.0
  0
VERTEX
  5
5E0
330
5DF
100
AcDbEntity
  8
DIBUJOS
 62
     7
100
AcDbVertex
100
AcDb2dVertex
 10
68.6468281373704
 20
29.76571410084054
 30
0.0
  0
VERTEX
  5
5E1
330
5DF
100
AcDbEntity
  8
DIBUJOS
 62
     7
100
AcDbVertex
100
AcDb2dVertex
 10
68.6468281373704
 20
29.77129419651359
 30
0.0
  0
SEQEND
  5
5E2
330
5DF
100
AcDbEntity
  8
DIBUJOS
 62
     7
  0
POLYLINE
  5
5E3
330
3DB
100
AcDbEntity
  8
DIBUJOS
 62
     7
100
AcDb2dPolyline
 66
     1
 10
0.0
 20
0.0
 30
0.0
  0
VERTEX
  5
5E4
330
5E3
100
AcDbEntity
  8
DIBUJOS
 62
     7
100
AcDbVertex
100
AcDb2dVertex
 10
61.22336005060876
 20
29.76013400516813
 30
0.0
  0
VERTEX
  5
5E5
330
5E3
100
AcDbEntity
  8
DIBUJOS
 62
     7
100
AcDbVertex
100
AcDb2dVertex
 10
61.21777838609258
 20
29.7824536369377
 30
0.0
  0
SEQEND
  5
5E6
330
5E3
100
AcDbEntity
  8
DIBUJOS
 62
     7
  0
POLYLINE
  5
5E7
330
3DB
100
AcDbEntity
  8
DIBUJOS
 62
     7
100
AcDb2dPolyline
 66
     1
 10
0.0
 20
0.0
 30
0.0
  0
VERTEX
  5
5E8
330
5E7
100
AcDbEntity
  8
DIBUJOS
 62
     7
100
AcDbVertex
100
AcDb2dVertex
 10
61.22336005060876
 20
29.76013400516813
 30
0.0
  0
VERTEX
  5
5E9
330
5E7
100
AcDbEntity
  8
DIBUJOS
 62
     7
100
AcDbVertex
100
AcDb2dVertex
 10
61.22894171512495
 20
29.76571410084054
 30
0.0
  0
SEQEND
  5
5EA
330
5E7
100
AcDbEntity
  8
DIBUJOS
 62
     7
  0
POLYLINE
  5
5EB
330
3DB
100
AcDbEntity
  8
DIBUJOS
 62
     7
100
AcDb2dPolyline
 66
     1
 10
0.0
 20
0.0
 30
0.0
  0
VERTEX
  5
5EC
330
5EB
100
AcDbEntity
  8
DIBUJOS
 62
     7
100
AcDbVertex
100
AcDb2dVertex
 10
68.6468281373704
 20
29.76013400516813
 30
0.0
  0
VERTEX
  5
5ED
330
5EB
100
AcDbEntity
  8
DIBUJOS
 62
     7
100
AcDbVertex
100
AcDb2dVertex
 10
68.6468281373704
 20
29.76571410084054
 30
0.0
  0
SEQEND
  5
5EE
330
5EB
100
AcDbEntity
  8
DIBUJOS
 62
     7
  0
POLYLINE
  5
5EF
330
3DB
100
AcDbEntity
  8
DIBUJOS
 62
     7
100
AcDb2dPolyline
 66
     1
 10
0.0
 20
0.0
 30
0.0
  0
VERTEX
  5
5F0
330
5EF
100
AcDbEntity
  8
DIBUJOS
 62
     7
100
AcDbVertex
100
AcDb2dVertex
 10
61.23452337964082
 20
29.74897381382203
 30
0.0
  0
VERTEX
  5
5F1
330
5EF
100
AcDbEntity
  8
DIBUJOS
 62
     7
100
AcDbVertex
100
AcDb2dVertex
 10
61.23452337964082
 20
29.76571410084054
 30
0.0
  0
SEQEND
  5
5F2
330
5EF
100
AcDbEntity
  8
DIBUJOS
 62
     7
  0
POLYLINE
  5
5F3
330
3DB
100
AcDbEntity
  8
DIBUJOS
 62
     7
100
AcDb2dPolyline
 66
     1
 10
0.0
 20
0.0
 30
0.0
  0
VERTEX
  5
5F4
330
5F3
100
AcDbEntity
  8
DIBUJOS
 62
     7
100
AcDbVertex
100
AcDb2dVertex
 10
68.63008239268969
 20
29.74897381382203
 30
0.0
  0
VERTEX
  5
5F5
330
5F3
100
AcDbEntity
  8
DIBUJOS
 62
     7
100
AcDbVertex
100
AcDb2dVertex
 10
68.63566480833802
 20
29.76571410084054
 30
0.0
  0
SEQEND
  5
5F6
330
5F3
100
AcDbEntity
  8
DIBUJOS
 62
     7
  0
POLYLINE
  5
5F7
330
3DB
100
AcDbEntity
  8
DIBUJOS
 62
     7
100
AcDb2dPolyline
 66
     1
 10
0.0
 20
0.0
 30
0.0
  0
VERTEX
  5
5F8
330
5F7
100
AcDbEntity
  8
DIBUJOS
 62
     7
100
AcDbVertex
100
AcDb2dVertex
 10
61.22894171512495
 20
29.74339371814962
 30
0.0
  0
VERTEX
  5
5F9
330
5F7
100
AcDbEntity
  8
DIBUJOS
 62
     7
100
AcDbVertex
100
AcDb2dVertex
 10
61.22336005060876
 20
29.76013400516813
 30
0.0
  0
SEQEND
  5
5FA
330
5F7
100
AcDbEntity
  8
DIBUJOS
 62
     7
  0
POLYLINE
  5
5FB
330
3DB
100
AcDbEntity
  8
DIBUJOS
 62
     7
100
AcDb2dPolyline
 66
     1
 10
0.0
 20
0.0
 30
0.0
  0
VERTEX
  5
5FC
330
5FB
100
AcDbEntity
  8
DIBUJOS
 62
     7
100
AcDbVertex
100
AcDb2dVertex
 10
61.23452337964082
 20
29.74339371814962
 30
0.0
  0
VERTEX
  5
5FD
330
5FB
100
AcDbEntity
  8
DIBUJOS
 62
     7
100
AcDbVertex
100
AcDb2dVertex
 10
61.22894171512495
 20
29.74339371814962
 30
0.0
  0
SEQEND
  5
5FE
330
5FB
100
AcDbEntity
  8
DIBUJOS
 62
     7
  0
POLYLINE
  5
5FF
330
3DB
100
AcDbEntity
  8
DIBUJOS
 62
     7
100
AcDb2dPolyline
 66
     1
 10
0.0
 20
0.0
 30
0.0
  0
VERTEX
  5
600
330
5FF
100
AcDbEntity
  8
DIBUJOS
 62
     7
100
AcDbVertex
100
AcDb2dVertex
 10
61.23452337964082
 20
29.74339371814962
 30
0.0
  0
VERTEX
  5
601
330
5FF
100
AcDbEntity
  8
DIBUJOS
 62
     7
100
AcDbVertex
100
AcDb2dVertex
 10
61.23452337964082
 20
29.74897381382203
 30
0.0
  0
SEQEND
  5
602
330
5FF
100
AcDbEntity
  8
DIBUJOS
 62
     7
  0
POLYLINE
  5
603
330
3DB
100
AcDbEntity
  8
DIBUJOS
 62
     7
100
AcDb2dPolyline
 66
     1
 10
0.0
 20
0.0
 30
0.0
  0
VERTEX
  5
604
330
603
100
AcDbEntity
  8
DIBUJOS
 62
     7
100
AcDbVertex
100
AcDb2dVertex
 10
68.63008239268969
 20
29.74339371814962
 30
0.0
  0
VERTEX
  5
605
330
603
100
AcDbEntity
  8
DIBUJOS
 62
     7
100
AcDbVertex
100
AcDb2dVertex
 10
68.63008239268969
 20
29.74897381382203
 30
0.0
  0
SEQEND
  5
606
330
603
100
AcDbEntity
  8
DIBUJOS
 62
     7
  0
POLYLINE
  5
607
330
3DB
100
AcDbEntity
  8
DIBUJOS
 62
     7
100
AcDb2dPolyline
 66
     1
 10
0.0
 20
0.0
 30
0.0
  0
VERTEX
  5
608
330
607
100
AcDbEntity
  8
DIBUJOS
 62
     7
100
AcDbVertex
100
AcDb2dVertex
 10
68.63566480833802
 20
29.74339371814962
 30
0.0
  0
VERTEX
  5
609
330
607
100
AcDbEntity
  8
DIBUJOS
 62
     7
100
AcDbVertex
100
AcDb2dVertex
 10
68.63008239268969
 20
29.74339371814962
 30
0.0
  0
SEQEND
  5
60A
330
607
100
AcDbEntity
  8
DIBUJOS
 62
     7
  0
POLYLINE
  5
60B
330
3DB
100
AcDbEntity
  8
DIBUJOS
 62
     7
100
AcDb2dPolyline
 66
     1
 10
0.0
 20
0.0
 30
0.0
  0
VERTEX
  5
60C
330
60B
100
AcDbEntity
  8
DIBUJOS
 62
     7
100
AcDbVertex
100
AcDb2dVertex
 10
68.63566480833802
 20
29.74339371814962
 30
0.0
  0
VERTEX
  5
60D
330
60B
100
AcDbEntity
  8
DIBUJOS
 62
     7
100
AcDbVertex
100
AcDb2dVertex
 10
68.6468281373704
 20
29.76013400516813
 30
0.0
  0
SEQEND
  5
60E
330
60B
100
AcDbEntity
  8
DIBUJOS
 62
     7
  0
POLYLINE
  5
60F
330
3DB
100
AcDbEntity
  8
DIBUJOS
 62
     7
100
AcDb2dPolyline
 66
     1
 10
0.0
 20
0.0
 30
0.0
  0
VERTEX
  5
610
330
60F
100
AcDbEntity
  8
DIBUJOS
 62
     7
100
AcDbVertex
100
AcDb2dVertex
 10
61.23452337964082
 20
29.73781362247657
 30
0.0
  0
VERTEX
  5
611
330
60F
100
AcDbEntity
  8
DIBUJOS
 62
     7
100
AcDbVertex
100
AcDb2dVertex
 10
61.23452337964082
 20
29.74339371814962
 30
0.0
  0
SEQEND
  5
612
330
60F
100
AcDbEntity
  8
DIBUJOS
 62
     7
  0
POLYLINE
  5
613
330
3DB
100
AcDbEntity
  8
DIBUJOS
 62
     7
100
AcDb2dPolyline
 66
     1
 10
0.0
 20
0.0
 30
0.0
  0
VERTEX
  5
614
330
613
100
AcDbEntity
  8
DIBUJOS
 62
     7
100
AcDbVertex
100
AcDb2dVertex
 10
68.63008239268969
 20
29.73781362247657
 30
0.0
  0
VERTEX
  5
615
330
613
100
AcDbEntity
  8
DIBUJOS
 62
     7
100
AcDbVertex
100
AcDb2dVertex
 10
68.63008239268969
 20
29.74339371814962
 30
0.0
  0
SEQEND
  5
616
330
613
100
AcDbEntity
  8
DIBUJOS
 62
     7
  0
POLYLINE
  5
617
330
3DB
100
AcDbEntity
  8
DIBUJOS
 62
     7
100
AcDb2dPolyline
 66
     1
 10
0.0
 20
0.0
 30
0.0
  0
VERTEX
  5
618
330
617
100
AcDbEntity
  8
DIBUJOS
 62
     7
100
AcDbVertex
100
AcDb2dVertex
 10
61.3908069815626
 20
29.38627510430007
 30
0.0
  0
VERTEX
  5
619
330
617
100
AcDbEntity
  8
DIBUJOS
 62
     7
100
AcDbVertex
100
AcDb2dVertex
 10
61.41704027899577
 20
29.45937278067989
 30
0.0
  0
VERTEX
  5
61A
330
617
100
AcDbEntity
  8
DIBUJOS
 62
     7
100
AcDbVertex
100
AcDb2dVertex
 10
61.44241352988468
 20
29.5190507437271
 30
0.0
  0
VERTEX
  5
61B
330
617
100
AcDbEntity
  8
DIBUJOS
 62
     7
100
AcDbVertex
100
AcDb2dVertex
 10
61.502438018488
 20
29.59273413866779
 30
0.0
  0
VERTEX
  5
61C
330
617
100
AcDbEntity
  8
DIBUJOS
 62
     7
100
AcDbVertex
100
AcDb2dVertex
 10
61.56841222646061
 20
29.64987323703075
 30
0.0
  0
VERTEX
  5
61D
330
617
100
AcDbEntity
  8
DIBUJOS
 62
     7
100
AcDbVertex
100
AcDb2dVertex
 10
61.60949165485327
 20
29.68067527503432
 30
0.0
  0
VERTEX
  5
61E
330
617
100
AcDbEntity
  8
DIBUJOS
 62
     7
100
AcDbVertex
100
AcDb2dVertex
 10
61.70393227674494
 20
29.73669775352636
 30
0.0
  0
VERTEX
  5
61F
330
617
100
AcDbEntity
  8
DIBUJOS
 62
     7
100
AcDbVertex
100
AcDb2dVertex
 10
61.87640202974439
 20
29.82151355572642
 30
0.0
  0
SEQEND
  5
620
330
617
100
AcDbEntity
  8
DIBUJOS
 62
     7
  0
POLYLINE
  5
621
330
3DB
100
AcDbEntity
  8
DIBUJOS
 62
     7
100
AcDb2dPolyline
 66
     1
 10
0.0
 20
0.0
 30
0.0
  0
VERTEX
  5
622
330
621
100
AcDbEntity
  8
DIBUJOS
 62
     7
100
AcDbVertex
100
AcDb2dVertex
 10
68.45705454835213
 20
29.37511491295461
 30
0.0
  0
VERTEX
  5
623
330
621
100
AcDbEntity
  8
DIBUJOS
 62
     7
100
AcDbVertex
100
AcDb2dVertex
 10
68.43026315958053
 20
29.45937278067989
 30
0.0
  0
VERTEX
  5
624
330
621
100
AcDbEntity
  8
DIBUJOS
 62
     7
100
AcDbVertex
100
AcDb2dVertex
 10
68.4054487511622
 20
29.51347139897604
 30
0.0
  0
VERTEX
  5
625
330
621
100
AcDbEntity
  8
DIBUJOS
 62
     7
100
AcDbVertex
100
AcDb2dVertex
 10
68.3454242625592
 20
29.58715404299474
 30
0.0
  0
VERTEX
  5
626
330
621
100
AcDbEntity
  8
DIBUJOS
 62
     7
100
AcDbVertex
100
AcDb2dVertex
 10
68.26814025474563
 20
29.65540151913902
 30
0.0
  0
VERTEX
  5
627
330
621
100
AcDbEntity
  8
DIBUJOS
 62
     7
100
AcDbVertex
100
AcDb2dVertex
 10
68.2327874594128
 20
29.68067527503432
 30
0.0
  0
VERTEX
  5
628
330
621
100
AcDbEntity
  8
DIBUJOS
 62
     7
100
AcDbVertex
100
AcDb2dVertex
 10
68.1383475886536
 20
29.73669775352636
 30
0.0
  0
VERTEX
  5
629
330
621
100
AcDbEntity
  8
DIBUJOS
 62
     7
100
AcDbVertex
100
AcDb2dVertex
 10
67.96029617113764
 20
29.82709365139947
 30
0.0
  0
SEQEND
  5
62A
330
621
100
AcDbEntity
  8
DIBUJOS
 62
     7
  0
POLYLINE
  5
62B
330
3DB
100
AcDbEntity
  8
DIBUJOS
 62
     7
100
AcDb2dPolyline
 66
     1
 10
0.0
 20
0.0
 30
0.0
  0
VERTEX
  5
62C
330
62B
100
AcDbEntity
  8
DIBUJOS
 62
     7
100
AcDbVertex
100
AcDb2dVertex
 10
68.46263696400014
 20
29.3527952811844
 30
0.0
  0
VERTEX
  5
62D
330
62B
100
AcDbEntity
  8
DIBUJOS
 62
     7
100
AcDbVertex
100
AcDb2dVertex
 10
68.46263696400014
 20
29.3583746259361
 30
0.0
  0
SEQEND
  5
62E
330
62B
100
AcDbEntity
  8
DIBUJOS
 62
     7
  0
POLYLINE
  5
62F
330
3DB
100
AcDbEntity
  8
DIBUJOS
 62
     7
100
AcDb2dPolyline
 66
     1
 10
0.0
 20
0.0
 30
0.0
  0
VERTEX
  5
630
330
62F
100
AcDbEntity
  8
DIBUJOS
 62
     7
100
AcDbVertex
100
AcDb2dVertex
 10
68.46263696400014
 20
29.33605499416589
 30
0.0
  0
VERTEX
  5
631
330
62F
100
AcDbEntity
  8
DIBUJOS
 62
     7
100
AcDbVertex
100
AcDb2dVertex
 10
68.46263696400014
 20
29.34163508983894
 30
0.0
  0
SEQEND
  5
632
330
62F
100
AcDbEntity
  8
DIBUJOS
 62
     7
  0
POLYLINE
  5
633
330
3DB
100
AcDbEntity
  8
DIBUJOS
 62
     7
100
AcDb2dPolyline
 66
     1
 10
0.0
 20
0.0
 30
0.0
  0
VERTEX
  5
634
330
633
100
AcDbEntity
  8
DIBUJOS
 62
     7
100
AcDbVertex
100
AcDb2dVertex
 10
61.38522531704674
 20
29.22445533347341
 30
0.0
  0
VERTEX
  5
635
330
633
100
AcDbEntity
  8
DIBUJOS
 62
     7
100
AcDbVertex
100
AcDb2dVertex
 10
61.37703722326524
 20
29.3135724124885
 30
0.0
  0
VERTEX
  5
636
330
633
100
AcDbEntity
  8
DIBUJOS
 62
     7
100
AcDbVertex
100
AcDb2dVertex
 10
61.36178247630544
 20
29.35223659578826
 30
0.0
  0
VERTEX
  5
637
330
633
100
AcDbEntity
  8
DIBUJOS
 62
     7
100
AcDbVertex
100
AcDb2dVertex
 10
61.35843392827514
 20
29.35893331133223
 30
0.0
  0
VERTEX
  5
638
330
633
100
AcDbEntity
  8
DIBUJOS
 62
     7
100
AcDbVertex
100
AcDb2dVertex
 10
61.25852356058809
 20
29.65467237462286
 30
0.0
  0
VERTEX
  5
639
330
633
100
AcDbEntity
  8
DIBUJOS
 62
     7
100
AcDbVertex
100
AcDb2dVertex
 10
61.23452337964082
 20
29.73781362247657
 30
0.0
  0
SEQEND
  5
63A
330
633
100
AcDbEntity
  8
DIBUJOS
 62
     7
  0
POLYLINE
  5
63B
330
3DB
100
AcDbEntity
  8
DIBUJOS
 62
     7
100
AcDb2dPolyline
 66
     1
 10
0.0
 20
0.0
 30
0.0
  0
VERTEX
  5
63C
330
63B
100
AcDbEntity
  8
DIBUJOS
 62
     7
100
AcDbVertex
100
AcDb2dVertex
 10
68.46263696400014
 20
29.19655560603016
 30
0.0
  0
VERTEX
  5
63D
330
63B
100
AcDbEntity
  8
DIBUJOS
 62
     7
100
AcDbVertex
100
AcDb2dVertex
 10
68.46821787738386
 20
29.25235506091604
 30
0.0
  0
VERTEX
  5
63E
330
63B
100
AcDbEntity
  8
DIBUJOS
 62
     7
100
AcDbVertex
100
AcDb2dVertex
 10
68.46263696400014
 20
29.25793515658845
 30
0.0
  0
VERTEX
  5
63F
330
63B
100
AcDbEntity
  8
DIBUJOS
 62
     7
100
AcDbVertex
100
AcDb2dVertex
 10
68.60943075977303
 20
29.6647159460974
 30
0.0
  0
VERTEX
  5
640
330
63B
100
AcDbEntity
  8
DIBUJOS
 62
     7
100
AcDbVertex
100
AcDb2dVertex
 10
68.63008239268969
 20
29.73781362247657
 30
0.0
  0
SEQEND
  5
641
330
63B
100
AcDbEntity
  8
DIBUJOS
 62
     7
  0
POLYLINE
  5
642
330
3DB
100
AcDbEntity
  8
DIBUJOS
 62
     7
100
AcDb2dPolyline
 66
     1
 10
0.0
 20
0.0
 30
0.0
  0
VERTEX
  5
643
330
642
100
AcDbEntity
  8
DIBUJOS
 62
     7
100
AcDbVertex
100
AcDb2dVertex
 10
64.92951167834109
 20
26.71904193717131
 30
0.0
  0
VERTEX
  5
644
330
642
100
AcDbEntity
  8
DIBUJOS
 62
     7
100
AcDbVertex
100
AcDb2dVertex
 10
65.42093851811256
 20
26.75003546008949
 30
0.0
  0
VERTEX
  5
645
330
642
100
AcDbEntity
  8
DIBUJOS
 62
     7
100
AcDbVertex
100
AcDb2dVertex
 10
65.76717447855319
 20
26.81175517796586
 30
0.0
  0
VERTEX
  5
646
330
642
100
AcDbEntity
  8
DIBUJOS
 62
     7
100
AcDbVertex
100
AcDb2dVertex
 10
65.93381469336002
 20
26.84406356396044
 30
0.0
  0
VERTEX
  5
647
330
642
100
AcDbEntity
  8
DIBUJOS
 62
     7
100
AcDbVertex
100
AcDb2dVertex
 10
66.095498936901
 20
26.89369495184899
 30
0.0
  0
VERTEX
  5
648
330
642
100
AcDbEntity
  8
DIBUJOS
 62
     7
100
AcDbVertex
100
AcDb2dVertex
 10
66.42592656583754
 20
27.01310719703693
 30
0.0
  0
VERTEX
  5
649
330
642
100
AcDbEntity
  8
DIBUJOS
 62
     7
100
AcDbVertex
100
AcDb2dVertex
 10
66.73849376968175
 20
27.1587446153205
 30
0.0
  0
VERTEX
  5
64A
330
642
100
AcDbEntity
  8
DIBUJOS
 62
     7
100
AcDbVertex
100
AcDb2dVertex
 10
66.89924360457533
 20
27.23909619079837
 30
0.0
  0
VERTEX
  5
64B
330
642
100
AcDbEntity
  8
DIBUJOS
 62
     7
100
AcDbVertex
100
AcDb2dVertex
 10
67.22825459789348
 20
27.44014784137647
 30
0.0
  0
VERTEX
  5
64C
330
642
100
AcDbEntity
  8
DIBUJOS
 62
     7
100
AcDbVertex
100
AcDb2dVertex
 10
67.29664970544056
 20
27.48238415697509
 30
0.0
  0
VERTEX
  5
64D
330
642
100
AcDbEntity
  8
DIBUJOS
 62
     7
100
AcDbVertex
100
AcDb2dVertex
 10
67.42890458338543
 20
27.58531142836293
 30
0.0
  0
VERTEX
  5
64E
330
642
100
AcDbEntity
  8
DIBUJOS
 62
     7
100
AcDbVertex
100
AcDb2dVertex
 10
67.5874220529259
 20
27.71649811846398
 30
0.0
  0
VERTEX
  5
64F
330
642
100
AcDbEntity
  8
DIBUJOS
 62
     7
100
AcDbVertex
100
AcDb2dVertex
 10
67.67702012453681
 20
27.79476889120894
 30
0.0
  0
VERTEX
  5
650
330
642
100
AcDbEntity
  8
DIBUJOS
 62
     7
100
AcDbVertex
100
AcDb2dVertex
 10
67.93658442501433
 20
28.08736985467143
 30
0.0
  0
VERTEX
  5
651
330
642
100
AcDbEntity
  8
DIBUJOS
 62
     7
100
AcDbVertex
100
AcDb2dVertex
 10
68.09291459714211
 20
28.30476230217299
 30
0.0
  0
VERTEX
  5
652
330
642
100
AcDbEntity
  8
DIBUJOS
 62
     7
100
AcDbVertex
100
AcDb2dVertex
 10
68.1598930690711
 20
28.39962167584759
 30
0.0
  0
VERTEX
  5
653
330
642
100
AcDbEntity
  8
DIBUJOS
 62
     7
100
AcDbVertex
100
AcDb2dVertex
 10
68.26058386327261
 20
28.57773493556037
 30
0.0
  0
VERTEX
  5
654
330
642
100
AcDbEntity
  8
DIBUJOS
 62
     7
100
AcDbVertex
100
AcDb2dVertex
 10
68.30188712910658
 20
28.65473890418696
 30
0.0
  0
VERTEX
  5
655
330
642
100
AcDbEntity
  8
DIBUJOS
 62
     7
100
AcDbVertex
100
AcDb2dVertex
 10
68.35268020109005
 20
28.77191866055313
 30
0.0
  0
VERTEX
  5
656
330
642
100
AcDbEntity
  8
DIBUJOS
 62
     7
100
AcDbVertex
100
AcDb2dVertex
 10
68.38616868592224
 20
28.86677803422773
 30
0.0
  0
VERTEX
  5
657
330
642
100
AcDbEntity
  8
DIBUJOS
 62
     7
100
AcDbVertex
100
AcDb2dVertex
 10
68.47826502373968
 20
29.11341360725509
 30
0.0
  0
VERTEX
  5
658
330
642
100
AcDbEntity
  8
DIBUJOS
 62
     7
100
AcDbVertex
100
AcDb2dVertex
 10
68.55082440905208
 20
29.27523337808238
 30
0.0
  0
VERTEX
  5
659
330
642
100
AcDbEntity
  8
DIBUJOS
 62
     7
100
AcDbVertex
100
AcDb2dVertex
 10
68.723294913184
 20
29.73837230787335
 30
0.0
  0
VERTEX
  5
65A
330
642
100
AcDbEntity
  8
DIBUJOS
 62
     7
100
AcDbVertex
100
AcDb2dVertex
 10
68.74283036342442
 20
29.79305589380838
 30
0.0
  0
VERTEX
  5
65B
330
642
100
AcDbEntity
  8
DIBUJOS
 62
     7
100
AcDbVertex
100
AcDb2dVertex
 10
68.77520416784436
 20
29.89963339330387
 30
0.0
  0
VERTEX
  5
65C
330
642
100
AcDbEntity
  8
DIBUJOS
 62
     7
100
AcDbVertex
100
AcDb2dVertex
 10
68.75845842316333
 20
29.92195377599479
 30
0.0
  0
VERTEX
  5
65D
330
642
100
AcDbEntity
  8
DIBUJOS
 62
     7
100
AcDbVertex
100
AcDb2dVertex
 10
68.76404083881198
 20
29.93311321641954
 30
0.0
  0
VERTEX
  5
65E
330
642
100
AcDbEntity
  8
DIBUJOS
 62
     7
100
AcDbVertex
100
AcDb2dVertex
 10
68.79194841026046
 20
29.9554335991111
 30
0.0
  0
VERTEX
  5
65F
330
642
100
AcDbEntity
  8
DIBUJOS
 62
     7
100
AcDbVertex
100
AcDb2dVertex
 10
68.83411397603575
 20
30.34628134192458
 30
0.0
  0
VERTEX
  5
660
330
642
100
AcDbEntity
  8
DIBUJOS
 62
     7
100
AcDbVertex
100
AcDb2dVertex
 10
68.84463283350864
 20
30.44619967193716
 30
0.0
  0
VERTEX
  5
661
330
642
100
AcDbEntity
  8
DIBUJOS
 62
     7
100
AcDbVertex
100
AcDb2dVertex
 10
68.86177818060163
 20
30.68646968568371
 30
0.0
  0
VERTEX
  5
662
330
642
100
AcDbEntity
  8
DIBUJOS
 62
     7
100
AcDbVertex
100
AcDb2dVertex
 10
68.87009021122151
 20
31.01563075115507
 30
0.0
  0
VERTEX
  5
663
330
642
100
AcDbEntity
  8
DIBUJOS
 62
     7
100
AcDbVertex
100
AcDb2dVertex
 10
68.82200271797377
 20
31.50151883966016
 30
0.0
  0
VERTEX
  5
664
330
642
100
AcDbEntity
  8
DIBUJOS
 62
     7
100
AcDbVertex
100
AcDb2dVertex
 10
68.78421925834631
 20
31.69038003496232
 30
0.0
  0
VERTEX
  5
665
330
642
100
AcDbEntity
  8
DIBUJOS
 62
     7
100
AcDbVertex
100
AcDb2dVertex
 10
68.72106254783057
 20
31.97594636832682
 30
0.0
  0
VERTEX
  5
666
330
642
100
AcDbEntity
  8
DIBUJOS
 62
     7
100
AcDbVertex
100
AcDb2dVertex
 10
68.59826893300527
 20
32.33306498217637
 30
0.0
  0
VERTEX
  5
667
330
642
100
AcDbEntity
  8
DIBUJOS
 62
     7
100
AcDbVertex
100
AcDb2dVertex
 10
68.48049738909312
 20
32.57858468625287
 30
0.0
  0
VERTEX
  5
668
330
642
100
AcDbEntity
  8
DIBUJOS
 62
     7
100
AcDbVertex
100
AcDb2dVertex
 10
68.38895989374657
 20
32.75602887514847
 30
0.0
  0
VERTEX
  5
669
330
642
100
AcDbEntity
  8
DIBUJOS
 62
     7
100
AcDbVertex
100
AcDb2dVertex
 10
68.13761748800619
 20
33.15190703929377
 30
0.0
  0
VERTEX
  5
66A
330
642
100
AcDbEntity
  8
DIBUJOS
 62
     7
100
AcDbVertex
100
AcDb2dVertex
 10
68.10112297149736
 20
33.20942310011516
 30
0.0
  0
VERTEX
  5
66B
330
642
100
AcDbEntity
  8
DIBUJOS
 62
     7
100
AcDbVertex
100
AcDb2dVertex
 10
67.8835379559715
 20
33.4664544266748
 30
0.0
  0
VERTEX
  5
66C
330
642
100
AcDbEntity
  8
DIBUJOS
 62
     7
100
AcDbVertex
100
AcDb2dVertex
 10
67.78726832679976
 20
33.58242369801483
 30
0.0
  0
VERTEX
  5
66D
330
642
100
AcDbEntity
  8
DIBUJOS
 62
     7
100
AcDbVertex
100
AcDb2dVertex
 10
67.62661313458278
 20
33.72888637873255
 30
0.0
  0
VERTEX
  5
66E
330
642
100
AcDbEntity
  8
DIBUJOS
 62
     7
100
AcDbVertex
100
AcDb2dVertex
 10
67.37863279725552
 20
33.94374446707666
 30
0.0
  0
VERTEX
  5
66F
330
642
100
AcDbEntity
  8
DIBUJOS
 62
     7
100
AcDbVertex
100
AcDb2dVertex
 10
67.27320686469893
 20
34.01654628049097
 30
0.0
  0
VERTEX
  5
670
330
642
100
AcDbEntity
  8
DIBUJOS
 62
     7
100
AcDbVertex
100
AcDb2dVertex
 10
67.18918369741327
 20
34.07217452533611
 30
0.0
  0
VERTEX
  5
671
330
642
100
AcDbEntity
  8
DIBUJOS
 62
     7
100
AcDbVertex
100
AcDb2dVertex
 10
66.86686980015507
 20
34.27545791381464
 30
0.0
  0
VERTEX
  5
672
330
642
100
AcDbEntity
  8
DIBUJOS
 62
     7
100
AcDbVertex
100
AcDb2dVertex
 10
66.67039911507588
 20
34.36808554958882
 30
0.0
  0
VERTEX
  5
673
330
642
100
AcDbEntity
  8
DIBUJOS
 62
     7
100
AcDbVertex
100
AcDb2dVertex
 10
66.40806614074457
 20
34.49028746715197
 30
0.0
  0
VERTEX
  5
674
330
642
100
AcDbEntity
  8
DIBUJOS
 62
     7
100
AcDbVertex
100
AcDb2dVertex
 10
66.01289240523278
 20
34.6214178381608
 30
0.0
  0
VERTEX
  5
675
330
642
100
AcDbEntity
  8
DIBUJOS
 62
     7
100
AcDbVertex
100
AcDb2dVertex
 10
65.86212511931235
 20
34.66133080346846
 30
0.0
  0
VERTEX
  5
676
330
642
100
AcDbEntity
  8
DIBUJOS
 62
     7
100
AcDbVertex
100
AcDb2dVertex
 10
65.69461509324078
 20
34.69498709307368
 30
0.0
  0
VERTEX
  5
677
330
642
100
AcDbEntity
  8
DIBUJOS
 62
     7
100
AcDbVertex
100
AcDb2dVertex
 10
65.35341021730132
 20
34.75739765848316
 30
0.0
  0
VERTEX
  5
678
330
642
100
AcDbEntity
  8
DIBUJOS
 62
     7
100
AcDbVertex
100
AcDb2dVertex
 10
65.11890819891825
 20
34.79101940571207
 30
0.0
  0
VERTEX
  5
679
330
642
100
AcDbEntity
  8
DIBUJOS
 62
     7
100
AcDbVertex
100
AcDb2dVertex
 10
64.95742075205449
 20
34.81560156315355
 30
0.0
  0
VERTEX
  5
67A
330
642
100
AcDbEntity
  8
DIBUJOS
 62
     7
100
AcDbVertex
100
AcDb2dVertex
 10
64.95128099619956
 20
34.81169527090614
 30
0.0
  0
VERTEX
  5
67B
330
642
100
AcDbEntity
  8
DIBUJOS
 62
     7
100
AcDbVertex
100
AcDb2dVertex
 10
64.92951167834109
 20
34.80444137180744
 30
0.0
  0
VERTEX
  5
67C
330
642
100
AcDbEntity
  8
DIBUJOS
 62
     7
100
AcDbVertex
100
AcDb2dVertex
 10
64.92393076495736
 20
34.81002071655914
 30
0.0
  0
VERTEX
  5
67D
330
642
100
AcDbEntity
  8
DIBUJOS
 62
     7
100
AcDbVertex
100
AcDb2dVertex
 10
64.81199852395831
 20
34.80126497499755
 30
0.0
  0
VERTEX
  5
67E
330
642
100
AcDbEntity
  8
DIBUJOS
 62
     7
100
AcDbVertex
100
AcDb2dVertex
 10
64.69542128048754
 20
34.78535745962476
 30
0.0
  0
VERTEX
  5
67F
330
642
100
AcDbEntity
  8
DIBUJOS
 62
     7
100
AcDbVertex
100
AcDb2dVertex
 10
64.31511245424439
 20
34.7284676671107
 30
0.0
  0
VERTEX
  5
680
330
642
100
AcDbEntity
  8
DIBUJOS
 62
     7
100
AcDbVertex
100
AcDb2dVertex
 10
64.09829058918943
 20
34.68511548256187
 30
0.0
  0
VERTEX
  5
681
330
642
100
AcDbEntity
  8
DIBUJOS
 62
     7
100
AcDbVertex
100
AcDb2dVertex
 10
63.86287669612979
 20
34.63313521306033
 30
0.0
  0
VERTEX
  5
682
330
642
100
AcDbEntity
  8
DIBUJOS
 62
     7
100
AcDbVertex
100
AcDb2dVertex
 10
63.43867920649297
 20
34.49363507400324
 30
0.0
  0
VERTEX
  5
683
330
642
100
AcDbEntity
  8
DIBUJOS
 62
     7
100
AcDbVertex
100
AcDb2dVertex
 10
63.29914059811942
 20
34.43169758896889
 30
0.0
  0
VERTEX
  5
684
330
642
100
AcDbEntity
  8
DIBUJOS
 62
     7
100
AcDbVertex
100
AcDb2dVertex
 10
62.99215505879204
 20
34.28661810516074
 30
0.0
  0
VERTEX
  5
685
330
642
100
AcDbEntity
  8
DIBUJOS
 62
     7
100
AcDbVertex
100
AcDb2dVertex
 10
62.88766804167702
 20
34.22836313784693
 30
0.0
  0
VERTEX
  5
686
330
642
100
AcDbEntity
  8
DIBUJOS
 62
     7
100
AcDbVertex
100
AcDb2dVertex
 10
62.83557100392873
 20
34.19192994152688
 30
0.0
  0
VERTEX
  5
687
330
642
100
AcDbEntity
  8
DIBUJOS
 62
     7
100
AcDbVertex
100
AcDb2dVertex
 10
62.48597372620777
 20
33.95490465842212
 30
0.0
  0
VERTEX
  5
688
330
642
100
AcDbEntity
  8
DIBUJOS
 62
     7
100
AcDbVertex
100
AcDb2dVertex
 10
62.37197812463503
 20
33.85722182091671
 30
0.0
  0
VERTEX
  5
689
330
642
100
AcDbEntity
  8
DIBUJOS
 62
     7
100
AcDbVertex
100
AcDb2dVertex
 10
62.11503001814332
 20
33.63382575816771
 30
0.0
  0
VERTEX
  5
68A
330
642
100
AcDbEntity
  8
DIBUJOS
 62
     7
100
AcDbVertex
100
AcDb2dVertex
 10
61.87220319989064
 20
33.35243454685141
 30
0.0
  0
VERTEX
  5
68B
330
642
100
AcDbEntity
  8
DIBUJOS
 62
     7
100
AcDbVertex
100
AcDb2dVertex
 10
61.74115689390182
 20
33.192683564018
 30
0.0
  0
VERTEX
  5
68C
330
642
100
AcDbEntity
  8
DIBUJOS
 62
     7
100
AcDbVertex
100
AcDb2dVertex
 10
61.65447922487961
 20
33.06806067640323
 30
0.0
  0
VERTEX
  5
68D
330
642
100
AcDbEntity
  8
DIBUJOS
 62
     7
100
AcDbVertex
100
AcDb2dVertex
 10
61.44773830713578
 20
32.75602887514847
 30
0.0
  0
VERTEX
  5
68E
330
642
100
AcDbEntity
  8
DIBUJOS
 62
     7
100
AcDbVertex
100
AcDb2dVertex
 10
61.34503823388934
 20
32.55068495881025
 30
0.0
  0
VERTEX
  5
68F
330
642
100
AcDbEntity
  8
DIBUJOS
 62
     7
100
AcDbVertex
100
AcDb2dVertex
 10
61.24177931817199
 20
32.33752995981992
 30
0.0
  0
VERTEX
  5
690
330
642
100
AcDbEntity
  8
DIBUJOS
 62
     7
100
AcDbVertex
100
AcDb2dVertex
 10
61.11563640418425
 20
31.97036702357511
 30
0.0
  0
VERTEX
  5
691
330
642
100
AcDbEntity
  8
DIBUJOS
 62
     7
100
AcDbVertex
100
AcDb2dVertex
 10
61.04818547000539
 20
31.6577585148144
 30
0.0
  0
VERTEX
  5
692
330
642
100
AcDbEntity
  8
DIBUJOS
 62
     7
100
AcDbVertex
100
AcDb2dVertex
 10
61.04260380548888
 20
31.62985878737178
 30
0.0
  0
VERTEX
  5
693
330
642
100
AcDbEntity
  8
DIBUJOS
 62
     7
100
AcDbVertex
100
AcDb2dVertex
 10
61.00877430656892
 20
31.43437747049046
 30
0.0
  0
VERTEX
  5
694
330
642
100
AcDbEntity
  8
DIBUJOS
 62
     7
100
AcDbVertex
100
AcDb2dVertex
 10
61.00319264205274
 20
31.37857801560458
 30
0.0
  0
VERTEX
  5
695
330
642
100
AcDbEntity
  8
DIBUJOS
 62
     7
100
AcDbVertex
100
AcDb2dVertex
 10
60.97219040530982
 20
31.08817049305946
 30
0.0
  0
VERTEX
  5
696
330
642
100
AcDbEntity
  8
DIBUJOS
 62
     7
100
AcDbVertex
100
AcDb2dVertex
 10
60.97219040530982
 20
30.70873149651899
 30
0.0
  0
VERTEX
  5
697
330
642
100
AcDbEntity
  8
DIBUJOS
 62
     7
100
AcDbVertex
100
AcDb2dVertex
 10
60.98031239944404
 20
30.64198361007485
 30
0.0
  0
VERTEX
  5
698
330
642
100
AcDbEntity
  8
DIBUJOS
 62
     7
100
AcDbVertex
100
AcDb2dVertex
 10
61.00929108562801
 20
30.3511202783418
 30
0.0
  0
VERTEX
  5
699
330
642
100
AcDbEntity
  8
DIBUJOS
 62
     7
100
AcDbVertex
100
AcDb2dVertex
 10
61.01851724432153
 20
30.31869024310785
 30
0.0
  0
VERTEX
  5
69A
330
642
100
AcDbEntity
  8
DIBUJOS
 62
     7
100
AcDbVertex
100
AcDb2dVertex
 10
61.03118283805991
 20
30.27877202135137
 30
0.0
  0
VERTEX
  5
69B
330
642
100
AcDbEntity
  8
DIBUJOS
 62
     7
100
AcDbVertex
100
AcDb2dVertex
 10
61.05350949612434
 20
30.07789233173536
 30
0.0
  0
VERTEX
  5
69C
330
642
100
AcDbEntity
  8
DIBUJOS
 62
     7
100
AcDbVertex
100
AcDb2dVertex
 10
61.07265811320284
 20
29.93311321641954
 30
0.0
  0
VERTEX
  5
69D
330
642
100
AcDbEntity
  8
DIBUJOS
 62
     7
100
AcDbVertex
100
AcDb2dVertex
 10
61.10056643578346
 20
29.91637368032238
 30
0.0
  0
VERTEX
  5
69E
330
642
100
AcDbEntity
  8
DIBUJOS
 62
     7
100
AcDbVertex
100
AcDb2dVertex
 10
61.10614734916718
 20
29.91079358464933
 30
0.0
  0
VERTEX
  5
69F
330
642
100
AcDbEntity
  8
DIBUJOS
 62
     7
100
AcDbVertex
100
AcDb2dVertex
 10
61.08382144223522
 20
29.88289385720606
 30
0.0
  0
VERTEX
  5
6A0
330
642
100
AcDbEntity
  8
DIBUJOS
 62
     7
100
AcDbVertex
100
AcDb2dVertex
 10
61.08382144223522
 20
29.87173366586125
 30
0.0
  0
VERTEX
  5
6A1
330
642
100
AcDbEntity
  8
DIBUJOS
 62
     7
100
AcDbVertex
100
AcDb2dVertex
 10
61.28587379183028
 20
29.3142932968711
 30
0.0
  0
VERTEX
  5
6A2
330
642
100
AcDbEntity
  8
DIBUJOS
 62
     7
100
AcDbVertex
100
AcDb2dVertex
 10
61.35285226375895
 20
29.16363371738927
 30
0.0
  0
VERTEX
  5
6A3
330
642
100
AcDbEntity
  8
DIBUJOS
 62
     7
100
AcDbVertex
100
AcDb2dVertex
 10
61.41116341946502
 20
29.02308379045046
 30
0.0
  0
VERTEX
  5
6A4
330
642
100
AcDbEntity
  8
DIBUJOS
 62
     7
100
AcDbVertex
100
AcDb2dVertex
 10
61.42086128927657
 20
28.97936515634018
 30
0.0
  0
VERTEX
  5
6A5
330
642
100
AcDbEntity
  8
DIBUJOS
 62
     7
100
AcDbVertex
100
AcDb2dVertex
 10
61.50355420116487
 20
28.73955470638766
 30
0.0
  0
VERTEX
  5
6A6
330
642
100
AcDbEntity
  8
DIBUJOS
 62
     7
100
AcDbVertex
100
AcDb2dVertex
 10
61.50969395701917
 20
28.72281441936916
 30
0.0
  0
VERTEX
  5
6A7
330
642
100
AcDbEntity
  8
DIBUJOS
 62
     7
100
AcDbVertex
100
AcDb2dVertex
 10
61.66559072577936
 20
28.4273757245715
 30
0.0
  0
VERTEX
  5
6A8
330
642
100
AcDbEntity
  8
DIBUJOS
 62
     7
100
AcDbVertex
100
AcDb2dVertex
 10
61.90853021388498
 20
28.08504950806588
 30
0.0
  0
VERTEX
  5
6A9
330
642
100
AcDbEntity
  8
DIBUJOS
 62
     7
100
AcDbVertex
100
AcDb2dVertex
 10
62.21129514052057
 20
27.75133936177266
 30
0.0
  0
VERTEX
  5
6AA
330
642
100
AcDbEntity
  8
DIBUJOS
 62
     7
100
AcDbVertex
100
AcDb2dVertex
 10
62.34081514556824
 20
27.64669172984257
 30
0.0
  0
VERTEX
  5
6AB
330
642
100
AcDbEntity
  8
DIBUJOS
 62
     7
100
AcDbVertex
100
AcDb2dVertex
 10
62.52888591754222
 20
27.49354359739984
 30
0.0
  0
VERTEX
  5
6AC
330
642
100
AcDbEntity
  8
DIBUJOS
 62
     7
100
AcDbVertex
100
AcDb2dVertex
 10
62.59728102508865
 20
27.45130728180058
 30
0.0
  0
VERTEX
  5
6AD
330
642
100
AcDbEntity
  8
DIBUJOS
 62
     7
100
AcDbVertex
100
AcDb2dVertex
 10
62.94303701195568
 20
27.23909619079837
 30
0.0
  0
VERTEX
  5
6AE
330
642
100
AcDbEntity
  8
DIBUJOS
 62
     7
100
AcDbVertex
100
AcDb2dVertex
 10
63.13839151435864
 20
27.14423681712376
 30
0.0
  0
VERTEX
  5
6AF
330
642
100
AcDbEntity
  8
DIBUJOS
 62
     7
100
AcDbVertex
100
AcDb2dVertex
 10
63.39960830601244
 20
27.01924522718413
 30
0.0
  0
VERTEX
  5
6B0
330
642
100
AcDbEntity
  8
DIBUJOS
 62
     7
100
AcDbVertex
100
AcDb2dVertex
 10
63.75682732372059
 20
26.89090527947314
 30
0.0
  0
VERTEX
  5
6B1
330
642
100
AcDbEntity
  8
DIBUJOS
 62
     7
100
AcDbVertex
100
AcDb2dVertex
 10
63.90207679137501
 20
26.84523500108153
 30
0.0
  0
VERTEX
  5
6B2
330
642
100
AcDbEntity
  8
DIBUJOS
 62
     7
100
AcDbVertex
100
AcDb2dVertex
 10
64.04719706426474
 20
26.81733527363891
 30
0.0
  0
VERTEX
  5
6B3
330
642
100
AcDbEntity
  8
DIBUJOS
 62
     7
100
AcDbVertex
100
AcDb2dVertex
 10
64.42173719403593
 20
26.74956838708324
 30
0.0
  0
VERTEX
  5
6B4
330
642
100
AcDbEntity
  8
DIBUJOS
 62
     7
100
AcDbVertex
100
AcDb2dVertex
 10
64.92951167834109
 20
26.71904193717131
 30
0.0
  0
SEQEND
  5
6B5
330
642
100
AcDbEntity
  8
DIBUJOS
 62
     7
  0
ENDBLK
  5
3DE
330
3DB
100
AcDbEntity
  8
0
100
AcDbBlockEnd
  0
ENDSEC
  0
SECTION
  2
ENTITIES
  0
MTEXT
  5
41
330
1F
100
AcDbEntity
  8
REFERENCIAS
 62
   255
100
AcDbMText
 10
61.49112712594395
 20
54.85563098807646
 30
0.0
 40
1.49859999962535
 41
0.0
 71
     7
 72
     1
  1
\fMyriad Pro|b0|i0|c0|p34;\W1;RONDA_9393__LOUNGE_CHAIR
  0
MTEXT
  5
43
330
1F
100
AcDbEntity
  8
M_U_00C1RGENES
 62
   255
100
AcDbMText
 10
90.14127864703391
 20
23.7555119243149
 30
0.0
 40
1.748366666229575
 41
0.0
 71
     7
 72
     1
  1
\fMyriad Pro|b0|i0|c0|p34;\W1;400
  0
MTEXT
  5
44
330
1F
100
AcDbEntity
  8
M_U_00C1RGENES
 62
   255
100
AcDbMText
 10
84.21176331851954
 20
20.50332059082737
 30
0.0
 40
1.748366666229575
 41
0.0
 71
     7
 72
     1
  1
\fMyriad Pro|b0|i0|c0|p34;\W1;400
  0
POLYLINE
  5
45
330
1F
100
AcDbEntity
  8
M_U_00C1RGENES
 62
   255
100
AcDb2dPolyline
 66
     1
 10
0.0
 20
0.0
 30
0.0
  0
VERTEX
  5
46
330
45
100
AcDbEntity
  8
M_U_00C1RGENES
 62
   255
100
AcDbVertex
100
AcDb2dVertex
 10
84.41666477502157
 20
24.76314475783758
 30
0.0
  0
VERTEX
  5
47
330
45
100
AcDbEntity
  8
M_U_00C1RGENES
 62
   255
100
AcDbVertex
100
AcDb2dVertex
 10
94.99999810570907
 20
19.74726776251925
 30
0.0
  0
SEQEND
  5
48
330
45
100
AcDbEntity
  8
M_U_00C1RGENES
 62
   255
  0
POLYLINE
  5
49
330
1F
100
AcDbEntity
  8
M_U_00C1RGENES
 62
   254
100
AcDb2dPolyline
 66
     1
 10
0.0
 20
0.0
 30
0.0
  0
VERTEX
  5
4A
330
49
100
AcDbEntity
  8
M_U_00C1RGENES
 62
   254
100
AcDbVertex
100
AcDb2dVertex
 10
54.99999767595828
 20
20.88258920325216
 30
0.0
  0
VERTEX
  5
4B
330
49
100
AcDbEntity
  8
M_U_00C1RGENES
 62
   254
100
AcDbVertex
100
AcDb2dVertex
 10
54.99999767595828
 20
19.74726776251925
 30
0.0
  0
SEQEND
  5
4C
330
49
100
AcDbEntity
  8
M_U_00C1RGENES
 62
   254
  0
POLYLINE
  5
4D
330
1F
100
AcDbEntity
  8
M_U_00C1RGENES
 62
   255
100
AcDb2dPolyline
 66
     1
 10
0.0
 20
0.0
 30
0.0
  0
VERTEX
  5
4E
330
4D
100
AcDbEntity
  8
M_U_00C1RGENES
 62
   255
100
AcDbVertex
100
AcDb2dVertex
 10
94.99999797321169
 20
59.74726768656564
 30
0.0
  0
VERTEX
  5
4F
330
4D
100
AcDbEntity
  8
M_U_00C1RGENES
 62
   255
100
AcDbVertex
100
AcDb2dVertex
 10
93.86467653247878
 20
59.74726768651462
 30
0.0
  0
SEQEND
  5
50
330
4D
100
AcDbEntity
  8
M_U_00C1RGENES
 62
   255
  0
INSERT
  5
53
330
1F
100
AcDbEntity
  8
DIBUJOS
100
AcDbBlockReference
  2
BLOCK_2
 10
0.0
 20
0.0
 30
0.0
  0
INSERT
  5
21C
330
1F
100
AcDbEntity
  8
DIBUJOS
100
AcDbBlockReference
  2
BLOCK_3
 10
0.0
 20
0.0
 30
0.0
  0
INSERT
  5
3DC
330
1F
100
AcDbEntity
  8
DIBUJOS
100
AcDbBlockReference
  2
BLOCK_4
 10
0.0
 20
0.0
 30
0.0
  0
POLYLINE
  5
6B7
330
1F
100
AcDbEntity
  8
COTAS_LINEA
 62
     7
100
AcDb2dPolyline
 66
     1
 10
0.0
 20
0.0
 30
0.0
  0
VERTEX
  5
6B8
330
6B7
100
AcDbEntity
  8
COTAS_LINEA
 62
     7
100
AcDbVertex
100
AcDb2dVertex
 10
70.4520671110085
 20
49.1431500056682
 30
0.0
  0
VERTEX
  5
6B9
330
6B7
100
AcDbEntity
  8
COTAS_LINEA
 62
     7
100
AcDbVertex
100
AcDb2dVertex
 10
70.4520671118719
 20
42.33143458599684
 30
0.0
  0
SEQEND
  5
6BA
330
6B7
100
AcDbEntity
  8
COTAS_LINEA
 62
     7
  0
POLYLINE
  5
6BB
330
1F
100
AcDbEntity
  8
COTAS_LINEA
 62
     7
100
AcDb2dPolyline
 66
     1
 10
0.0
 20
0.0
 30
0.0
  0
VERTEX
  5
6BC
330
6BB
100
AcDbEntity
  8
COTAS_LINEA
 62
     7
100
AcDbVertex
100
AcDb2dVertex
 10
85.40543227763736
 20
46.20812502285136
 30
0.0
  0
VERTEX
  5
6BD
330
6BB
100
AcDbEntity
  8
COTAS_LINEA
 62
     7
100
AcDbVertex
100
AcDb2dVertex
 10
85.37423658498487
 20
42.33151921761303
 30
0.0
  0
SEQEND
  5
6BE
330
6BB
100
AcDbEntity
  8
COTAS_LINEA
 62
     7
  0
POLYLINE
  5
6BF
330
1F
100
AcDbEntity
  8
COTAS_LINEA
 62
     7
100
AcDb2dPolyline
 66
     1
 10
0.0
 20
0.0
 30
0.0
  0
VERTEX
  5
6C0
330
6BF
100
AcDbEntity
  8
COTAS_LINEA
 62
     7
100
AcDbVertex
100
AcDb2dVertex
 10
75.38738173247451
 20
38.66119575631178
 30
0.0
  0
VERTEX
  5
6C1
330
6BF
100
AcDbEntity
  8
COTAS_LINEA
 62
     7
100
AcDbVertex
100
AcDb2dVertex
 10
83.37836773494513
 20
38.66119575631178
 30
0.0
  0
SEQEND
  5
6C2
330
6BF
100
AcDbEntity
  8
COTAS_LINEA
 62
     7
  0
POLYLINE
  5
6C3
330
1F
100
AcDbEntity
  8
COTAS_LINEA
 62
     7
100
AcDb2dPolyline
 66
     1
 10
0.0
 20
0.0
 30
0.0
  0
VERTEX
  5
6C4
330
6C3
100
AcDbEntity
  8
COTAS_LINEA
 62
     7
100
AcDbVertex
100
AcDb2dVertex
 10
61.60456795805398
 20
38.66119575631178
 30
0.0
  0
VERTEX
  5
6C5
330
6C3
100
AcDbEntity
  8
COTAS_LINEA
 62
     7
100
AcDbVertex
100
AcDb2dVertex
 10
67.80351820943932
 20
38.66119575631178
 30
0.0
  0
SEQEND
  5
6C6
330
6C3
100
AcDbEntity
  8
COTAS_LINEA
 62
     7
  0
MTEXT
  5
6C8
330
1F
100
AcDbEntity
  8
COTAS_N_U_00DAMERO
 62
     7
100
AcDbMText
 10
71.22737607234886
 20
44.07784893205508
 30
0.0
 40
1.998533025814148
 41
0.0
 71
     7
 72
     1
  1
\fMyriad Pro|b0|i0|c0|p34;\W1;76
  0
MTEXT
  5
6C9
330
1F
100
AcDbEntity
  8
COTAS_N_U_00DAMERO
 62
     7
100
AcDbMText
 10
86.15118520490263
 20
43.35631136340137
 30
0.0
 40
1.998533025814148
 41
0.0
 71
     7
 72
     1
  1
\fMyriad Pro|b0|i0|c0|p34;\W1;43
  0
MTEXT
  5
6CA
330
1F
100
AcDbEntity
  8
COTAS_N_U_00DAMERO
 62
     7
100
AcDbMText
 10
77.80613041098195
 20
39.21634011877664
 30
0.0
 40
1.998533025814148
 41
0.0
 71
     7
 72
     1
  1
\fMyriad Pro|b0|i0|c0|p34;\W1;80
  0
MTEXT
  5
6CB
330
1F
100
AcDbEntity
  8
COTAS_N_U_00DAMERO
 62
     7
100
AcDbMText
 10
63.19841417216156
 20
39.21616786400239
 30
0.0
 40
1.998533025814148
 41
0.0
 71
     7
 72
     1
  1
\fMyriad Pro|b0|i0|c0|p34;\W1;82
  0
ENDSEC
  0
SECTION
  2
OBJECTS
  0
DICTIONARY
  5
C
330
0
100
AcDbDictionary
  3
ACAD_GROUP
350
D
  3
ACAD_LAYOUT
350
1A
  3
ACAD_MATERIAL
350
3B
  3
ACAD_MLEADERSTYLE
350
6EE
  3
ACAD_MLINESTYLE
350
17
  3
ACAD_PLOTSETTINGS
350
19
  3
ACAD_VISUALSTYLE
350
2A
  3
ACDBHEADERROUNDTRIPXREC
350
6CC
  3
ACDBVARIABLEDICTIONARY
350
6EC
  0
DICTIONARY
  5
D
102
{ACAD_REACTORS
330
C
102
}
330
C
100
AcDbDictionary
  0
DICTIONARY
  5
1A
102
{ACAD_REACTORS
330
C
102
}
330
C
100
AcDbDictionary
  0
DICTIONARY
  5
3B
102
{ACAD_REACTORS
330
C
102
}
330
C
100
AcDbDictionary
  3
BYBLOCK
350
3D
  3
BYLAYER
350
3C
  3
GLOBAL
350
3E
  0
DICTIONARY
  5
6EE
102
{ACAD_REACTORS
330
C
102
}
330
C
100
AcDbDictionary
  0
DICTIONARY
  5
17
102
{ACAD_REACTORS
330
C
102
}
330
C
100
AcDbDictionary
  3
STANDARD
350
18
  0
DICTIONARY
  5
19
102
{ACAD_REACTORS
330
C
102
}
330
C
100
AcDbDictionary
  0
DICTIONARY
  5
2A
102
{ACAD_REACTORS
330
C
102
}
330
C
100
AcDbDictionary
  3
2DWIREFRAME
350
2F
  3
3D_HIDDEN
350
31
  3
3DWIREFRAME
350
30
  3
BASIC
350
32
  3
BRIGHTEN
350
36
  3
COLORCHANGE
350
3A
  3
CONCEPTUAL
350
34
  3
DIM
350
35
  3
FACEPATTERN
350
39
  3
FLAT
350
2B
  3
FLATWITHEDGES
350
2C
  3
GOURAUD
350
2D
  3
GOURAUDWITHEDGES
350
2E
  3
LINEPATTERN
350
38
  3
REALISTIC
350
33
  3
THICKEN
350
37
  0
DICTIONARY
  5
6CC
102
{ACAD_REACTORS
330
C
102
}
330
C
100
AcDbDictionary
  3
CEPSNTYPE
350
6D5
  3
DIMSTYLEDATA
350
6EB
  3
FINGERPRINTGUID
350
6D6
  3
HYPERLINKBASE
350
6CF
  3
INSUNITS
350
6D4
  3
LAYOUTDICT
350
6D1
  3
LWETCUNION
350
6D3
  3
PLOTSETDICT
350
6D2
  3
PSVPSCALE
350
6D8
  3
PUCSBASE
350
6DB
  3
PUCSORGBACK
350
6E1
  3
PUCSORGBOTTOM
350
6DD
  3
PUCSORGFRONT
350
6E0
  3
PUCSORGLEFT
350
6DE
  3
PUCSORGRIGHT
350
6DF
  3
PUCSORGTOP
350
6DC
  3
PUCSORTHOREF
350
6D9
  3
PUCSORTHOVIEW
350
6DA
  3
STYLESHEET
350
6D0
  3
TSTACKALIGN
350
6CD
  3
TSTACKSIZE
350
6CE
  3
UCSBASE
350
6E4
  3
UCSORGBACK
350
6EA
  3
UCSORGBOTTOM
350
6E6
  3
UCSORGFRONT
350
6E9
  3
UCSORGLEFT
350
6E7
  3
UCSORGRIGHT
350
6E8
  3
UCSORGTOP
350
6E5
  3
UCSORTHOREF
350
6E2
  3
UCSORTHOVIEW
350
6E3
  3
VERSIONGUID
350
6D7
  0
DICTIONARY
  5
6EC
102
{ACAD_REACTORS
330
C
102
}
330
C
100
AcDbDictionary
  3
DIMASSOC
350
6EF
  3
HIDETEXT
350
6F0
  0
MATERIAL
  5
3D
102
{ACAD_REACTORS
330
3B
102
}
102
{ACAD_XDICTIONARY
360
6F3
102
}
330
3B
100
AcDbMaterial
  1
ByBlock
  0
MATERIAL
  5
3C
102
{ACAD_REACTORS
330
3B
102
}
102
{ACAD_XDICTIONARY
360
6F1
102
}
330
3B
100
AcDbMaterial
  1
ByLayer
  0
MATERIAL
  5
3E
102
{ACAD_REACTORS
330
3B
102
}
102
{ACAD_XDICTIONARY
360
6F5
102
}
330
3B
100
AcDbMaterial
  1
Global
  0
MLINESTYLE
  5
18
102
{ACAD_REACTORS
330
17
102
}
330
17
100
AcDbMlineStyle
  2
Standard
 70
     0
  3

 62
   256
 51
90.0
 52
90.0
 71
     2
 49
0.5
 62
   256
  6
BYLAYER
 49
-0.5
 62
   256
  6
BYLAYER
  0
ACAD_PROXY_OBJECT
  5
2F
102
{ACAD_REACTORS
330
2A
102
}
330
2A
100
AcDbProxyObject
 90
      499
 91
      501
 93
      436
310
42CC9915DA5C99599C985B595049028333333333333E3BF0000000000000FB0107901411070040501600405405064090741402480A0340
1001
ACAD
1000
AcDbSavedByObjectVersion
1070
     0
  0
ACAD_PROXY_OBJECT
  5
31
102
{ACAD_REACTORS
330
2A
102
}
330
2A
100
AcDbProxyObject
 90
      499
 91
      501
 93
      500
310
424CD108121A5919195B90640502408333333333333E3BF0000000000000FB01079024090700405020000000000001110200405405064090740C02480A0340
1001
ACAD
1000
AcDbSavedByObjectVersion
1070
     0
  0
ACAD_PROXY_OBJECT
  5
30
102
{ACAD_REACTORS
330
2A
102
}
330
2A
100
AcDbProxyObject
 90
      499
 91
      501
 93
      436
310
42CCD915DA5C99599C985B595059028333333333333E3BF0000000000000FB0107901411070040501600405405064090741402480A0340
1001
ACAD
1000
AcDbSavedByObjectVersion
1070
     0
  0
ACAD_PROXY_OBJECT
  5
32
102
{ACAD_REACTORS
330
2A
102
}
330
2A
100
AcDbProxyObject
 90
      499
 91
      501
 93
      388
310
4150985CDA58D07406404333333333333E3BF0000000000000FB0107A41107004050150841D405064090741402480A0350
1001
ACAD
1000
AcDbSavedByObjectVersion
1070
     0
  0
ACAD_PROXY_OBJECT
  5
36
102
{ACAD_REACTORS
330
2A
102
}
330
2A
100
AcDbProxyObject
 90
      499
 91
      501
 93
      428
310
42109C9A59DA1D195B90C409028333333333333E3BF0000000000000FB010790141107004050150841D405064090741402480A029950
1001
ACAD
1000
AcDbSavedByObjectVersion
1070
     0
  0
ACAD_PROXY_OBJECT
  5
3A
102
{ACAD_REACTORS
330
2A
102
}
330
2A
100
AcDbProxyObject
 90
      499
 91
      501
 93
      452
310
42D0DBDB1BDC90DA185B99D95104090240C333333333333E3BF0000000000000FB0108901411070040501508421405064090741402480A0350
1001
ACAD
1000
AcDbSavedByObjectVersion
1070
     0
  0
ACAD_PROXY_OBJECT
  5
34
102
{ACAD_REACTORS
330
2A
102
}
330
2A
100
AcDbProxyObject
 90
      499
 91
      501
 93
      500
310
4290DBDB98D95C1D1D585B10940D028333333333333E3BF0000000000000FB0107902409070040501000000000000111010841D405064090740C02480A0340
1001
ACAD
1000
AcDbSavedByObjectVersion
1070
     0
  0
ACAD_PROXY_OBJECT
  5
35
102
{ACAD_REACTORS
330
2A
102
}
330
2A
100
AcDbProxyObject
 90
      499
 91
      501
 93
      412
310
40D11A5B50B409028333333333333E3BF0000000000000FB010790141107004050150841D405064090741402480A02677FFFFFD0
1001
ACAD
1000
AcDbSavedByObjectVersion
1070
     0
  0
ACAD_PROXY_OBJECT
  5
39
102
{ACAD_REACTORS
330
2A
102
}
330
2A
100
AcDbProxyObject
 90
      499
 91
      501
 93
      444
310
42D19858D95C185D1D195C9B90F409028333333333333E3BF0000000000000FB010790141107004050150841D405064090741402480A0350
1001
ACAD
1000
AcDbSavedByObjectVersion
1070
     0
  0
ACAD_PROXY_OBJECT
  5
2B
102
{ACAD_REACTORS
330
2A
102
}
330
2A
100
AcDbProxyObject
 90
      499
 91
      501
 93
      388
310
41119B185D240901404333333333333E3BF0000000000000F9010740A41107004050150841D405064090741402480A1B50
1001
ACAD
1000
AcDbSavedByObjectVersion
1070
     0
  0
ACAD_PROXY_OBJECT
  5
2C
102
{ACAD_REACTORS
330
2A
102
}
330
2A
100
AcDbProxyObject
 90
      499
 91
      501
 93
      476
310
43519B185D15DA5D1A115919D95CD0140901404333333333333E3BF0000000000000F9010740901411070040501600405405064090741402480A1B50
1001
ACAD
1000
AcDbSavedByObjectVersion
1070
     0
  0
ACAD_PROXY_OBJECT
  5
2D
102
{ACAD_REACTORS
330
2A
102
}
330
2A
100
AcDbProxyObject
 90
      499
 91
      501
 93
      412
310
41D1DBDD5C985D5910240902404333333333333E3BF0000000000000F9010740A411070040501641D405064090741402480A1B50
1001
ACAD
1000
AcDbSavedByObjectVersion
1070
     0
  0
ACAD_PROXY_OBJECT
  5
2E
102
{ACAD_REACTORS
330
2A
102
}
330
2A
100
AcDbProxyObject
 90
      499
 91
      501
 93
      500
310
4411DBDD5C985D5915DA5D1A115919D95CD0340902404333333333333E3BF0000000000000F9010740901411070040501600405405064090741402480A1B50
1001
ACAD
1000
AcDbSavedByObjectVersion
1070
     0
  0
ACAD_PROXY_OBJECT
  5
38
102
{ACAD_REACTORS
330
2A
102
}
330
2A
100
AcDbProxyObject
 90
      499
 91
      501
 93
      444
310
42D31A5B995C185D1D195C9B90E409028333333333333E3BF0000000000000FB010790141107004050750841D405064090741402483A0350
1001
ACAD
1000
AcDbSavedByObjectVersion
1070
     0
  0
ACAD_PROXY_OBJECT
  5
33
102
{ACAD_REACTORS
330
2A
102
}
330
2A
100
AcDbProxyObject
 90
      499
 91
      501
 93
      420
310
425499585B1A5CDD1A58D08409028333333333333E3BF0000000000000FB01079019070040501508421405064090741402480A1B40
1001
ACAD
1000
AcDbSavedByObjectVersion
1070
     0
  0
ACAD_PROXY_OBJECT
  5
37
102
{ACAD_REACTORS
330
2A
102
}
330
2A
100
AcDbProxyObject
 90
      499
 91
      501
 93
      412
310
41D51A1A58DAD95B90D409028333333333333E3BF0000000000000FB010790141107004050150C41D405064090741402480A0350
1001
ACAD
1000
AcDbSavedByObjectVersion
1070
     0
  0
XRECORD
  5
6D5
102
{ACAD_REACTORS
330
6CC
102
}
330
6CC
100
AcDbXrecord
 90
        0
  0
XRECORD
  5
6EB
102
{ACAD_REACTORS
330
6CC
102
}
330
6CC
100
AcDbXrecord
1000
DSTYLE
1002
{
1070
   340
340
11
1002
}
  0
XRECORD
  5
6D6
102
{ACAD_REACTORS
330
6CC
102
}
330
6CC
100
AcDbXrecord
  1
{DF15A872-F14D-49F7-878B-3241F7A271FF}
  0
XRECORD
  5
6CF
102
{ACAD_REACTORS
330
6CC
102
}
330
6CC
100
AcDbXrecord
  1

  0
XRECORD
  5
6D4
102
{ACAD_REACTORS
330
6CC
102
}
330
6CC
100
AcDbXrecord
 90
        1
  0
XRECORD
  5
6D1
102
{ACAD_REACTORS
330
6CC
102
}
330
6CC
100
AcDbXrecord
340
1A
  0
XRECORD
  5
6D3
102
{ACAD_REACTORS
330
6CC
102
}
330
6CC
100
AcDbXrecord
 90
    10269
  0
XRECORD
  5
6D2
102
{ACAD_REACTORS
330
6CC
102
}
330
6CC
100
AcDbXrecord
340
19
  0
XRECORD
  5
6D8
102
{ACAD_REACTORS
330
6CC
102
}
330
6CC
100
AcDbXrecord
 40
0.0
  0
XRECORD
  5
6DB
102
{ACAD_REACTORS
330
6CC
102
}
330
6CC
100
AcDbXrecord
340
0
  0
XRECORD
  5
6E1
102
{ACAD_REACTORS
330
6CC
102
}
330
6CC
100
AcDbXrecord
 10
0.0
 20
0.0
 30
0.0
  0
XRECORD
  5
6DD
102
{ACAD_REACTORS
330
6CC
102
}
330
6CC
100
AcDbXrecord
 10
0.0
 20
0.0
 30
0.0
  0
XRECORD
  5
6E0
102
{ACAD_REACTORS
330
6CC
102
}
330
6CC
100
AcDbXrecord
 10
0.0
 20
0.0
 30
0.0
  0
XRECORD
  5
6DE
102
{ACAD_REACTORS
330
6CC
102
}
330
6CC
100
AcDbXrecord
 10
0.0
 20
0.0
 30
0.0
  0
XRECORD
  5
6DF
102
{ACAD_REACTORS
330
6CC
102
}
330
6CC
100
AcDbXrecord
 10
0.0
 20
0.0
 30
0.0
  0
XRECORD
  5
6DC
102
{ACAD_REACTORS
330
6CC
102
}
330
6CC
100
AcDbXrecord
 10
0.0
 20
0.0
 30
0.0
  0
XRECORD
  5
6D9
102
{ACAD_REACTORS
330
6CC
102
}
330
6CC
100
AcDbXrecord
340
0
  0
XRECORD
  5
6DA
102
{ACAD_REACTORS
330
6CC
102
}
330
6CC
100
AcDbXrecord
 70
     0
  0
XRECORD
  5
6D0
102
{ACAD_REACTORS
330
6CC
102
}
330
6CC
100
AcDbXrecord
  1

  0
XRECORD
  5
6CD
102
{ACAD_REACTORS
330
6CC
102
}
330
6CC
100
AcDbXrecord
 90
        1
  0
XRECORD
  5
6CE
102
{ACAD_REACTORS
330
6CC
102
}
330
6CC
100
AcDbXrecord
 90
       70
  0
XRECORD
  5
6E4
102
{ACAD_REACTORS
330
6CC
102
}
330
6CC
100
AcDbXrecord
340
0
  0
XRECORD
  5
6EA
102
{ACAD_REACTORS
330
6CC
102
}
330
6CC
100
AcDbXrecord
 10
0.0
 20
0.0
 30
0.0
  0
XRECORD
  5
6E6
102
{ACAD_REACTORS
330
6CC
102
}
330
6CC
100
AcDbXrecord
 10
0.0
 20
0.0
 30
0.0
  0
XRECORD
  5
6E9
102
{ACAD_REACTORS
330
6CC
102
}
330
6CC
100
AcDbXrecord
 10
0.0
 20
0.0
 30
0.0
  0
XRECORD
  5
6E7
102
{ACAD_REACTORS
330
6CC
102
}
330
6CC
100
AcDbXrecord
 10
0.0
 20
0.0
 30
0.0
  0
XRECORD
  5
6E8
102
{ACAD_REACTORS
330
6CC
102
}
330
6CC
100
AcDbXrecord
 10
0.0
 20
0.0
 30
0.0
  0
XRECORD
  5
6E5
102
{ACAD_REACTORS
330
6CC
102
}
330
6CC
100
AcDbXrecord
 10
0.0
 20
0.0
 30
0.0
  0
XRECORD
  5
6E2
102
{ACAD_REACTORS
330
6CC
102
}
330
6CC
100
AcDbXrecord
340
0
  0
XRECORD
  5
6E3
102
{ACAD_REACTORS
330
6CC
102
}
330
6CC
100
AcDbXrecord
 70
     0
  0
XRECORD
  5
6D7
102
{ACAD_REACTORS
330
6CC
102
}
330
6CC
100
AcDbXrecord
  1
{FAEB1C32-E019-11D5-929B-00C0DF256EC4}
  0
DICTIONARYVAR
  5
6EF
102
{ACAD_REACTORS
330
6EC
102
}
330
6EC
100
DictionaryVariables
280
     0
  1
2
  0
DICTIONARYVAR
  5
6F0
102
{ACAD_REACTORS
330
6EC
102
}
330
6EC
100
DictionaryVariables
280
     0
  1
1
  0
DICTIONARY
  5
6F3
330
3D
100
AcDbDictionary
280
     1
  3
ACAD_XREC_ROUNDTRIP
360
6F4
  0
DICTIONARY
  5
6F1
330
3C
100
AcDbDictionary
280
     1
  3
ACAD_XREC_ROUNDTRIP
360
6F2
  0
DICTIONARY
  5
6F5
330
3E
100
AcDbDictionary
280
     1
  3
ACAD_XREC_ROUNDTRIP
360
6F6
  0
XRECORD
  5
6F4
102
{ACAD_REACTORS
330
6F3
102
}
330
6F3
100
AcDbXrecord
102
MATERIAL
148
0.0
149
0.0
149
0.0
 93
        0
 94
      127
282
     0
 72
     1
 77
     1
171
     1
175
     1
179
     1
273
     0
  0
XRECORD
  5
6F2
102
{ACAD_REACTORS
330
6F1
102
}
330
6F1
100
AcDbXrecord
102
MATERIAL
148
0.0
149
0.0
149
0.0
 93
        0
 94
      127
282
     0
 72
     1
 77
     1
171
     1
175
     1
179
     1
273
     0
  0
XRECORD
  5
6F6
102
{ACAD_REACTORS
330
6F5
102
}
330
6F5
100
AcDbXrecord
102
MATERIAL
148
0.0
149
0.0
149
0.0
 93
        0
 94
      127
282
     0
 72
     1
 77
     1
171
     1
175
     1
179
     1
273
     0
  0
ENDSEC
  0
EOF
