  0
SECTION
  2
HEADER
  9
$ACADVER
  1
AC1009
  9
$DWGCODEPAGE
  3
ansi_1252
  9
$INSBASE
 10
0.0
 20
0.0
 30
0.0
  9
$EXTMIN
 10
0.0
 20
0.0
 30
0.0
  9
$EXTMAX
 10
2970.0
 20
2100.0
 30
0.0
  9
$LIMMIN
 10
0.0
 20
0.0
  9
$LIMMAX
 10
2970.0
 20
2100.0
  9
$ORTHOMODE
 70
     0
  9
$REGENMODE
 70
     1
  9
$FILLMODE
 70
     1
  9
$QTEXTMODE
 70
     0
  9
$MIRRTEXT
 70
     1
  9
$DRAGMODE
 70
     2
  9
$LTSCALE
 40
10.0
  9
$OSMODE
 70
    37
  9
$ATTMODE
 70
     1
  9
$TEXTSIZE
 40
35.0
  9
$TRACEWID
 40
1.0
  9
$TEXTSTYLE
  7
STANDARD
  9
$CLAYER
  8
0
  9
$CELTYPE
  6
BYLAYER
  9
$CECOLOR
 62
   256
  9
$DIMSCALE
 40
1.0
  9
$DIMASZ
 40
25.0
  9
$DIMEXO
 40
0.0
  9
$DIMDLI
 40
3.75
  9
$DIMRND
 40
0.0
  9
$DIMDLE
 40
0.0
  9
$DIMEXE
 40
10.0
  9
$DIMTP
 40
0.0
  9
$DIMTM
 40
0.0
  9
$DIMTXT
 40
30.0
  9
$DIMCEN
 40
2.5
  9
$DIMTSZ
 40
0.0
  9
$DIMTOL
 70
     0
  9
$DIMLIM
 70
     0
  9
$DIMTIH
 70
     1
  9
$DIMTOH
 70
     1
  9
$DIMSE1
 70
     0
  9
$DIMSE2
 70
     0
  9
$DIMTAD
 70
     1
  9
$DIMZIN
 70
     0
  9
$DIMBLK
  1

  9
$DIMASO
 70
     1
  9
$DIMSHO
 70
     1
  9
$DIMPOST
  1

  9
$DIMAPOST
  1

  9
$DIMALT
 70
     0
  9
$DIMALTD
 70
     3
  9
$DIMALTF
 40
0.0393700787
  9
$DIMLFAC
 40
1.0
  9
$DIMTOFL
 70
     1
  9
$DIMTVP
 40
0.0
  9
$DIMTIX
 70
     0
  9
$DIMSOXD
 70
     0
  9
$DIMSAH
 70
     0
  9
$DIMBLK1
  1

  9
$DIMBLK2
  1

  9
$DIMSTYLE
  2
ISO-25
  9
$DIMCLRD
 70
     0
  9
$DIMCLRE
 70
     0
  9
$DIMCLRT
 70
     0
  9
$DIMTFAC
 40
1.0
  9
$DIMGAP
 40
15.0
  9
$LUNITS
 70
     2
  9
$LUPREC
 70
     2
  9
$SKETCHINC
 40
1.0
  9
$FILLETRAD
 40
10.0
  9
$AUNITS
 70
     0
  9
$AUPREC
 70
     2
  9
$MENU
  1
.
  9
$ELEVATION
 40
0.0
  9
$PELEVATION
 40
0.0
  9
$THICKNESS
 40
0.0
  9
$LIMCHECK
 70
     0
  9
$CHAMFERA
 40
0.0
  9
$CHAMFERB
 40
0.0
  9
$SKPOLY
 70
     0
  9
$TDCREATE
 40
2457169.386806516
  9
$TDUPDATE
 40
2457169.386809699
  9
$TDINDWG
 40
0.0000000116
  9
$TDUSRTIMER
 40
0.0000000116
  9
$USRTIMER
 70
     1
  9
$ANGBASE
 50
0.0
  9
$ANGDIR
 70
     0
  9
$PDMODE
 70
     0
  9
$PDSIZE
 40
-1.0
  9
$PLINEWID
 40
0.0
  9
$COORDS
 70
     1
  9
$SPLFRAME
 70
     0
  9
$SPLINETYPE
 70
     6
  9
$SPLINESEGS
 70
     8
  9
$ATTDIA
 70
     0
  9
$ATTREQ
 70
     1
  9
$HANDLING
 70
     1
  9
$HANDSEED
  5
D33
  9
$SURFTAB1
 70
     6
  9
$SURFTAB2
 70
     6
  9
$SURFTYPE
 70
     6
  9
$SURFU
 70
     6
  9
$SURFV
 70
     6
  9
$UCSNAME
  2

  9
$UCSORG
 10
0.0
 20
0.0
 30
0.0
  9
$UCSXDIR
 10
1.0
 20
0.0
 30
0.0
  9
$UCSYDIR
 10
0.0
 20
1.0
 30
0.0
  9
$PUCSNAME
  2

  9
$PUCSORG
 10
0.0
 20
0.0
 30
0.0
  9
$PUCSXDIR
 10
1.0
 20
0.0
 30
0.0
  9
$PUCSYDIR
 10
0.0
 20
1.0
 30
0.0
  9
$USERI1
 70
     0
  9
$USERI2
 70
     0
  9
$USERI3
 70
     0
  9
$USERI4
 70
     0
  9
$USERI5
 70
     0
  9
$USERR1
 40
0.0
  9
$USERR2
 40
0.0
  9
$USERR3
 40
0.0
  9
$USERR4
 40
0.0
  9
$USERR5
 40
0.0
  9
$WORLDVIEW
 70
     1
  9
$SHADEDGE
 70
     3
  9
$SHADEDIF
 70
    70
  9
$TILEMODE
 70
     1
  9
$MAXACTVP
 70
    64
  9
$PLIMCHECK
 70
     0
  9
$PEXTMIN
 10
1.0000000000E+20
 20
1.0000000000E+20
 30
1.0000000000E+20
  9
$PEXTMAX
 10
-1.0000000000E+20
 20
-1.0000000000E+20
 30
-1.0000000000E+20
  9
$PLIMMIN
 10
0.0
 20
0.0
  9
$PLIMMAX
 10
420.0
 20
297.0
  9
$UNITMODE
 70
     0
  9
$VISRETAIN
 70
     1
  9
$PLINEGEN
 70
     0
  9
$PSLTSCALE
 70
     1
  0
ENDSEC
  0
SECTION
  2
TABLES
  0
TABLE
  2
VPORT
 70
     1
  0
VPORT
  2
*ACTIVE
 70
     0
 10
0.0
 20
0.0
 11
1.0
 21
1.0
 12
1485.0
 22
1050.0
 13
0.0
 23
0.0
 14
10.0
 24
10.0
 15
10.0
 25
10.0
 16
0.0
 26
0.0
 36
1.0
 17
0.0
 27
0.0
 37
0.0
 40
2100.0
 41
1.4142857143
 42
50.0
 43
0.0
 44
0.0
 50
0.0
 51
0.0
 71
     0
 72
  2000
 73
     1
 74
     3
 75
     0
 76
     0
 77
     0
 78
     0
  0
ENDTAB
  0
TABLE
  2
LTYPE
 70
     6
  0
LTYPE
  2
CONTINUOUS
 70
     0
  3
Solid line
 72
    65
 73
     0
 40
0.0
  0
LTYPE
  2
HIDDEN
 70
     0
  3
Hidden __ __ __ __ __ __ __ __ __ __ __ __ __ __
 72
    65
 73
     2
 40
1.905
 49
1.27
 49
-0.635
  0
LTYPE
  2
PHANTOM
 70
     0
  3
Phantom ______  __  __  ______  __  __  ______
 72
    65
 73
     6
 40
12.7
 49
6.35
 49
-1.27
 49
1.27
 49
-1.27
 49
1.27
 49
-1.27
  0
LTYPE
  2
CENTER
 70
     0
  3
Center ____ _ ____ _ ____ _ ____ _ ____ _ ____
 72
    65
 73
     4
 40
10.16
 49
6.35
 49
-1.27
 49
1.27
 49
-1.27
  0
LTYPE
  2
CENTERX2
 70
     0
  3
Center (2x) ________  __  ________  __  _____
 72
    65
 73
     4
 40
20.32
 49
12.7
 49
-2.54
 49
2.54
 49
-2.54
  0
LTYPE
  2
DOT2
 70
     0
  3
Dot (.5x) ........................................
 72
    65
 73
     2
 40
0.635
 49
0.0
 49
-0.635
  0
ENDTAB
  0
TABLE
  2
LAYER
 70
     2
  0
LAYER
  2
0
 70
     0
 62
     7
  6
CONTINUOUS
  0
LAYER
  2
FORMAT
 70
     0
 62
     7
  6
CONTINUOUS
  0
ENDTAB
  0
TABLE
  2
STYLE
 70
     1
  0
STYLE
  2
STANDARD
 70
     0
 40
0.0
 41
1.0
 50
0.0
 71
     0
 42
35.0
  3
txt
  4

  0
ENDTAB
  0
TABLE
  2
VIEW
 70
     0
  0
ENDTAB
  0
TABLE
  2
UCS
 70
     0
  0
ENDTAB
  0
TABLE
  2
APPID
 70
     1
  0
APPID
  2
ACAD
 70
     0
  0
ENDTAB
  0
TABLE
  2
DIMSTYLE
 70
     1
  0
DIMSTYLE
  2
ISO-25
 70
     0
  3

  4

  5

  6

  7

 40
1.0
 41
2.5
 42
0.625
 43
3.75
 44
1.25
 45
0.0
 46
0.0
 47
0.0
 48
0.0
140
2.5
141
2.5
142
0.0
143
0.0393700787
144
1.0
145
0.0
146
1.0
147
0.625
 71
     0
 72
     0
 73
     0
 74
     0
 75
     0
 76
     0
 77
     1
 78
     8
170
     0
171
     3
172
     1
173
     0
174
     0
175
     0
176
     0
177
     0
178
     0
  0
ENDTAB
  0
ENDSEC
  0
SECTION
  2
BLOCKS
  0
BLOCK
  8
0
  2
$MODEL_SPACE
 70
     0
 10
0.0
 20
0.0
 30
0.0
  3
$MODEL_SPACE
  1

  0
ENDBLK
  5
21
  8
0
  0
BLOCK
 67
     1
  8
0
  2
$PAPER_SPACE
 70
     0
 10
0.0
 20
0.0
 30
0.0
  3
$PAPER_SPACE
  1

  0
ENDBLK
  5
1D
 67
     1
  8
0
  0
BLOCK
  8
0
  2
SW_NOTE_0
 70
     0
 10
0.0
 20
0.0
 30
0.0
  3
SW_NOTE_0
  1

  0
TEXT
  5
E3
  8
0
  6
CONTINUOUS
 62
     0
 10
0.0
 20
6.3586811146
 30
0.0
 40
18.0
  1
Questo disegno e posto sotto la tutela delle vigenti Leggi e non puo essere utilizzato da terze persone se non previa autorizzazione scritta della PEDRALI
 41
0.6454545455
 11
0.0
 21
0.0
 31
0.0
 73
     1
  0
TEXT
  5
E4
  8
0
  6
CONTINUOUS
 62
     0
 10
1349.8969376087
 20
6.3586811146
 30
0.0
 40
18.0
  1
 S.p.A.
 41
0.7
 11
1349.8969376087
 21
0.0
 31
0.0
 73
     1
  0
ENDBLK
  5
E2
  8
0
  0
BLOCK
  8
0
  2
SW_NOTE_1
 70
     0
 10
0.0
 20
0.0
 30
0.0
  3
SW_NOTE_1
  1

  0
TEXT
  5
EB
  8
0
  6
CONTINUOUS
 62
     0
 10
0.0
 20
6.3586811146
 30
0.0
 40
18.0
  1
SCALA 
 41
0.7
 11
0.0
 21
0.0
 31
0.0
 73
     1
  0
TEXT
  5
EC
  8
0
  6
CONTINUOUS
 62
     0
 10
6.6710519604
 20
-36.3035468317
 30
0.0
 40
37.0416666667
  1
1:1
 41
0.7
 11
6.6710519604
 21
-49.388888292
 31
0.0
 73
     1
  0
ENDBLK
  5
EA
  8
0
  0
ENDSEC
  0
SECTION
  2
ENTITIES
  0
LINE
  5
70
  8
0
  6
CONTINUOUS
 62
     7
 10
2870.0
 20
100.0
 30
0.0
 11
2870.0
 21
2000.0
 31
0.0
  0
LINE
  5
71
  8
0
  6
CONTINUOUS
 62
   179
 10
2323.9899183113
 20
344.5974058992
 30
0.0
 11
2323.9899183113
 21
304.8670971915
 31
0.0
  0
LINE
  5
72
  8
0
  6
CONTINUOUS
 62
   179
 10
2323.9899183113
 20
344.5974058992
 30
0.0
 11
2356.6479108728
 21
344.5974058992
 31
0.0
  0
LINE
  5
73
  8
0
  6
CONTINUOUS
 62
   179
 10
2323.9899183113
 20
304.8670971915
 30
0.0
 11
2340.2432264202
 21
304.8670971915
 31
0.0
  0
LINE
  5
74
  8
0
  6
CONTINUOUS
 62
   179
 10
2340.2432264202
 20
304.8670971915
 30
0.0
 11
2340.2432264202
 21
319.3144821747
 31
0.0
  0
LINE
  5
75
  8
0
  6
CONTINUOUS
 62
   179
 10
2356.6479108724
 20
319.3144821747
 30
0.0
 11
2340.2432264202
 21
319.3144821747
 31
0.0
  0
LINE
  5
76
  8
0
  6
CONTINUOUS
 62
   179
 10
2340.2432264198
 20
326.5381746675
 30
0.0
 11
2340.2432264198
 21
337.3737134063
 31
0.0
  0
LINE
  5
77
  8
0
  6
CONTINUOUS
 62
   179
 10
2340.2432264198
 20
337.3737134063
 30
0.0
 11
2352.923880981
 21
337.3737134063
 31
0.0
  0
LINE
  5
78
  8
0
  6
CONTINUOUS
 62
   179
 10
2340.2432264198
 20
326.5381746675
 30
0.0
 11
2352.9238809804
 21
326.5381746675
 31
0.0
  0
LINE
  5
79
  8
0
  6
CONTINUOUS
 62
   179
 10
2381.7794582538
 20
344.5974058975
 30
0.0
 11
2435.9571519481
 21
344.5974058975
 31
0.0
  0
LINE
  5
7A
  8
0
  6
CONTINUOUS
 62
   179
 10
2435.9571519481
 20
344.5974058975
 30
0.0
 11
2435.9571519481
 21
337.3737134043
 31
0.0
  0
LINE
  5
7B
  8
0
  6
CONTINUOUS
 62
   179
 10
2435.9571519481
 20
337.3737134043
 30
0.0
 11
2399.8386894852
 21
337.3737134043
 31
0.0
  0
LINE
  5
7C
  8
0
  6
CONTINUOUS
 62
   179
 10
2399.8386894852
 20
337.3737134043
 30
0.0
 11
2399.8386894852
 21
328.3440977886
 31
0.0
  0
LINE
  5
7D
  8
0
  6
CONTINUOUS
 62
   179
 10
2399.8386894852
 20
328.3440977886
 30
0.0
 11
2432.3453057032
 21
328.3440977886
 31
0.0
  0
LINE
  5
7E
  8
0
  6
CONTINUOUS
 62
   179
 10
2432.3453057032
 20
328.3440977886
 30
0.0
 11
2432.3453057032
 21
321.1204052954
 31
0.0
  0
LINE
  5
7F
  8
0
  6
CONTINUOUS
 62
   179
 10
2432.3453057032
 20
321.1204052954
 30
0.0
 11
2399.8386894852
 21
321.1204052954
 31
0.0
  0
LINE
  5
80
  8
0
  6
CONTINUOUS
 62
   179
 10
2399.8386894852
 20
321.1204052954
 30
0.0
 11
2399.8386894852
 21
312.0907896797
 31
0.0
  0
LINE
  5
81
  8
0
  6
CONTINUOUS
 62
   179
 10
2399.8386894852
 20
312.0907896797
 30
0.0
 11
2435.9571519481
 21
312.0907896797
 31
0.0
  0
LINE
  5
82
  8
0
  6
CONTINUOUS
 62
   179
 10
2435.9571519481
 20
312.0907896797
 30
0.0
 11
2435.9571519481
 21
304.8670971899
 31
0.0
  0
LINE
  5
83
  8
0
  6
CONTINUOUS
 62
   179
 10
2435.9571519481
 20
304.8670971899
 30
0.0
 11
2381.7794582538
 21
304.8670971899
 31
0.0
  0
LINE
  5
84
  8
0
  6
CONTINUOUS
 62
   179
 10
2439.5689981967
 20
344.5974058976
 30
0.0
 11
2439.5689981967
 21
304.8670971877
 31
0.0
  0
LINE
  5
85
  8
0
  6
CONTINUOUS
 62
   179
 10
2439.5689981967
 20
344.5974058976
 30
0.0
 11
2472.0715260016
 21
344.5974058976
 31
0.0
  0
LINE
  5
86
  8
0
  6
CONTINUOUS
 62
   179
 10
2472.0715260017
 20
304.8670971877
 30
0.0
 11
2439.5689981967
 21
304.8670971877
 31
0.0
  0
LINE
  5
87
  8
0
  6
CONTINUOUS
 62
   179
 10
2455.8223063032
 20
324.7322515403
 30
0.0
 11
2455.8223063032
 21
313.8967128022
 31
0.0
  0
LINE
  5
88
  8
0
  6
CONTINUOUS
 62
   179
 10
2455.8223063032
 20
313.8967128022
 30
0.0
 11
2472.947172768
 21
313.8967128022
 31
0.0
  0
LINE
  5
89
  8
0
  6
CONTINUOUS
 62
   179
 10
2455.8223063032
 20
324.7322515403
 30
0.0
 11
2455.8223063032
 21
335.5677902827
 31
0.0
  0
LINE
  5
8A
  8
0
  6
CONTINUOUS
 62
   179
 10
2455.8223063032
 20
335.5677902827
 30
0.0
 11
2472.947172768
 21
335.5677902827
 31
0.0
  0
LINE
  5
8B
  8
0
  6
CONTINUOUS
 62
   179
 10
2504.5822306294
 20
344.5974059005
 30
0.0
 11
2504.5822306294
 21
304.8670971929
 31
0.0
  0
LINE
  5
8C
  8
0
  6
CONTINUOUS
 62
     7
 10
2728.7989947508
 20
280.0000000004
 30
0.0
 11
2728.7989947508
 21
190.0000000002
 31
0.0
  0
LINE
  5
8D
  8
0
  6
CONTINUOUS
 62
   179
 10
2504.5822306294
 20
304.8670971929
 30
0.0
 11
2520.8355387383
 21
304.8670971929
 31
0.0
  0
LINE
  5
8E
  8
0
  6
CONTINUOUS
 62
   179
 10
2520.8355387383
 20
304.8670971929
 30
0.0
 11
2520.8355387383
 21
319.3144821759
 31
0.0
  0
LINE
  5
8F
  8
0
  6
CONTINUOUS
 62
   179
 10
2520.8355387383
 20
319.3144821759
 30
0.0
 11
2538.8947699699
 21
319.3144821759
 31
0.0
  0
LINE
  5
90
  8
0
  6
CONTINUOUS
 62
   179
 10
2546.1184624631
 20
312.0907896827
 30
0.0
 11
2546.1184624631
 21
304.8670971919
 31
0.0
  0
LINE
  5
91
  8
0
  6
CONTINUOUS
 62
   179
 10
2520.8355387377
 20
326.5381746672
 30
0.0
 11
2520.8355387377
 21
337.3737134069
 31
0.0
  0
LINE
  5
92
  8
0
  6
CONTINUOUS
 62
   179
 10
2520.8355387377
 20
337.3737134069
 30
0.0
 11
2538.4781724187
 21
337.3737134069
 31
0.0
  0
LINE
  5
93
  8
0
  6
CONTINUOUS
 62
   179
 10
2520.8355387377
 20
326.5381746672
 30
0.0
 11
2538.4781724187
 21
326.5381746672
 31
0.0
  0
LINE
  5
94
  8
0
  6
CONTINUOUS
 62
   179
 10
2558.8702021926
 20
314.7709579587
 30
0.0
 11
2560.3555346507
 21
308.9676544183
 31
0.0
  0
LINE
  5
95
  8
0
  6
CONTINUOUS
 62
     7
 10
2870.0
 20
2000.0
 30
0.0
 11
100.0
 21
2000.0
 31
0.0
  0
LINE
  5
96
  8
0
  6
CONTINUOUS
 62
     7
 10
2728.7989947508
 20
190.0000000002
 30
0.0
 11
2728.7989947508
 21
100.0
 31
0.0
  0
LINE
  5
97
  8
0
  6
CONTINUOUS
 62
     7
 10
100.0
 20
2000.0
 30
0.0
 11
100.0
 21
100.0
 31
0.0
  0
LINE
  5
98
  8
0
  6
CONTINUOUS
 62
     7
 10
2150.0
 20
370.0000000006
 30
0.0
 11
2870.0
 21
370.0000000006
 31
0.0
  0
LINE
  5
99
  8
0
  6
CONTINUOUS
 62
    19
 10
2795.2884126839
 20
160.2788043096
 30
0.0
 11
2763.4182663121
 21
154.0818314039
 31
0.0
  0
LINE
  5
9A
  8
0
  6
CONTINUOUS
 62
    19
 10
2821.3505851521
 20
165.4881573907
 30
0.0
 11
2821.3505851521
 21
124.881030118
 31
0.0
  0
LINE
  5
9B
  8
0
  6
CONTINUOUS
 62
    19
 10
2795.2884126839
 20
160.2788043096
 30
0.0
 11
2795.2884126839
 21
130.0903831992
 31
0.0
  0
LINE
  5
9C
  8
0
  6
CONTINUOUS
 62
     7
 10
100.0
 20
100.0
 30
0.0
 11
2870.0
 21
100.0
 31
0.0
  0
LINE
  5
9D
  8
0
  6
CONTINUOUS
 62
    19
 10
2763.4182663121
 20
154.0818314039
 30
0.0
 11
2763.4182663121
 21
136.2873561048
 31
0.0
  0
LINE
  5
9E
  8
0
  6
CONTINUOUS
 62
   179
 10
2546.1184624631
 20
304.8670971919
 30
0.0
 11
2576.8191555592
 21
304.8670971919
 31
0.0
  0
LINE
  5
9F
  8
0
  6
CONTINUOUS
 62
    19
 10
2795.2884126839
 20
130.0903831992
 30
0.0
 11
2763.4182663121
 21
136.2873561048
 31
0.0
  0
LINE
  5
A0
  8
0
  6
CENTERX2
 62
    19
 10
2838.9207124248
 20
145.1845937544
 30
0.0
 11
2759.4518690643
 21
145.1845937544
 31
0.0
  0
LINE
  5
A1
  8
0
  6
CONTINUOUS
 62
   179
 10
2504.5822306294
 20
344.5974059005
 30
0.0
 11
2542.0192583058
 21
344.5974059005
 31
0.0
  0
LINE
  5
A2
  8
0
  6
CONTINUOUS
 62
   179
 10
2381.7794582538
 20
344.5974058975
 30
0.0
 11
2381.7794582538
 21
304.8670971899
 31
0.0
  0
LINE
  5
A3
  8
0
  6
CONTINUOUS
 62
   179
 10
2584.0428480525
 20
344.5974058996
 30
0.0
 11
2602.1020792839
 21
344.5974058996
 31
0.0
  0
LINE
  5
A4
  8
0
  6
CONTINUOUS
 62
   179
 10
2584.0428480525
 20
344.5974058996
 30
0.0
 11
2560.7076448779
 21
307.9278009142
 31
0.0
  0
LINE
  5
A5
  8
0
  6
CONTINUOUS
 62
   179
 10
2576.8191555592
 20
304.8670971919
 30
0.0
 11
2580.8824825864
 21
312.0907896817
 31
0.0
  0
LINE
  5
A6
  8
0
  6
CONTINUOUS
 62
   179
 10
2593.0724636674
 20
333.7618671594
 30
0.0
 11
2601.1991177219
 21
319.3144821729
 31
0.0
  0
LINE
  5
A7
  8
0
  6
CONTINUOUS
 62
   179
 10
2584.9458096129
 20
319.3144821729
 30
0.0
 11
2593.0724636674
 21
333.7618671594
 31
0.0
  0
LINE
  5
A8
  8
0
  6
CONTINUOUS
 62
   179
 10
2584.9458096129
 20
319.3144821729
 30
0.0
 11
2601.1991177219
 21
319.3144821729
 31
0.0
  0
LINE
  5
A9
  8
0
  6
CONTINUOUS
 62
   179
 10
2580.8824825864
 20
312.0907896817
 30
0.0
 11
2605.26244475
 21
312.0907896817
 31
0.0
  0
LINE
  5
AA
  8
0
  6
CONTINUOUS
 62
   179
 10
2605.26244475
 20
312.0907896817
 30
0.0
 11
2609.3257717771
 21
304.8670971919
 31
0.0
  0
LINE
  5
AB
  8
0
  6
CONTINUOUS
 62
   179
 10
2627.3850030087
 20
344.5974058996
 30
0.0
 11
2627.3850030087
 21
304.8670971919
 31
0.0
  0
LINE
  5
AC
  8
0
  6
CONTINUOUS
 62
   179
 10
2602.1020792839
 20
344.5974058996
 30
0.0
 11
2627.3850030087
 21
304.8670971919
 31
0.0
  0
LINE
  5
AD
  8
0
  6
CONTINUOUS
 62
   179
 10
2609.3257717771
 20
304.8670971919
 30
0.0
 11
2627.3850030087
 21
304.8670971919
 31
0.0
  0
LINE
  5
AE
  8
0
  6
CONTINUOUS
 62
   179
 10
2627.3850030087
 20
304.8670971919
 30
0.0
 11
2676.1449273357
 21
304.8670971919
 31
0.0
  0
LINE
  5
AF
  8
0
  6
CONTINUOUS
 62
   179
 10
2676.1449273357
 20
304.8670971919
 30
0.0
 11
2676.1449273357
 21
313.8967128076
 31
0.0
  0
LINE
  5
B0
  8
0
  6
CONTINUOUS
 62
   179
 10
2676.1449273357
 20
313.8967128076
 30
0.0
 11
2645.44423424
 21
313.8967128076
 31
0.0
  0
LINE
  5
B1
  8
0
  6
CONTINUOUS
 62
   179
 10
2645.44423424
 20
313.8967128076
 30
0.0
 11
2645.44423424
 21
344.5974058996
 31
0.0
  0
LINE
  5
B2
  8
0
  6
CONTINUOUS
 62
   179
 10
2627.3850030087
 20
344.5974058996
 30
0.0
 11
2645.44423424
 21
344.5974058996
 31
0.0
  0
LINE
  5
B3
  8
0
  6
CONTINUOUS
 62
   179
 10
2677.9508504573
 20
344.5974058992
 30
0.0
 11
2677.9508504573
 21
304.8670971915
 31
0.0
  0
LINE
  5
B4
  8
0
  6
CONTINUOUS
 62
   179
 10
2696.0100816887
 20
344.5974058992
 30
0.0
 11
2696.0100816887
 21
304.8670971915
 31
0.0
  0
LINE
  5
B5
  8
0
  6
CONTINUOUS
 62
   179
 10
2677.9508504573
 20
344.5974058992
 30
0.0
 11
2696.0100816887
 21
344.5974058992
 31
0.0
  0
LINE
  5
B6
  8
0
  6
CONTINUOUS
 62
   179
 10
2677.9508504573
 20
304.8670971915
 30
0.0
 11
2696.0100816887
 21
304.8670971915
 31
0.0
  0
LINE
  5
B7
  8
0
  6
CONTINUOUS
 62
   179
 10
2704.1151644241
 20
341.2930554229
 30
0.0
 11
2708.2866879839
 21
341.2930554229
 31
0.0
  0
LINE
  5
B8
  8
0
  6
CONTINUOUS
 62
   179
 10
2708.2866879839
 20
338.5841707372
 30
0.0
 11
2704.1151644241
 21
338.5841707372
 31
0.0
  0
LINE
  5
B9
  8
0
  6
CONTINUOUS
 62
   179
 10
2704.1151644241
 20
338.5841707372
 30
0.0
 11
2704.1151644241
 21
341.2930554229
 31
0.0
  0
LINE
  5
BA
  8
0
  6
CONTINUOUS
 62
   179
 10
2704.1151644241
 20
338.5841707372
 30
0.0
 11
2706.8240491077
 21
338.5841707372
 31
0.0
  0
LINE
  5
BB
  8
0
  6
CONTINUOUS
 62
   179
 10
2704.1151644241
 20
338.5841707372
 30
0.0
 11
2704.1151644241
 21
334.5208437117
 31
0.0
  0
LINE
  5
BC
  8
0
  6
CONTINUOUS
 62
   179
 10
2709.5329337914
 20
334.5208437117
 30
0.0
 11
2706.8240491077
 21
338.5841707372
 31
0.0
  0
LINE
  5
BD
  8
0
  6
CONTINUOUS
 62
     7
 10
2150.0
 20
190.0000000002
 30
0.0
 11
2870.0
 21
190.0000000002
 31
0.0
  0
LINE
  5
BE
  8
0
  6
CONTINUOUS
 62
     7
 10
2870.0
 20
280.0000000004
 30
0.0
 11
2150.0
 21
280.0000000004
 31
0.0
  0
LINE
  5
BF
  8
0
  6
CONTINUOUS
 62
     7
 10
100.0
 20
550.0
 30
0.0
 11
100.0
 21
650.0
 31
0.0
  0
LINE
  5
C0
  8
0
  6
CONTINUOUS
 62
     7
 10
100.0
 20
650.0
 30
0.0
 11
100.0
 21
750.0
 31
0.0
  0
LINE
  5
C1
  8
0
  6
CONTINUOUS
 62
     7
 10
100.0
 20
750.0
 30
0.0
 11
100.0
 21
850.0
 31
0.0
  0
LINE
  5
C2
  8
0
  6
CONTINUOUS
 62
     7
 10
100.0
 20
850.0
 30
0.0
 11
100.0
 21
950.0
 31
0.0
  0
LINE
  5
C3
  8
0
  6
CONTINUOUS
 62
     7
 10
100.0
 20
950.0
 30
0.0
 11
100.0
 21
1050.0
 31
0.0
  0
LINE
  5
C4
  8
0
  6
CONTINUOUS
 62
     7
 10
100.0
 20
1050.0
 30
0.0
 11
100.0
 21
1150.0
 31
0.0
  0
LINE
  5
C5
  8
0
  6
CONTINUOUS
 62
     7
 10
100.0
 20
1150.0
 30
0.0
 11
100.0
 21
1250.0
 31
0.0
  0
LINE
  5
C6
  8
0
  6
CONTINUOUS
 62
     7
 10
100.0
 20
1250.0
 30
0.0
 11
100.0
 21
1350.0
 31
0.0
  0
LINE
  5
C7
  8
0
  6
CONTINUOUS
 62
     7
 10
100.0
 20
1350.0
 30
0.0
 11
100.0
 21
1450.0
 31
0.0
  0
LINE
  5
C8
  8
0
  6
CONTINUOUS
 62
     7
 10
100.0
 20
1450.0
 30
0.0
 11
100.0
 21
1550.0
 31
0.0
  0
LINE
  5
C9
  8
0
  6
CONTINUOUS
 62
     7
 10
2150.0
 20
370.0000000006
 30
0.0
 11
2150.0
 21
100.0
 31
0.0
  0
ARC
  5
CA
  8
0
  6
CONTINUOUS
 62
   179
 10
2352.923880981
 20
330.1500209155
 30
0.0
 40
7.223692490816169
 50
69.991210111
 51
90.0
  0
ARC
  5
CB
  8
0
  6
CONTINUOUS
 62
   179
 10
2352.9238809804
 20
333.7618671601
 30
0.0
 40
7.223692492544103
 50
270.0
 51
290.0087898887
  0
ARC
  5
CC
  8
0
  6
CONTINUOUS
 62
   179
 10
2472.947172768
 20
324.7322515422
 30
0.0
 40
10.8355387405187
 50
56.1685552524
 51
90.0
  0
ARC
  5
CD
  8
0
  6
CONTINUOUS
 62
   179
 10
2472.947172768
 20
324.7322515422
 30
0.0
 40
10.83553873998012
 50
270.0
 51
303.830934914
  0
ARC
  5
CE
  8
0
  6
CONTINUOUS
 62
   179
 10
2538.8947699699
 20
312.0907896827
 30
0.0
 40
7.223692493244471
 50
0.0
 51
90.0
  0
ARC
  5
CF
  8
0
  6
CONTINUOUS
 62
   179
 10
2538.4781724187
 20
331.9559440374
 30
0.0
 40
5.417769369443558
 50
54.413089495
 51
90.0
  0
ARC
  5
D0
  8
0
  6
CONTINUOUS
 62
   179
 10
2538.4781724187
 20
331.9559440374
 30
0.0
 40
5.417769370214614
 50
270.0
 51
305.5869104966
  0
ARC
  5
D1
  8
0
  6
CONTINUOUS
 62
   179
 10
2549.0375849296
 20
312.9627960708
 30
0.0
 40
9.997490267756625
 50
10.4199484279
 51
80.7321727594
  0
ARC
  5
D2
  8
0
  6
CONTINUOUS
 62
   179
 10
2565.4535666376
 20
310.1143839674
 30
0.0
 40
5.225410873593643
 50
192.6768785101
 51
204.7368873207
  0
CIRCLE
  5
D3
  8
0
  6
CONTINUOUS
 62
   179
 10
2706.2864208618
 20
337.8675697335
 30
0.0
 40
5.930102145230649
  0
CIRCLE
  5
D4
  8
0
  6
CONTINUOUS
 62
    19
 10
2821.3505851521
 20
145.1845937544
 30
0.0
 40
8.587078762764193
  0
CIRCLE
  5
D5
  8
0
  6
CONTINUOUS
 62
    19
 10
2821.3505851521
 20
145.1845937544
 30
0.0
 40
16.77593581663705
  0
POLYLINE
  5
D6
  8
0
  6
CONTINUOUS
 62
   179
 66
     1
 10
0.0
 20
0.0
 30
0.0
 70
   128
  0
VERTEX
  5
220
  8
0
  6
CONTINUOUS
 62
   179
 10
2355.3955706648
 20
326.9741957382
 30
0.0
  0
VERTEX
  5
221
  8
0
  6
CONTINUOUS
 62
   179
 10
2355.6170487708
 20
327.0572489827
 30
0.0
  0
VERTEX
  5
222
  8
0
  6
CONTINUOUS
 62
   179
 10
2355.8347267771
 20
327.1437234164
 30
0.0
  0
VERTEX
  5
223
  8
0
  6
CONTINUOUS
 62
   179
 10
2356.0484526602
 20
327.2335586465
 30
0.0
  0
VERTEX
  5
224
  8
0
  6
CONTINUOUS
 62
   179
 10
2356.2580771564
 20
327.3266919334
 30
0.0
  0
VERTEX
  5
225
  8
0
  6
CONTINUOUS
 62
   179
 10
2356.4634538666
 20
327.4230582338
 30
0.0
  0
VERTEX
  5
226
  8
0
  6
CONTINUOUS
 62
   179
 10
2356.664439358
 20
327.5225902466
 30
0.0
  0
VERTEX
  5
227
  8
0
  6
CONTINUOUS
 62
   179
 10
2356.860893265
 20
327.6252184599
 30
0.0
  0
VERTEX
  5
228
  8
0
  6
CONTINUOUS
 62
   179
 10
2357.0526783864
 20
327.7308711995
 30
0.0
  0
VERTEX
  5
229
  8
0
  6
CONTINUOUS
 62
   179
 10
2357.2396607819
 20
327.8394746786
 30
0.0
  0
VERTEX
  5
22A
  8
0
  6
CONTINUOUS
 62
   179
 10
2357.4217098652
 20
327.9509530501
 30
0.0
  0
VERTEX
  5
22B
  8
0
  6
CONTINUOUS
 62
   179
 10
2357.5986984955
 20
328.0652284586
 30
0.0
  0
VERTEX
  5
22C
  8
0
  6
CONTINUOUS
 62
   179
 10
2357.770503066
 20
328.1822210957
 30
0.0
  0
VERTEX
  5
22D
  8
0
  6
CONTINUOUS
 62
   179
 10
2357.9370035905
 20
328.3018492552
 30
0.0
  0
VERTEX
  5
22E
  8
0
  6
CONTINUOUS
 62
   179
 10
2358.0980837871
 20
328.4240293901
 30
0.0
  0
VERTEX
  5
22F
  8
0
  6
CONTINUOUS
 62
   179
 10
2358.2536311594
 20
328.5486761713
 30
0.0
  0
VERTEX
  5
230
  8
0
  6
CONTINUOUS
 62
   179
 10
2358.4035370748
 20
328.6757025471
 30
0.0
  0
VERTEX
  5
231
  8
0
  6
CONTINUOUS
 62
   179
 10
2358.547696841
 20
328.8050198038
 30
0.0
  0
VERTEX
  5
232
  8
0
  6
CONTINUOUS
 62
   179
 10
2358.6860097785
 20
328.9365376277
 30
0.0
  0
VERTEX
  5
233
  8
0
  6
CONTINUOUS
 62
   179
 10
2358.8183792913
 20
329.0701641685
 30
0.0
  0
VERTEX
  5
234
  8
0
  6
CONTINUOUS
 62
   179
 10
2358.944712934
 20
329.2058061029
 30
0.0
  0
VERTEX
  5
235
  8
0
  6
CONTINUOUS
 62
   179
 10
2359.0649224768
 20
329.3433687002
 30
0.0
  0
VERTEX
  5
236
  8
0
  6
CONTINUOUS
 62
   179
 10
2359.1789239668
 20
329.4827558885
 30
0.0
  0
VERTEX
  5
237
  8
0
  6
CONTINUOUS
 62
   179
 10
2359.2866377868
 20
329.6238703214
 30
0.0
  0
VERTEX
  5
238
  8
0
  6
CONTINUOUS
 62
   179
 10
2359.3879887107
 20
329.7666134463
 30
0.0
  0
VERTEX
  5
239
  8
0
  6
CONTINUOUS
 62
   179
 10
2359.4829059562
 20
329.9108855731
 30
0.0
  0
VERTEX
  5
23A
  8
0
  6
CONTINUOUS
 62
   179
 10
2359.5713232344
 20
330.0565859439
 30
0.0
  0
VERTEX
  5
23B
  8
0
  6
CONTINUOUS
 62
   179
 10
2359.6531787956
 20
330.2036128034
 30
0.0
  0
VERTEX
  5
23C
  8
0
  6
CONTINUOUS
 62
   179
 10
2359.7284154729
 20
330.3518634698
 30
0.0
  0
VERTEX
  5
23D
  8
0
  6
CONTINUOUS
 62
   179
 10
2359.796980722
 20
330.5012344065
 30
0.0
  0
VERTEX
  5
23E
  8
0
  6
CONTINUOUS
 62
   179
 10
2359.8588266577
 20
330.6516212949
 30
0.0
  0
VERTEX
  5
23F
  8
0
  6
CONTINUOUS
 62
   179
 10
2359.9139100876
 20
330.8029191064
 30
0.0
  0
VERTEX
  5
240
  8
0
  6
CONTINUOUS
 62
   179
 10
2359.962192542
 20
330.9550221765
 30
0.0
  0
VERTEX
  5
241
  8
0
  6
CONTINUOUS
 62
   179
 10
2360.0036403011
 20
331.1078242783
 30
0.0
  0
VERTEX
  5
242
  8
0
  6
CONTINUOUS
 62
   179
 10
2360.0382244182
 20
331.2612186967
 30
0.0
  0
VERTEX
  5
243
  8
0
  6
CONTINUOUS
 62
   179
 10
2360.0659207403
 20
331.4150983028
 30
0.0
  0
VERTEX
  5
244
  8
0
  6
CONTINUOUS
 62
   179
 10
2360.0867099245
 20
331.569355629
 30
0.0
  0
VERTEX
  5
245
  8
0
  6
CONTINUOUS
 62
   179
 10
2360.100577452
 20
331.7238829439
 30
0.0
  0
VERTEX
  5
246
  8
0
  6
CONTINUOUS
 62
   179
 10
2360.1075136378
 20
331.8785723274
 30
0.0
  0
VERTEX
  5
247
  8
0
  6
CONTINUOUS
 62
   179
 10
2360.1075136378
 20
332.0333157464
 30
0.0
  0
VERTEX
  5
248
  8
0
  6
CONTINUOUS
 62
   179
 10
2360.100577452
 20
332.18800513
 30
0.0
  0
VERTEX
  5
249
  8
0
  6
CONTINUOUS
 62
   179
 10
2360.0867099245
 20
332.3425324448
 30
0.0
  0
VERTEX
  5
24A
  8
0
  6
CONTINUOUS
 62
   179
 10
2360.0659207403
 20
332.4967897711
 30
0.0
  0
VERTEX
  5
24B
  8
0
  6
CONTINUOUS
 62
   179
 10
2360.0382244182
 20
332.6506693772
 30
0.0
  0
VERTEX
  5
24C
  8
0
  6
CONTINUOUS
 62
   179
 10
2360.0036403011
 20
332.8040637956
 30
0.0
  0
VERTEX
  5
24D
  8
0
  6
CONTINUOUS
 62
   179
 10
2359.962192542
 20
332.9568658974
 30
0.0
  0
VERTEX
  5
24E
  8
0
  6
CONTINUOUS
 62
   179
 10
2359.9139100876
 20
333.1089689675
 30
0.0
  0
VERTEX
  5
24F
  8
0
  6
CONTINUOUS
 62
   179
 10
2359.8588266577
 20
333.260266779
 30
0.0
  0
VERTEX
  5
250
  8
0
  6
CONTINUOUS
 62
   179
 10
2359.796980722
 20
333.4106536674
 30
0.0
  0
VERTEX
  5
251
  8
0
  6
CONTINUOUS
 62
   179
 10
2359.728415473
 20
333.5600246041
 30
0.0
  0
VERTEX
  5
252
  8
0
  6
CONTINUOUS
 62
   179
 10
2359.6531787956
 20
333.7082752705
 30
0.0
  0
VERTEX
  5
253
  8
0
  6
CONTINUOUS
 62
   179
 10
2359.5713232344
 20
333.85530213
 30
0.0
  0
VERTEX
  5
254
  8
0
  6
CONTINUOUS
 62
   179
 10
2359.4829059562
 20
334.0010025008
 30
0.0
  0
VERTEX
  5
255
  8
0
  6
CONTINUOUS
 62
   179
 10
2359.3879887107
 20
334.1452746276
 30
0.0
  0
VERTEX
  5
256
  8
0
  6
CONTINUOUS
 62
   179
 10
2359.2866377868
 20
334.2880177525
 30
0.0
  0
VERTEX
  5
257
  8
0
  6
CONTINUOUS
 62
   179
 10
2359.1789239668
 20
334.4291321854
 30
0.0
  0
VERTEX
  5
258
  8
0
  6
CONTINUOUS
 62
   179
 10
2359.0649224768
 20
334.5685193737
 30
0.0
  0
VERTEX
  5
259
  8
0
  6
CONTINUOUS
 62
   179
 10
2358.944712934
 20
334.706081971
 30
0.0
  0
VERTEX
  5
25A
  8
0
  6
CONTINUOUS
 62
   179
 10
2358.8183792913
 20
334.8417239054
 30
0.0
  0
VERTEX
  5
25B
  8
0
  6
CONTINUOUS
 62
   179
 10
2358.6860097786
 20
334.9753504462
 30
0.0
  0
VERTEX
  5
25C
  8
0
  6
CONTINUOUS
 62
   179
 10
2358.547696841
 20
335.1068682701
 30
0.0
  0
VERTEX
  5
25D
  8
0
  6
CONTINUOUS
 62
   179
 10
2358.4035370749
 20
335.2361855267
 30
0.0
  0
VERTEX
  5
25E
  8
0
  6
CONTINUOUS
 62
   179
 10
2358.2536311594
 20
335.3632119025
 30
0.0
  0
VERTEX
  5
25F
  8
0
  6
CONTINUOUS
 62
   179
 10
2358.0980837872
 20
335.4878586838
 30
0.0
  0
VERTEX
  5
260
  8
0
  6
CONTINUOUS
 62
   179
 10
2357.9370035906
 20
335.6100388187
 30
0.0
  0
VERTEX
  5
261
  8
0
  6
CONTINUOUS
 62
   179
 10
2357.770503066
 20
335.7296669782
 30
0.0
  0
VERTEX
  5
262
  8
0
  6
CONTINUOUS
 62
   179
 10
2357.5986984955
 20
335.8466596153
 30
0.0
  0
VERTEX
  5
263
  8
0
  6
CONTINUOUS
 62
   179
 10
2357.4217098652
 20
335.9609350238
 30
0.0
  0
VERTEX
  5
264
  8
0
  6
CONTINUOUS
 62
   179
 10
2357.2396607819
 20
336.0724133952
 30
0.0
  0
VERTEX
  5
265
  8
0
  6
CONTINUOUS
 62
   179
 10
2357.0526783864
 20
336.1810168744
 30
0.0
  0
VERTEX
  5
266
  8
0
  6
CONTINUOUS
 62
   179
 10
2356.860893265
 20
336.286669614
 30
0.0
  0
VERTEX
  5
267
  8
0
  6
CONTINUOUS
 62
   179
 10
2356.664439358
 20
336.3892978273
 30
0.0
  0
VERTEX
  5
268
  8
0
  6
CONTINUOUS
 62
   179
 10
2356.4634538666
 20
336.4888298401
 30
0.0
  0
VERTEX
  5
269
  8
0
  6
CONTINUOUS
 62
   179
 10
2356.2580771565
 20
336.5851961405
 30
0.0
  0
VERTEX
  5
26A
  8
0
  6
CONTINUOUS
 62
   179
 10
2356.0484526603
 20
336.6783294274
 30
0.0
  0
VERTEX
  5
26B
  8
0
  6
CONTINUOUS
 62
   179
 10
2355.8347267772
 20
336.7681646575
 30
0.0
  0
VERTEX
  5
26C
  8
0
  6
CONTINUOUS
 62
   179
 10
2355.6170487708
 20
336.8546390912
 30
0.0
  0
SEQEND
  5
CEB
  8
0
  6
CONTINUOUS
 62
   179
  0
POLYLINE
  5
D7
  8
0
  6
CONTINUOUS
 62
   179
 66
     1
 10
0.0
 20
0.0
 30
0.0
 70
   128
  0
VERTEX
  5
26D
  8
0
  6
CONTINUOUS
 62
   179
 10
2478.9797960752
 20
315.7313429314
 30
0.0
  0
VERTEX
  5
26E
  8
0
  6
CONTINUOUS
 62
   179
 10
2479.3724450143
 20
316.0016348207
 30
0.0
  0
VERTEX
  5
26F
  8
0
  6
CONTINUOUS
 62
   179
 10
2479.7529873554
 20
316.2780614575
 30
0.0
  0
VERTEX
  5
270
  8
0
  6
CONTINUOUS
 62
   179
 10
2480.1211557026
 20
316.5604286051
 30
0.0
  0
VERTEX
  5
271
  8
0
  6
CONTINUOUS
 62
   179
 10
2480.4766913548
 20
316.8485378522
 30
0.0
  0
VERTEX
  5
272
  8
0
  6
CONTINUOUS
 62
   179
 10
2480.8193444875
 20
317.142186753
 30
0.0
  0
VERTEX
  5
273
  8
0
  6
CONTINUOUS
 62
   179
 10
2481.1488743286
 20
317.441168969
 30
0.0
  0
VERTEX
  5
274
  8
0
  6
CONTINUOUS
 62
   179
 10
2481.4650493271
 20
317.7452744143
 30
0.0
  0
VERTEX
  5
275
  8
0
  6
CONTINUOUS
 62
   179
 10
2481.767647316
 20
318.0542894029
 30
0.0
  0
VERTEX
  5
276
  8
0
  6
CONTINUOUS
 62
   179
 10
2482.0564556687
 20
318.367996799
 30
0.0
  0
VERTEX
  5
277
  8
0
  6
CONTINUOUS
 62
   179
 10
2482.3312714481
 20
318.6861761697
 30
0.0
  0
VERTEX
  5
278
  8
0
  6
CONTINUOUS
 62
   179
 10
2482.5919015492
 20
319.0086039397
 30
0.0
  0
VERTEX
  5
279
  8
0
  6
CONTINUOUS
 62
   179
 10
2482.8381628349
 20
319.3350535486
 30
0.0
  0
VERTEX
  5
27A
  8
0
  6
CONTINUOUS
 62
   179
 10
2483.0698822646
 20
319.6652956097
 30
0.0
  0
VERTEX
  5
27B
  8
0
  6
CONTINUOUS
 62
   179
 10
2483.2868970159
 20
319.9990980716
 30
0.0
  0
VERTEX
  5
27C
  8
0
  6
CONTINUOUS
 62
   179
 10
2483.489054599
 20
320.3362263813
 30
0.0
  0
VERTEX
  5
27D
  8
0
  6
CONTINUOUS
 62
   179
 10
2483.6762129635
 20
320.6764436486
 30
0.0
  0
VERTEX
  5
27E
  8
0
  6
CONTINUOUS
 62
   179
 10
2483.848240599
 20
321.0195108127
 30
0.0
  0
VERTEX
  5
27F
  8
0
  6
CONTINUOUS
 62
   179
 10
2484.0050166265
 20
321.3651868105
 30
0.0
  0
VERTEX
  5
280
  8
0
  6
CONTINUOUS
 62
   179
 10
2484.1464308842
 20
321.7132287457
 30
0.0
  0
VERTEX
  5
281
  8
0
  6
CONTINUOUS
 62
   179
 10
2484.2723840045
 20
322.0633920594
 30
0.0
  0
VERTEX
  5
282
  8
0
  6
CONTINUOUS
 62
   179
 10
2484.3827874838
 20
322.4154307021
 30
0.0
  0
VERTEX
  5
283
  8
0
  6
CONTINUOUS
 62
   179
 10
2484.4775637448
 20
322.7690973067
 30
0.0
  0
VERTEX
  5
284
  8
0
  6
CONTINUOUS
 62
   179
 10
2484.5566461911
 20
323.124143362
 30
0.0
  0
VERTEX
  5
285
  8
0
  6
CONTINUOUS
 62
   179
 10
2484.6199792536
 20
323.4803193876
 30
0.0
  0
VERTEX
  5
286
  8
0
  6
CONTINUOUS
 62
   179
 10
2484.6675184303
 20
323.8373751091
 30
0.0
  0
VERTEX
  5
287
  8
0
  6
CONTINUOUS
 62
   179
 10
2484.6992303166
 20
324.195059634
 30
0.0
  0
VERTEX
  5
288
  8
0
  6
CONTINUOUS
 62
   179
 10
2484.7150926295
 20
324.5531216278
 30
0.0
  0
VERTEX
  5
289
  8
0
  6
CONTINUOUS
 62
   179
 10
2484.7150942232
 20
324.911309491
 30
0.0
  0
VERTEX
  5
28A
  8
0
  6
CONTINUOUS
 62
   179
 10
2484.6992350964
 20
325.2693715354
 30
0.0
  0
VERTEX
  5
28B
  8
0
  6
CONTINUOUS
 62
   179
 10
2484.6675263928
 20
325.6270561613
 30
0.0
  0
VERTEX
  5
28C
  8
0
  6
CONTINUOUS
 62
   179
 10
2484.6199903934
 20
325.9841120344
 30
0.0
  0
VERTEX
  5
28D
  8
0
  6
CONTINUOUS
 62
   179
 10
2484.5566605002
 20
326.340288262
 30
0.0
  0
VERTEX
  5
28E
  8
0
  6
CONTINUOUS
 62
   179
 10
2484.4775812132
 20
326.6953345694
 30
0.0
  0
VERTEX
  5
28F
  8
0
  6
CONTINUOUS
 62
   179
 10
2484.3828080993
 20
327.0490014761
 30
0.0
  0
VERTEX
  5
290
  8
0
  6
CONTINUOUS
 62
   179
 10
2484.2724077525
 20
327.4010404709
 30
0.0
  0
VERTEX
  5
291
  8
0
  6
CONTINUOUS
 62
   179
 10
2484.1464577481
 20
327.7512041861
 30
0.0
  0
VERTEX
  5
292
  8
0
  6
CONTINUOUS
 62
   179
 10
2484.0050465874
 20
328.0992465722
 30
0.0
  0
VERTEX
  5
293
  8
0
  6
CONTINUOUS
 62
   179
 10
2483.8482736358
 20
328.4449230698
 30
0.0
  0
VERTEX
  5
294
  8
0
  6
CONTINUOUS
 62
   179
 10
2483.6762490531
 20
328.7879907824
 30
0.0
  0
VERTEX
  5
295
  8
0
  6
CONTINUOUS
 62
   179
 10
2483.4890937159
 20
329.1282086464
 30
0.0
  0
VERTEX
  5
296
  8
0
  6
CONTINUOUS
 62
   179
 10
2483.2869391327
 20
329.4653376006
 30
0.0
  0
VERTEX
  5
297
  8
0
  6
CONTINUOUS
 62
   179
 10
2483.0699273517
 20
329.7991407545
 30
0.0
  0
VERTEX
  5
298
  8
0
  6
CONTINUOUS
 62
   179
 10
2482.8382108605
 20
330.1293835544
 30
0.0
  0
VERTEX
  5
299
  8
0
  6
CONTINUOUS
 62
   179
 10
2482.5919524797
 20
330.4558339483
 30
0.0
  0
VERTEX
  5
29A
  8
0
  6
CONTINUOUS
 62
   179
 10
2482.3313252477
 20
330.7782625493
 30
0.0
  0
VERTEX
  5
29B
  8
0
  6
CONTINUOUS
 62
   179
 10
2482.0565122996
 20
331.0964427962
 30
0.0
  0
VERTEX
  5
29C
  8
0
  6
CONTINUOUS
 62
   179
 10
2481.7677067383
 20
331.4101511132
 30
0.0
  0
VERTEX
  5
29D
  8
0
  6
CONTINUOUS
 62
   179
 10
2481.4651114991
 20
331.7191670665
 30
0.0
  0
VERTEX
  5
29E
  8
0
  6
CONTINUOUS
 62
   179
 10
2481.1489392067
 20
332.0232735199
 30
0.0
  0
VERTEX
  5
29F
  8
0
  6
CONTINUOUS
 62
   179
 10
2480.819412026
 20
332.3222567865
 30
0.0
  0
VERTEX
  5
2A0
  8
0
  6
CONTINUOUS
 62
   179
 10
2480.4767615062
 20
332.6159067798
 30
0.0
  0
VERTEX
  5
2A1
  8
0
  6
CONTINUOUS
 62
   179
 10
2480.1212284177
 20
332.9040171605
 30
0.0
  0
VERTEX
  5
2A2
  8
0
  6
CONTINUOUS
 62
   179
 10
2479.7530625831
 20
333.1863854818
 30
0.0
  0
VERTEX
  5
2A3
  8
0
  6
CONTINUOUS
 62
   179
 10
2479.3725227018
 20
333.4628133319
 30
0.0
  0
SEQEND
  5
CEC
  8
0
  6
CONTINUOUS
 62
   179
  0
POLYLINE
  5
D8
  8
0
  6
CONTINUOUS
 62
   179
 66
     1
 10
0.0
 20
0.0
 30
0.0
 70
   128
  0
VERTEX
  5
2A4
  8
0
  6
CONTINUOUS
 62
   179
 10
2541.6309739459
 20
327.5500312513
 30
0.0
  0
VERTEX
  5
2A5
  8
0
  6
CONTINUOUS
 62
   179
 10
2541.8258025609
 20
327.693275627
 30
0.0
  0
VERTEX
  5
2A6
  8
0
  6
CONTINUOUS
 62
   179
 10
2542.0141248925
 20
327.8395177154
 30
0.0
  0
VERTEX
  5
2A7
  8
0
  6
CONTINUOUS
 62
   179
 10
2542.1958085032
 20
327.9886546721
 30
0.0
  0
VERTEX
  5
2A8
  8
0
  6
CONTINUOUS
 62
   179
 10
2542.3707256246
 20
328.1405816168
 30
0.0
  0
VERTEX
  5
2A9
  8
0
  6
CONTINUOUS
 62
   179
 10
2542.5387532464
 20
328.2951917072
 30
0.0
  0
VERTEX
  5
2AA
  8
0
  6
CONTINUOUS
 62
   179
 10
2542.6997732036
 20
328.4523762141
 30
0.0
  0
VERTEX
  5
2AB
  8
0
  6
CONTINUOUS
 62
   179
 10
2542.8536722593
 20
328.6120245978
 30
0.0
  0
VERTEX
  5
2AC
  8
0
  6
CONTINUOUS
 62
   179
 10
2543.0003421842
 20
328.774024586
 30
0.0
  0
VERTEX
  5
2AD
  8
0
  6
CONTINUOUS
 62
   179
 10
2543.139679833
 20
328.9382622523
 30
0.0
  0
VERTEX
  5
2AE
  8
0
  6
CONTINUOUS
 62
   179
 10
2543.2715872169
 20
329.1046220972
 30
0.0
  0
VERTEX
  5
2AF
  8
0
  6
CONTINUOUS
 62
   179
 10
2543.3959715722
 20
329.2729871282
 30
0.0
  0
VERTEX
  5
2B0
  8
0
  6
CONTINUOUS
 62
   179
 10
2543.5127454259
 20
329.4432389432
 30
0.0
  0
VERTEX
  5
2B1
  8
0
  6
CONTINUOUS
 62
   179
 10
2543.621826657
 20
329.6152578128
 30
0.0
  0
VERTEX
  5
2B2
  8
0
  6
CONTINUOUS
 62
   179
 10
2543.7231385544
 20
329.7889227651
 30
0.0
  0
VERTEX
  5
2B3
  8
0
  6
CONTINUOUS
 62
   179
 10
2543.8166098707
 20
329.9641116707
 30
0.0
  0
VERTEX
  5
2B4
  8
0
  6
CONTINUOUS
 62
   179
 10
2543.9021748723
 20
330.1407013282
 30
0.0
  0
VERTEX
  5
2B5
  8
0
  6
CONTINUOUS
 62
   179
 10
2543.979773386
 20
330.3185675514
 30
0.0
  0
VERTEX
  5
2B6
  8
0
  6
CONTINUOUS
 62
   179
 10
2544.0493508406
 20
330.4975852562
 30
0.0
  0
VERTEX
  5
2B7
  8
0
  6
CONTINUOUS
 62
   179
 10
2544.1108583059
 20
330.6776285488
 30
0.0
  0
VERTEX
  5
2B8
  8
0
  6
CONTINUOUS
 62
   179
 10
2544.1642525271
 20
330.8585708141
 30
0.0
  0
VERTEX
  5
2B9
  8
0
  6
CONTINUOUS
 62
   179
 10
2544.2094959546
 20
331.0402848049
 30
0.0
  0
VERTEX
  5
2BA
  8
0
  6
CONTINUOUS
 62
   179
 10
2544.2465567712
 20
331.2226427311
 30
0.0
  0
VERTEX
  5
2BB
  8
0
  6
CONTINUOUS
 62
   179
 10
2544.2754089139
 20
331.40551635
 30
0.0
  0
VERTEX
  5
2BC
  8
0
  6
CONTINUOUS
 62
   179
 10
2544.2960320926
 20
331.588777056
 30
0.0
  0
VERTEX
  5
2BD
  8
0
  6
CONTINUOUS
 62
   179
 10
2544.3084118039
 20
331.7722959713
 30
0.0
  0
VERTEX
  5
2BE
  8
0
  6
CONTINUOUS
 62
   179
 10
2544.3125393419
 20
331.9559440369
 30
0.0
  0
VERTEX
  5
2BF
  8
0
  6
CONTINUOUS
 62
   179
 10
2544.3084118039
 20
332.1395921024
 30
0.0
  0
VERTEX
  5
2C0
  8
0
  6
CONTINUOUS
 62
   179
 10
2544.2960320926
 20
332.3231110178
 30
0.0
  0
VERTEX
  5
2C1
  8
0
  6
CONTINUOUS
 62
   179
 10
2544.275408914
 20
332.5063717237
 30
0.0
  0
VERTEX
  5
2C2
  8
0
  6
CONTINUOUS
 62
   179
 10
2544.2465567713
 20
332.6892453426
 30
0.0
  0
VERTEX
  5
2C3
  8
0
  6
CONTINUOUS
 62
   179
 10
2544.2094959547
 20
332.8716032688
 30
0.0
  0
VERTEX
  5
2C4
  8
0
  6
CONTINUOUS
 62
   179
 10
2544.1642525271
 20
333.0533172596
 30
0.0
  0
VERTEX
  5
2C5
  8
0
  6
CONTINUOUS
 62
   179
 10
2544.110858306
 20
333.2342595249
 30
0.0
  0
VERTEX
  5
2C6
  8
0
  6
CONTINUOUS
 62
   179
 10
2544.0493508406
 20
333.4143028175
 30
0.0
  0
VERTEX
  5
2C7
  8
0
  6
CONTINUOUS
 62
   179
 10
2543.979773386
 20
333.5933205223
 30
0.0
  0
VERTEX
  5
2C8
  8
0
  6
CONTINUOUS
 62
   179
 10
2543.9021748724
 20
333.7711867455
 30
0.0
  0
VERTEX
  5
2C9
  8
0
  6
CONTINUOUS
 62
   179
 10
2543.8166098708
 20
333.9477764031
 30
0.0
  0
VERTEX
  5
2CA
  8
0
  6
CONTINUOUS
 62
   179
 10
2543.7231385545
 20
334.1229653086
 30
0.0
  0
VERTEX
  5
2CB
  8
0
  6
CONTINUOUS
 62
   179
 10
2543.6218266571
 20
334.296630261
 30
0.0
  0
VERTEX
  5
2CC
  8
0
  6
CONTINUOUS
 62
   179
 10
2543.512745426
 20
334.4686491306
 30
0.0
  0
VERTEX
  5
2CD
  8
0
  6
CONTINUOUS
 62
   179
 10
2543.3959715723
 20
334.6389009455
 30
0.0
  0
VERTEX
  5
2CE
  8
0
  6
CONTINUOUS
 62
   179
 10
2543.271587217
 20
334.8072659766
 30
0.0
  0
VERTEX
  5
2CF
  8
0
  6
CONTINUOUS
 62
   179
 10
2543.1396798332
 20
334.9736258214
 30
0.0
  0
VERTEX
  5
2D0
  8
0
  6
CONTINUOUS
 62
   179
 10
2543.0003421843
 20
335.1378634878
 30
0.0
  0
VERTEX
  5
2D1
  8
0
  6
CONTINUOUS
 62
   179
 10
2542.8536722594
 20
335.2998634759
 30
0.0
  0
VERTEX
  5
2D2
  8
0
  6
CONTINUOUS
 62
   179
 10
2542.6997732038
 20
335.4595118596
 30
0.0
  0
VERTEX
  5
2D3
  8
0
  6
CONTINUOUS
 62
   179
 10
2542.5387532466
 20
335.6166963665
 30
0.0
  0
VERTEX
  5
2D4
  8
0
  6
CONTINUOUS
 62
   179
 10
2542.3707256248
 20
335.7713064569
 30
0.0
  0
VERTEX
  5
2D5
  8
0
  6
CONTINUOUS
 62
   179
 10
2542.1958085034
 20
335.9232334017
 30
0.0
  0
VERTEX
  5
2D6
  8
0
  6
CONTINUOUS
 62
   179
 10
2542.0141248927
 20
336.0723703584
 30
0.0
  0
VERTEX
  5
2D7
  8
0
  6
CONTINUOUS
 62
   179
 10
2541.8258025611
 20
336.2186124468
 30
0.0
  0
SEQEND
  5
CED
  8
0
  6
CONTINUOUS
 62
   179
  0
POLYLINE
  5
D9
  8
0
  6
CONTINUOUS
 62
   179
 66
     1
 10
0.0
 20
0.0
 30
0.0
 70
   128
  0
VERTEX
  5
2D8
  8
0
  6
CONTINUOUS
 62
   179
 10
2550.6476772967
 20
322.8297821468
 30
0.0
  0
VERTEX
  5
2D9
  8
0
  6
CONTINUOUS
 62
   179
 10
2551.1929108863
 20
322.9953434899
 30
0.0
  0
VERTEX
  5
2DA
  8
0
  6
CONTINUOUS
 62
   179
 10
2551.7289501333
 20
323.1678486721
 30
0.0
  0
VERTEX
  5
2DB
  8
0
  6
CONTINUOUS
 62
   179
 10
2552.2554206138
 20
323.3471771984
 30
0.0
  0
VERTEX
  5
2DC
  8
0
  6
CONTINUOUS
 62
   179
 10
2552.7719545876
 20
323.5332038076
 30
0.0
  0
VERTEX
  5
2DD
  8
0
  6
CONTINUOUS
 62
   179
 10
2553.2781912552
 20
323.72579856
 30
0.0
  0
VERTEX
  5
2DE
  8
0
  6
CONTINUOUS
 62
   179
 10
2553.7737770098
 20
323.9248269279
 30
0.0
  0
VERTEX
  5
2DF
  8
0
  6
CONTINUOUS
 62
   179
 10
2554.2583656842
 20
324.1301498898
 30
0.0
  0
VERTEX
  5
2E0
  8
0
  6
CONTINUOUS
 62
   179
 10
2554.7316187929
 20
324.3416240275
 30
0.0
  0
VERTEX
  5
2E1
  8
0
  6
CONTINUOUS
 62
   179
 10
2555.1932057681
 20
324.5591016261
 30
0.0
  0
VERTEX
  5
2E2
  8
0
  6
CONTINUOUS
 62
   179
 10
2555.6428041907
 20
324.7824307772
 30
0.0
  0
VERTEX
  5
2E3
  8
0
  6
CONTINUOUS
 62
   179
 10
2556.0801000159
 20
325.0114554852
 30
0.0
  0
VERTEX
  5
2E4
  8
0
  6
CONTINUOUS
 62
   179
 10
2556.5047877921
 20
325.2460157762
 30
0.0
  0
VERTEX
  5
2E5
  8
0
  6
CONTINUOUS
 62
   179
 10
2556.9165708745
 20
325.4859478094
 30
0.0
  0
VERTEX
  5
2E6
  8
0
  6
CONTINUOUS
 62
   179
 10
2557.3151616322
 20
325.7310839923
 30
0.0
  0
VERTEX
  5
2E7
  8
0
  6
CONTINUOUS
 62
   179
 10
2557.7002816492
 20
325.9812530969
 30
0.0
  0
VERTEX
  5
2E8
  8
0
  6
CONTINUOUS
 62
   179
 10
2558.0716619187
 20
326.2362803798
 30
0.0
  0
VERTEX
  5
2E9
  8
0
  6
CONTINUOUS
 62
   179
 10
2558.4290430313
 20
326.4959877042
 30
0.0
  0
VERTEX
  5
2EA
  8
0
  6
CONTINUOUS
 62
   179
 10
2558.7721753559
 20
326.7601936644
 30
0.0
  0
VERTEX
  5
2EB
  8
0
  6
CONTINUOUS
 62
   179
 10
2559.1008192142
 20
327.0287137122
 30
0.0
  0
VERTEX
  5
2EC
  8
0
  6
CONTINUOUS
 62
   179
 10
2559.4147450483
 20
327.3013602861
 30
0.0
  0
VERTEX
  5
2ED
  8
0
  6
CONTINUOUS
 62
   179
 10
2559.7137335806
 20
327.5779429421
 30
0.0
  0
VERTEX
  5
2EE
  8
0
  6
CONTINUOUS
 62
   179
 10
2559.9975759673
 20
327.8582684871
 30
0.0
  0
VERTEX
  5
2EF
  8
0
  6
CONTINUOUS
 62
   179
 10
2560.2660739442
 20
328.1421411134
 30
0.0
  0
VERTEX
  5
2F0
  8
0
  6
CONTINUOUS
 62
   179
 10
2560.5190399652
 20
328.4293625357
 30
0.0
  0
VERTEX
  5
2F1
  8
0
  6
CONTINUOUS
 62
   179
 10
2560.7562973334
 20
328.7197321294
 30
0.0
  0
VERTEX
  5
2F2
  8
0
  6
CONTINUOUS
 62
   179
 10
2560.9776803242
 20
329.0130470712
 30
0.0
  0
VERTEX
  5
2F3
  8
0
  6
CONTINUOUS
 62
   179
 10
2561.1830343013
 20
329.3091024804
 30
0.0
  0
VERTEX
  5
2F4
  8
0
  6
CONTINUOUS
 62
   179
 10
2561.372215825
 20
329.6076915618
 30
0.0
  0
VERTEX
  5
2F5
  8
0
  6
CONTINUOUS
 62
   179
 10
2561.5450927515
 20
329.9086057508
 30
0.0
  0
VERTEX
  5
2F6
  8
0
  6
CONTINUOUS
 62
   179
 10
2561.7015443263
 20
330.2116348585
 30
0.0
  0
VERTEX
  5
2F7
  8
0
  6
CONTINUOUS
 62
   179
 10
2561.8414612678
 20
330.5165672187
 30
0.0
  0
VERTEX
  5
2F8
  8
0
  6
CONTINUOUS
 62
   179
 10
2561.9647458438
 20
330.823189836
 30
0.0
  0
VERTEX
  5
2F9
  8
0
  6
CONTINUOUS
 62
   179
 10
2562.07131194
 20
331.131288534
 30
0.0
  0
VERTEX
  5
2FA
  8
0
  6
CONTINUOUS
 62
   179
 10
2562.1610851198
 20
331.4406481057
 30
0.0
  0
VERTEX
  5
2FB
  8
0
  6
CONTINUOUS
 62
   179
 10
2562.2340026766
 20
331.7510524629
 30
0.0
  0
VERTEX
  5
2FC
  8
0
  6
CONTINUOUS
 62
   179
 10
2562.2900136774
 20
332.0622847881
 30
0.0
  0
VERTEX
  5
2FD
  8
0
  6
CONTINUOUS
 62
   179
 10
2562.3290789985
 20
332.374127685
 30
0.0
  0
VERTEX
  5
2FE
  8
0
  6
CONTINUOUS
 62
   179
 10
2562.3511713526
 20
332.6863633311
 30
0.0
  0
VERTEX
  5
2FF
  8
0
  6
CONTINUOUS
 62
   179
 10
2562.3562753084
 20
332.9987736295
 30
0.0
  0
VERTEX
  5
300
  8
0
  6
CONTINUOUS
 62
   179
 10
2562.3443873005
 20
333.3111403614
 30
0.0
  0
VERTEX
  5
301
  8
0
  6
CONTINUOUS
 62
   179
 10
2562.3155156329
 20
333.6232453381
 30
0.0
  0
VERTEX
  5
302
  8
0
  6
CONTINUOUS
 62
   179
 10
2562.2696804724
 20
333.9348705543
 30
0.0
  0
VERTEX
  5
303
  8
0
  6
CONTINUOUS
 62
   179
 10
2562.2069138349
 20
334.2457983392
 30
0.0
  0
VERTEX
  5
304
  8
0
  6
CONTINUOUS
 62
   179
 10
2562.127259563
 20
334.5558115095
 30
0.0
  0
VERTEX
  5
305
  8
0
  6
CONTINUOUS
 62
   179
 10
2562.0307732953
 20
334.8646935208
 30
0.0
  0
VERTEX
  5
306
  8
0
  6
CONTINUOUS
 62
   179
 10
2561.9175224274
 20
335.1722286186
 30
0.0
  0
VERTEX
  5
307
  8
0
  6
CONTINUOUS
 62
   179
 10
2561.7875860654
 20
335.4782019894
 30
0.0
  0
VERTEX
  5
308
  8
0
  6
CONTINUOUS
 62
   179
 10
2561.6410549698
 20
335.7823999105
 30
0.0
  0
VERTEX
  5
309
  8
0
  6
CONTINUOUS
 62
   179
 10
2561.4780314927
 20
336.0846098993
 30
0.0
  0
VERTEX
  5
30A
  8
0
  6
CONTINUOUS
 62
   179
 10
2561.2986295062
 20
336.3846208619
 30
0.0
  0
VERTEX
  5
30B
  8
0
  6
CONTINUOUS
 62
   179
 10
2561.1029743228
 20
336.6822232404
 30
0.0
  0
VERTEX
  5
30C
  8
0
  6
CONTINUOUS
 62
   179
 10
2560.8912026078
 20
336.9772091591
 30
0.0
  0
VERTEX
  5
30D
  8
0
  6
CONTINUOUS
 62
   179
 10
2560.6634622839
 20
337.2693725701
 30
0.0
  0
VERTEX
  5
30E
  8
0
  6
CONTINUOUS
 62
   179
 10
2560.4199124281
 20
337.558509397
 30
0.0
  0
VERTEX
  5
30F
  8
0
  6
CONTINUOUS
 62
   179
 10
2560.16072316
 20
337.8444176774
 30
0.0
  0
VERTEX
  5
310
  8
0
  6
CONTINUOUS
 62
   179
 10
2559.8860755237
 20
338.1268977041
 30
0.0
  0
VERTEX
  5
311
  8
0
  6
CONTINUOUS
 62
   179
 10
2559.5961613608
 20
338.4057521646
 30
0.0
  0
VERTEX
  5
312
  8
0
  6
CONTINUOUS
 62
   179
 10
2559.2911831767
 20
338.6807862788
 30
0.0
  0
VERTEX
  5
313
  8
0
  6
CONTINUOUS
 62
   179
 10
2558.9713539988
 20
338.9518079349
 30
0.0
  0
VERTEX
  5
314
  8
0
  6
CONTINUOUS
 62
   179
 10
2558.6368972282
 20
339.2186278242
 30
0.0
  0
VERTEX
  5
315
  8
0
  6
CONTINUOUS
 62
   179
 10
2558.2880464832
 20
339.4810595727
 30
0.0
  0
VERTEX
  5
316
  8
0
  6
CONTINUOUS
 62
   179
 10
2557.9250454366
 20
339.7389198716
 30
0.0
  0
VERTEX
  5
317
  8
0
  6
CONTINUOUS
 62
   179
 10
2557.5481476447
 20
339.9920286051
 30
0.0
  0
VERTEX
  5
318
  8
0
  6
CONTINUOUS
 62
   179
 10
2557.1576163711
 20
340.2402089767
 30
0.0
  0
VERTEX
  5
319
  8
0
  6
CONTINUOUS
 62
   179
 10
2556.7537244024
 20
340.483287632
 30
0.0
  0
VERTEX
  5
31A
  8
0
  6
CONTINUOUS
 62
   179
 10
2556.3367538573
 20
340.7210947804
 30
0.0
  0
VERTEX
  5
31B
  8
0
  6
CONTINUOUS
 62
   179
 10
2555.9069959903
 20
340.9534643133
 30
0.0
  0
VERTEX
  5
31C
  8
0
  6
CONTINUOUS
 62
   179
 10
2555.4647509876
 20
341.1802339205
 30
0.0
  0
VERTEX
  5
31D
  8
0
  6
CONTINUOUS
 62
   179
 10
2555.0103277578
 20
341.401245203
 30
0.0
  0
VERTEX
  5
31E
  8
0
  6
CONTINUOUS
 62
   179
 10
2554.544043716
 20
341.6163437844
 30
0.0
  0
VERTEX
  5
31F
  8
0
  6
CONTINUOUS
 62
   179
 10
2554.0662245621
 20
341.8253794181
 30
0.0
  0
VERTEX
  5
320
  8
0
  6
CONTINUOUS
 62
   179
 10
2553.5772040531
 20
342.0282060924
 30
0.0
  0
VERTEX
  5
321
  8
0
  6
CONTINUOUS
 62
   179
 10
2553.0773237704
 20
342.2246821327
 30
0.0
  0
VERTEX
  5
322
  8
0
  6
CONTINUOUS
 62
   179
 10
2552.5669328808
 20
342.4146703004
 30
0.0
  0
VERTEX
  5
323
  8
0
  6
CONTINUOUS
 62
   179
 10
2552.0463878929
 20
342.5980378885
 30
0.0
  0
VERTEX
  5
324
  8
0
  6
CONTINUOUS
 62
   179
 10
2551.5160524079
 20
342.7746568145
 30
0.0
  0
VERTEX
  5
325
  8
0
  6
CONTINUOUS
 62
   179
 10
2550.9762968655
 20
342.94440371
 30
0.0
  0
VERTEX
  5
326
  8
0
  6
CONTINUOUS
 62
   179
 10
2550.4274982857
 20
343.1071600066
 30
0.0
  0
VERTEX
  5
327
  8
0
  6
CONTINUOUS
 62
   179
 10
2549.8700400047
 20
343.2628120189
 30
0.0
  0
VERTEX
  5
328
  8
0
  6
CONTINUOUS
 62
   179
 10
2549.3043114077
 20
343.4112510238
 30
0.0
  0
VERTEX
  5
329
  8
0
  6
CONTINUOUS
 62
   179
 10
2548.7307076566
 20
343.5523733365
 30
0.0
  0
VERTEX
  5
32A
  8
0
  6
CONTINUOUS
 62
   179
 10
2548.1496294143
 20
343.6860803828
 30
0.0
  0
VERTEX
  5
32B
  8
0
  6
CONTINUOUS
 62
   179
 10
2547.5614825644
 20
343.8122787685
 30
0.0
  0
VERTEX
  5
32C
  8
0
  6
CONTINUOUS
 62
   179
 10
2546.9666779281
 20
343.9308803436
 30
0.0
  0
VERTEX
  5
32D
  8
0
  6
CONTINUOUS
 62
   179
 10
2546.3656309771
 20
344.041802265
 30
0.0
  0
VERTEX
  5
32E
  8
0
  6
CONTINUOUS
 62
   179
 10
2545.7587615431
 20
344.1449670534
 30
0.0
  0
VERTEX
  5
32F
  8
0
  6
CONTINUOUS
 62
   179
 10
2545.1464935252
 20
344.2403026484
 30
0.0
  0
VERTEX
  5
330
  8
0
  6
CONTINUOUS
 62
   179
 10
2544.5292545931
 20
344.3277424577
 30
0.0
  0
VERTEX
  5
331
  8
0
  6
CONTINUOUS
 62
   179
 10
2543.9074758887
 20
344.4072254047
 30
0.0
  0
VERTEX
  5
332
  8
0
  6
CONTINUOUS
 62
   179
 10
2543.2815917252
 20
344.4786959704
 30
0.0
  0
VERTEX
  5
333
  8
0
  6
CONTINUOUS
 62
   179
 10
2542.6520392832
 20
344.5421042326
 30
0.0
  0
SEQEND
  5
CEE
  8
0
  6
CONTINUOUS
 62
   179
  0
POLYLINE
  5
DA
  8
0
  6
CONTINUOUS
 62
   179
 66
     1
 10
0.0
 20
0.0
 30
0.0
 70
   128
  0
VERTEX
  5
334
  8
0
  6
CONTINUOUS
 62
   179
 10
2472.0715260017
 20
304.8670971877
 30
0.0
  0
VERTEX
  5
335
  8
0
  6
CONTINUOUS
 62
   179
 10
2472.8237154322
 20
304.9396579208
 30
0.0
  0
VERTEX
  5
336
  8
0
  6
CONTINUOUS
 62
   179
 10
2473.5728930095
 20
305.0258913853
 30
0.0
  0
VERTEX
  5
337
  8
0
  6
CONTINUOUS
 62
   179
 10
2474.3185412013
 20
305.1257380109
 30
0.0
  0
VERTEX
  5
338
  8
0
  6
CONTINUOUS
 62
   179
 10
2475.0601449137
 20
305.2391288236
 30
0.0
  0
VERTEX
  5
339
  8
0
  6
CONTINUOUS
 62
   179
 10
2475.7971918465
 20
305.365985493
 30
0.0
  0
VERTEX
  5
33A
  8
0
  6
CONTINUOUS
 62
   179
 10
2476.5291728473
 20
305.5062203864
 30
0.0
  0
VERTEX
  5
33B
  8
0
  6
CONTINUOUS
 62
   179
 10
2477.2555822636
 20
305.6597366296
 30
0.0
  0
VERTEX
  5
33C
  8
0
  6
CONTINUOUS
 62
   179
 10
2477.9759182912
 20
305.8264281733
 30
0.0
  0
VERTEX
  5
33D
  8
0
  6
CONTINUOUS
 62
   179
 10
2478.6896833219
 20
306.0061798672
 30
0.0
  0
VERTEX
  5
33E
  8
0
  6
CONTINUOUS
 62
   179
 10
2479.3963842865
 20
306.1988675385
 30
0.0
  0
VERTEX
  5
33F
  8
0
  6
CONTINUOUS
 62
   179
 10
2480.0955329956
 20
306.4043580786
 30
0.0
  0
VERTEX
  5
340
  8
0
  6
CONTINUOUS
 62
   179
 10
2480.7866464772
 20
306.6225095346
 30
0.0
  0
VERTEX
  5
341
  8
0
  6
CONTINUOUS
 62
   179
 10
2481.4692473096
 20
306.8531712073
 30
0.0
  0
VERTEX
  5
342
  8
0
  6
CONTINUOUS
 62
   179
 10
2482.1428639521
 20
307.0961837556
 30
0.0
  0
VERTEX
  5
343
  8
0
  6
CONTINUOUS
 62
   179
 10
2482.80703107
 20
307.3513793063
 30
0.0
  0
VERTEX
  5
344
  8
0
  6
CONTINUOUS
 62
   179
 10
2483.4612898563
 20
307.6185815702
 30
0.0
  0
VERTEX
  5
345
  8
0
  6
CONTINUOUS
 62
   179
 10
2484.1051883488
 20
307.897605964
 30
0.0
  0
VERTEX
  5
346
  8
0
  6
CONTINUOUS
 62
   179
 10
2484.7382817423
 20
308.1882597373
 30
0.0
  0
VERTEX
  5
347
  8
0
  6
CONTINUOUS
 62
   179
 10
2485.3601326955
 20
308.4903421066
 30
0.0
  0
VERTEX
  5
348
  8
0
  6
CONTINUOUS
 62
   179
 10
2485.9703116337
 20
308.8036443931
 30
0.0
  0
VERTEX
  5
349
  8
0
  6
CONTINUOUS
 62
   179
 10
2486.5683970448
 20
309.1279501676
 30
0.0
  0
VERTEX
  5
34A
  8
0
  6
CONTINUOUS
 62
   179
 10
2487.1539757714
 20
309.4630353995
 30
0.0
  0
VERTEX
  5
34B
  8
0
  6
CONTINUOUS
 62
   179
 10
2487.7266432954
 20
309.8086686118
 30
0.0
  0
VERTEX
  5
34C
  8
0
  6
CONTINUOUS
 62
   179
 10
2488.2860040178
 20
310.1646110409
 30
0.0
  0
VERTEX
  5
34D
  8
0
  6
CONTINUOUS
 62
   179
 10
2488.8316715321
 20
310.5306168016
 30
0.0
  0
VERTEX
  5
34E
  8
0
  6
CONTINUOUS
 62
   179
 10
2489.3632688909
 20
310.9064330571
 30
0.0
  0
VERTEX
  5
34F
  8
0
  6
CONTINUOUS
 62
   179
 10
2489.8804288666
 20
311.2918001933
 30
0.0
  0
VERTEX
  5
350
  8
0
  6
CONTINUOUS
 62
   179
 10
2490.3827942048
 20
311.6864519985
 30
0.0
  0
VERTEX
  5
351
  8
0
  6
CONTINUOUS
 62
   179
 10
2490.8700178714
 20
312.090115847
 30
0.0
  0
VERTEX
  5
352
  8
0
  6
CONTINUOUS
 62
   179
 10
2491.3417632921
 20
312.5025128877
 30
0.0
  0
VERTEX
  5
353
  8
0
  6
CONTINUOUS
 62
   179
 10
2491.797704585
 20
312.9233582366
 30
0.0
  0
VERTEX
  5
354
  8
0
  6
CONTINUOUS
 62
   179
 10
2492.2375267856
 20
313.3523611735
 30
0.0
  0
VERTEX
  5
355
  8
0
  6
CONTINUOUS
 62
   179
 10
2492.6609260646
 20
313.7892253431
 30
0.0
  0
VERTEX
  5
356
  8
0
  6
CONTINUOUS
 62
   179
 10
2493.0676099376
 20
314.2336489593
 30
0.0
  0
VERTEX
  5
357
  8
0
  6
CONTINUOUS
 62
   179
 10
2493.4572974673
 20
314.6853250143
 30
0.0
  0
VERTEX
  5
358
  8
0
  6
CONTINUOUS
 62
   179
 10
2493.8297194573
 20
315.14394149
 30
0.0
  0
VERTEX
  5
359
  8
0
  6
CONTINUOUS
 62
   179
 10
2494.1846186384
 20
315.6091815739
 30
0.0
  0
VERTEX
  5
35A
  8
0
  6
CONTINUOUS
 62
   179
 10
2494.5217498462
 20
316.0807238781
 30
0.0
  0
VERTEX
  5
35B
  8
0
  6
CONTINUOUS
 62
   179
 10
2494.8408801901
 20
316.5582426609
 30
0.0
  0
VERTEX
  5
35C
  8
0
  6
CONTINUOUS
 62
   179
 10
2495.1417892149
 20
317.0414080522
 30
0.0
  0
VERTEX
  5
35D
  8
0
  6
CONTINUOUS
 62
   179
 10
2495.4242690526
 20
317.5298862812
 30
0.0
  0
VERTEX
  5
35E
  8
0
  6
CONTINUOUS
 62
   179
 10
2495.6881245658
 20
318.0233399068
 30
0.0
  0
VERTEX
  5
35F
  8
0
  6
CONTINUOUS
 62
   179
 10
2495.9331734832
 20
318.5214280512
 30
0.0
  0
VERTEX
  5
360
  8
0
  6
CONTINUOUS
 62
   179
 10
2496.1592465248
 20
319.0238066348
 30
0.0
  0
VERTEX
  5
361
  8
0
  6
CONTINUOUS
 62
   179
 10
2496.3661875193
 20
319.5301286144
 30
0.0
  0
VERTEX
  5
362
  8
0
  6
CONTINUOUS
 62
   179
 10
2496.5538535118
 20
320.0400442225
 30
0.0
  0
VERTEX
  5
363
  8
0
  6
CONTINUOUS
 62
   179
 10
2496.7221148626
 20
320.5532012092
 30
0.0
  0
VERTEX
  5
364
  8
0
  6
CONTINUOUS
 62
   179
 10
2496.8708553366
 20
321.0692450855
 30
0.0
  0
VERTEX
  5
365
  8
0
  6
CONTINUOUS
 62
   179
 10
2496.9999721838
 20
321.587819368
 30
0.0
  0
VERTEX
  5
366
  8
0
  6
CONTINUOUS
 62
   179
 10
2497.1093762104
 20
322.1085658255
 30
0.0
  0
VERTEX
  5
367
  8
0
  6
CONTINUOUS
 62
   179
 10
2497.1989918398
 20
322.6311247262
 30
0.0
  0
VERTEX
  5
368
  8
0
  6
CONTINUOUS
 62
   179
 10
2497.2687571658
 20
323.155135086
 30
0.0
  0
VERTEX
  5
369
  8
0
  6
CONTINUOUS
 62
   179
 10
2497.3186239942
 20
323.6802349185
 30
0.0
  0
VERTEX
  5
36A
  8
0
  6
CONTINUOUS
 62
   179
 10
2497.3485578771
 20
324.2060614844
 30
0.0
  0
VERTEX
  5
36B
  8
0
  6
CONTINUOUS
 62
   179
 10
2497.3585381362
 20
324.7322515427
 30
0.0
  0
VERTEX
  5
36C
  8
0
  6
CONTINUOUS
 62
   179
 10
2497.3485578771
 20
325.2584416009
 30
0.0
  0
VERTEX
  5
36D
  8
0
  6
CONTINUOUS
 62
   179
 10
2497.3186239942
 20
325.7842681669
 30
0.0
  0
VERTEX
  5
36E
  8
0
  6
CONTINUOUS
 62
   179
 10
2497.2687571657
 20
326.3093679994
 30
0.0
  0
VERTEX
  5
36F
  8
0
  6
CONTINUOUS
 62
   179
 10
2497.1989918398
 20
326.8333783592
 30
0.0
  0
VERTEX
  5
370
  8
0
  6
CONTINUOUS
 62
   179
 10
2497.1093762103
 20
327.3559372598
 30
0.0
  0
VERTEX
  5
371
  8
0
  6
CONTINUOUS
 62
   179
 10
2496.9999721838
 20
327.8766837173
 30
0.0
  0
VERTEX
  5
372
  8
0
  6
CONTINUOUS
 62
   179
 10
2496.8708553365
 20
328.3952579999
 30
0.0
  0
VERTEX
  5
373
  8
0
  6
CONTINUOUS
 62
   179
 10
2496.7221148626
 20
328.9113018762
 30
0.0
  0
VERTEX
  5
374
  8
0
  6
CONTINUOUS
 62
   179
 10
2496.5538535118
 20
329.4244588629
 30
0.0
  0
VERTEX
  5
375
  8
0
  6
CONTINUOUS
 62
   179
 10
2496.3661875193
 20
329.934374471
 30
0.0
  0
VERTEX
  5
376
  8
0
  6
CONTINUOUS
 62
   179
 10
2496.1592465248
 20
330.4406964505
 30
0.0
  0
VERTEX
  5
377
  8
0
  6
CONTINUOUS
 62
   179
 10
2495.9331734831
 20
330.9430750342
 30
0.0
  0
VERTEX
  5
378
  8
0
  6
CONTINUOUS
 62
   179
 10
2495.6881245658
 20
331.4411631785
 30
0.0
  0
VERTEX
  5
379
  8
0
  6
CONTINUOUS
 62
   179
 10
2495.4242690525
 20
331.9346168042
 30
0.0
  0
VERTEX
  5
37A
  8
0
  6
CONTINUOUS
 62
   179
 10
2495.1417892149
 20
332.4230950331
 30
0.0
  0
VERTEX
  5
37B
  8
0
  6
CONTINUOUS
 62
   179
 10
2494.84088019
 20
332.9062604244
 30
0.0
  0
VERTEX
  5
37C
  8
0
  6
CONTINUOUS
 62
   179
 10
2494.5217498461
 20
333.3837792072
 30
0.0
  0
VERTEX
  5
37D
  8
0
  6
CONTINUOUS
 62
   179
 10
2494.1846186383
 20
333.8553215114
 30
0.0
  0
VERTEX
  5
37E
  8
0
  6
CONTINUOUS
 62
   179
 10
2493.8297194572
 20
334.3205615954
 30
0.0
  0
VERTEX
  5
37F
  8
0
  6
CONTINUOUS
 62
   179
 10
2493.4572974672
 20
334.779178071
 30
0.0
  0
VERTEX
  5
380
  8
0
  6
CONTINUOUS
 62
   179
 10
2493.0676099375
 20
335.230854126
 30
0.0
  0
VERTEX
  5
381
  8
0
  6
CONTINUOUS
 62
   179
 10
2492.6609260645
 20
335.6752777423
 30
0.0
  0
VERTEX
  5
382
  8
0
  6
CONTINUOUS
 62
   179
 10
2492.2375267855
 20
336.1121419118
 30
0.0
  0
VERTEX
  5
383
  8
0
  6
CONTINUOUS
 62
   179
 10
2491.7977045848
 20
336.5411448487
 30
0.0
  0
VERTEX
  5
384
  8
0
  6
CONTINUOUS
 62
   179
 10
2491.341763292
 20
336.9619901976
 30
0.0
  0
VERTEX
  5
385
  8
0
  6
CONTINUOUS
 62
   179
 10
2490.8700178713
 20
337.3743872383
 30
0.0
  0
VERTEX
  5
386
  8
0
  6
CONTINUOUS
 62
   179
 10
2490.3827942047
 20
337.7780510869
 30
0.0
  0
VERTEX
  5
387
  8
0
  6
CONTINUOUS
 62
   179
 10
2489.8804288665
 20
338.172702892
 30
0.0
  0
VERTEX
  5
388
  8
0
  6
CONTINUOUS
 62
   179
 10
2489.3632688908
 20
338.5580700282
 30
0.0
  0
VERTEX
  5
389
  8
0
  6
CONTINUOUS
 62
   179
 10
2488.831671532
 20
338.9338862837
 30
0.0
  0
VERTEX
  5
38A
  8
0
  6
CONTINUOUS
 62
   179
 10
2488.2860040177
 20
339.2998920445
 30
0.0
  0
VERTEX
  5
38B
  8
0
  6
CONTINUOUS
 62
   179
 10
2487.7266432953
 20
339.6558344736
 30
0.0
  0
VERTEX
  5
38C
  8
0
  6
CONTINUOUS
 62
   179
 10
2487.1539757713
 20
340.0014676858
 30
0.0
  0
VERTEX
  5
38D
  8
0
  6
CONTINUOUS
 62
   179
 10
2486.5683970447
 20
340.3365529177
 30
0.0
  0
VERTEX
  5
38E
  8
0
  6
CONTINUOUS
 62
   179
 10
2485.9703116335
 20
340.6608586922
 30
0.0
  0
VERTEX
  5
38F
  8
0
  6
CONTINUOUS
 62
   179
 10
2485.3601326954
 20
340.9741609787
 30
0.0
  0
VERTEX
  5
390
  8
0
  6
CONTINUOUS
 62
   179
 10
2484.7382817421
 20
341.276243348
 30
0.0
  0
VERTEX
  5
391
  8
0
  6
CONTINUOUS
 62
   179
 10
2484.1051883487
 20
341.5668971213
 30
0.0
  0
VERTEX
  5
392
  8
0
  6
CONTINUOUS
 62
   179
 10
2483.4612898561
 20
341.8459215151
 30
0.0
  0
VERTEX
  5
393
  8
0
  6
CONTINUOUS
 62
   179
 10
2482.8070310698
 20
342.113123779
 30
0.0
  0
VERTEX
  5
394
  8
0
  6
CONTINUOUS
 62
   179
 10
2482.1428639519
 20
342.3683193297
 30
0.0
  0
VERTEX
  5
395
  8
0
  6
CONTINUOUS
 62
   179
 10
2481.4692473095
 20
342.611331878
 30
0.0
  0
VERTEX
  5
396
  8
0
  6
CONTINUOUS
 62
   179
 10
2480.786646477
 20
342.8419935507
 30
0.0
  0
VERTEX
  5
397
  8
0
  6
CONTINUOUS
 62
   179
 10
2480.0955329955
 20
343.0601450067
 30
0.0
  0
VERTEX
  5
398
  8
0
  6
CONTINUOUS
 62
   179
 10
2479.3963842863
 20
343.2656355468
 30
0.0
  0
VERTEX
  5
399
  8
0
  6
CONTINUOUS
 62
   179
 10
2478.6896833217
 20
343.4583232181
 30
0.0
  0
VERTEX
  5
39A
  8
0
  6
CONTINUOUS
 62
   179
 10
2477.975918291
 20
343.6380749119
 30
0.0
  0
VERTEX
  5
39B
  8
0
  6
CONTINUOUS
 62
   179
 10
2477.2555822634
 20
343.8047664557
 30
0.0
  0
VERTEX
  5
39C
  8
0
  6
CONTINUOUS
 62
   179
 10
2476.5291728472
 20
343.9582826988
 30
0.0
  0
VERTEX
  5
39D
  8
0
  6
CONTINUOUS
 62
   179
 10
2475.7971918463
 20
344.0985175923
 30
0.0
  0
VERTEX
  5
39E
  8
0
  6
CONTINUOUS
 62
   179
 10
2475.0601449135
 20
344.2253742616
 30
0.0
  0
VERTEX
  5
39F
  8
0
  6
CONTINUOUS
 62
   179
 10
2474.3185412011
 20
344.3387650743
 30
0.0
  0
VERTEX
  5
3A0
  8
0
  6
CONTINUOUS
 62
   179
 10
2473.5728930093
 20
344.4386117
 30
0.0
  0
VERTEX
  5
3A1
  8
0
  6
CONTINUOUS
 62
   179
 10
2472.8237154321
 20
344.5248451644
 30
0.0
  0
SEQEND
  5
CEF
  8
0
  6
CONTINUOUS
 62
   179
  0
POLYLINE
  5
DB
  8
0
  6
CONTINUOUS
 62
   179
 66
     1
 10
0.0
 20
0.0
 30
0.0
 70
   128
  0
VERTEX
  5
3A2
  8
0
  6
CONTINUOUS
 62
   179
 10
2356.6479108724
 20
319.3144821747
 30
0.0
  0
VERTEX
  5
3A3
  8
0
  6
CONTINUOUS
 62
   179
 10
2357.3411620224
 20
319.3884676198
 30
0.0
  0
VERTEX
  5
3A4
  8
0
  6
CONTINUOUS
 62
   179
 10
2358.0301062517
 20
319.4710962608
 30
0.0
  0
VERTEX
  5
3A5
  8
0
  6
CONTINUOUS
 62
   179
 10
2358.7142697438
 20
319.5623112705
 30
0.0
  0
VERTEX
  5
3A6
  8
0
  6
CONTINUOUS
 62
   179
 10
2359.3931819698
 20
319.6620499162
 30
0.0
  0
VERTEX
  5
3A7
  8
0
  6
CONTINUOUS
 62
   179
 10
2360.0663760126
 20
319.7702436036
 30
0.0
  0
VERTEX
  5
3A8
  8
0
  6
CONTINUOUS
 62
   179
 10
2360.7333888875
 20
319.886817923
 30
0.0
  0
VERTEX
  5
3A9
  8
0
  6
CONTINUOUS
 62
   179
 10
2361.393761861
 20
320.0116927013
 30
0.0
  0
VERTEX
  5
3AA
  8
0
  6
CONTINUOUS
 62
   179
 10
2362.0470407661
 20
320.1447820567
 30
0.0
  0
VERTEX
  5
3AB
  8
0
  6
CONTINUOUS
 62
   179
 10
2362.6927763147
 20
320.2859944579
 30
0.0
  0
VERTEX
  5
3AC
  8
0
  6
CONTINUOUS
 62
   179
 10
2363.3305244066
 20
320.4352327871
 30
0.0
  0
VERTEX
  5
3AD
  8
0
  6
CONTINUOUS
 62
   179
 10
2363.959846435
 20
320.5923944066
 30
0.0
  0
VERTEX
  5
3AE
  8
0
  6
CONTINUOUS
 62
   179
 10
2364.5803095878
 20
320.7573712296
 30
0.0
  0
VERTEX
  5
3AF
  8
0
  6
CONTINUOUS
 62
   179
 10
2365.1914871458
 20
320.9300497945
 30
0.0
  0
VERTEX
  5
3B0
  8
0
  6
CONTINUOUS
 62
   179
 10
2365.7929587759
 20
321.1103113426
 30
0.0
  0
VERTEX
  5
3B1
  8
0
  6
CONTINUOUS
 62
   179
 10
2366.38431082
 20
321.2980319004
 30
0.0
  0
VERTEX
  5
3B2
  8
0
  6
CONTINUOUS
 62
   179
 10
2366.9651365799
 20
321.4930823644
 30
0.0
  0
VERTEX
  5
3B3
  8
0
  6
CONTINUOUS
 62
   179
 10
2367.5350365964
 20
321.6953285898
 30
0.0
  0
VERTEX
  5
3B4
  8
0
  6
CONTINUOUS
 62
   179
 10
2368.093618925
 20
321.9046314834
 30
0.0
  0
VERTEX
  5
3B5
  8
0
  6
CONTINUOUS
 62
   179
 10
2368.6404994042
 20
322.1208470983
 30
0.0
  0
VERTEX
  5
3B6
  8
0
  6
CONTINUOUS
 62
   179
 10
2369.175301921
 20
322.3438267339
 30
0.0
  0
VERTEX
  5
3B7
  8
0
  6
CONTINUOUS
 62
   179
 10
2369.6976586684
 20
322.5734170373
 30
0.0
  0
VERTEX
  5
3B8
  8
0
  6
CONTINUOUS
 62
   179
 10
2370.2072103992
 20
322.8094601095
 30
0.0
  0
VERTEX
  5
3B9
  8
0
  6
CONTINUOUS
 62
   179
 10
2370.7036066727
 20
323.0517936135
 30
0.0
  0
VERTEX
  5
3BA
  8
0
  6
CONTINUOUS
 62
   179
 10
2371.1865060957
 20
323.3002508859
 30
0.0
  0
VERTEX
  5
3BB
  8
0
  6
CONTINUOUS
 62
   179
 10
2371.6555765575
 20
323.5546610521
 30
0.0
  0
VERTEX
  5
3BC
  8
0
  6
CONTINUOUS
 62
   179
 10
2372.1104954581
 20
323.8148491432
 30
0.0
  0
VERTEX
  5
3BD
  8
0
  6
CONTINUOUS
 62
   179
 10
2372.5509499301
 20
324.0806362165
 30
0.0
  0
VERTEX
  5
3BE
  8
0
  6
CONTINUOUS
 62
   179
 10
2372.9766370539
 20
324.351839479
 30
0.0
  0
VERTEX
  5
3BF
  8
0
  6
CONTINUOUS
 62
   179
 10
2373.3872640662
 20
324.6282724123
 30
0.0
  0
VERTEX
  5
3C0
  8
0
  6
CONTINUOUS
 62
   179
 10
2373.7825485611
 20
324.9097449016
 30
0.0
  0
VERTEX
  5
3C1
  8
0
  6
CONTINUOUS
 62
   179
 10
2374.1622186842
 20
325.1960633661
 30
0.0
  0
VERTEX
  5
3C2
  8
0
  6
CONTINUOUS
 62
   179
 10
2374.5260133202
 20
325.4870308923
 30
0.0
  0
VERTEX
  5
3C3
  8
0
  6
CONTINUOUS
 62
   179
 10
2374.8736822717
 20
325.7824473693
 30
0.0
  0
VERTEX
  5
3C4
  8
0
  6
CONTINUOUS
 62
   179
 10
2375.2049864318
 20
326.0821096264
 30
0.0
  0
VERTEX
  5
3C5
  8
0
  6
CONTINUOUS
 62
   179
 10
2375.5196979483
 20
326.3858115728
 30
0.0
  0
VERTEX
  5
3C6
  8
0
  6
CONTINUOUS
 62
   179
 10
2375.8176003805
 20
326.6933443398
 30
0.0
  0
VERTEX
  5
3C7
  8
0
  6
CONTINUOUS
 62
   179
 10
2376.0984888481
 20
327.0044964237
 30
0.0
  0
VERTEX
  5
3C8
  8
0
  6
CONTINUOUS
 62
   179
 10
2376.362170172
 20
327.3190538318
 30
0.0
  0
VERTEX
  5
3C9
  8
0
  6
CONTINUOUS
 62
   179
 10
2376.6084630071
 20
327.6368002294
 30
0.0
  0
VERTEX
  5
3CA
  8
0
  6
CONTINUOUS
 62
   179
 10
2376.8371979672
 20
327.9575170886
 30
0.0
  0
VERTEX
  5
3CB
  8
0
  6
CONTINUOUS
 62
   179
 10
2377.0482177413
 20
328.2809838386
 30
0.0
  0
VERTEX
  5
3CC
  8
0
  6
CONTINUOUS
 62
   179
 10
2377.2413772022
 20
328.6069780173
 30
0.0
  0
VERTEX
  5
3CD
  8
0
  6
CONTINUOUS
 62
   179
 10
2377.4165435057
 20
328.9352754245
 30
0.0
  0
VERTEX
  5
3CE
  8
0
  6
CONTINUOUS
 62
   179
 10
2377.5735961824
 20
329.2656502758
 30
0.0
  0
VERTEX
  5
3CF
  8
0
  6
CONTINUOUS
 62
   179
 10
2377.7124272203
 20
329.5978753583
 30
0.0
  0
VERTEX
  5
3D0
  8
0
  6
CONTINUOUS
 62
   179
 10
2377.8329411394
 20
329.9317221863
 30
0.0
  0
VERTEX
  5
3D1
  8
0
  6
CONTINUOUS
 62
   179
 10
2377.9350550571
 20
330.2669611591
 30
0.0
  0
VERTEX
  5
3D2
  8
0
  6
CONTINUOUS
 62
   179
 10
2378.0186987452
 20
330.6033617183
 30
0.0
  0
VERTEX
  5
3D3
  8
0
  6
CONTINUOUS
 62
   179
 10
2378.0838146783
 20
330.9406925067
 30
0.0
  0
VERTEX
  5
3D4
  8
0
  6
CONTINUOUS
 62
   179
 10
2378.1303580734
 20
331.2787215274
 30
0.0
  0
VERTEX
  5
3D5
  8
0
  6
CONTINUOUS
 62
   179
 10
2378.1582969206
 20
331.6172163033
 30
0.0
  0
VERTEX
  5
3D6
  8
0
  6
CONTINUOUS
 62
   179
 10
2378.1676120051
 20
331.9559440369
 30
0.0
  0
VERTEX
  5
3D7
  8
0
  6
CONTINUOUS
 62
   179
 10
2378.1582969206
 20
332.2946717704
 30
0.0
  0
VERTEX
  5
3D8
  8
0
  6
CONTINUOUS
 62
   179
 10
2378.1303580734
 20
332.6331665463
 30
0.0
  0
VERTEX
  5
3D9
  8
0
  6
CONTINUOUS
 62
   179
 10
2378.0838146783
 20
332.971195567
 30
0.0
  0
VERTEX
  5
3DA
  8
0
  6
CONTINUOUS
 62
   179
 10
2378.0186987452
 20
333.3085263554
 30
0.0
  0
VERTEX
  5
3DB
  8
0
  6
CONTINUOUS
 62
   179
 10
2377.9350550571
 20
333.6449269146
 30
0.0
  0
VERTEX
  5
3DC
  8
0
  6
CONTINUOUS
 62
   179
 10
2377.8329411395
 20
333.9801658874
 30
0.0
  0
VERTEX
  5
3DD
  8
0
  6
CONTINUOUS
 62
   179
 10
2377.7124272204
 20
334.3140127155
 30
0.0
  0
VERTEX
  5
3DE
  8
0
  6
CONTINUOUS
 62
   179
 10
2377.5735961825
 20
334.6462377979
 30
0.0
  0
VERTEX
  5
3DF
  8
0
  6
CONTINUOUS
 62
   179
 10
2377.4165435058
 20
334.9766126493
 30
0.0
  0
VERTEX
  5
3E0
  8
0
  6
CONTINUOUS
 62
   179
 10
2377.2413772023
 20
335.3049100564
 30
0.0
  0
VERTEX
  5
3E1
  8
0
  6
CONTINUOUS
 62
   179
 10
2377.0482177414
 20
335.6309042352
 30
0.0
  0
VERTEX
  5
3E2
  8
0
  6
CONTINUOUS
 62
   179
 10
2376.8371979673
 20
335.9543709851
 30
0.0
  0
VERTEX
  5
3E3
  8
0
  6
CONTINUOUS
 62
   179
 10
2376.6084630072
 20
336.2750878443
 30
0.0
  0
VERTEX
  5
3E4
  8
0
  6
CONTINUOUS
 62
   179
 10
2376.3621701721
 20
336.592834242
 30
0.0
  0
VERTEX
  5
3E5
  8
0
  6
CONTINUOUS
 62
   179
 10
2376.0984888483
 20
336.9073916501
 30
0.0
  0
VERTEX
  5
3E6
  8
0
  6
CONTINUOUS
 62
   179
 10
2375.8176003807
 20
337.2185437339
 30
0.0
  0
VERTEX
  5
3E7
  8
0
  6
CONTINUOUS
 62
   179
 10
2375.5196979485
 20
337.5260765009
 30
0.0
  0
VERTEX
  5
3E8
  8
0
  6
CONTINUOUS
 62
   179
 10
2375.204986432
 20
337.8297784474
 30
0.0
  0
VERTEX
  5
3E9
  8
0
  6
CONTINUOUS
 62
   179
 10
2374.8736822719
 20
338.1294407044
 30
0.0
  0
VERTEX
  5
3EA
  8
0
  6
CONTINUOUS
 62
   179
 10
2374.5260133204
 20
338.4248571814
 30
0.0
  0
VERTEX
  5
3EB
  8
0
  6
CONTINUOUS
 62
   179
 10
2374.1622186844
 20
338.7158247076
 30
0.0
  0
VERTEX
  5
3EC
  8
0
  6
CONTINUOUS
 62
   179
 10
2373.7825485612
 20
339.0021431722
 30
0.0
  0
VERTEX
  5
3ED
  8
0
  6
CONTINUOUS
 62
   179
 10
2373.3872640664
 20
339.2836156615
 30
0.0
  0
VERTEX
  5
3EE
  8
0
  6
CONTINUOUS
 62
   179
 10
2372.9766370541
 20
339.5600485948
 30
0.0
  0
VERTEX
  5
3EF
  8
0
  6
CONTINUOUS
 62
   179
 10
2372.5509499303
 20
339.8312518572
 30
0.0
  0
VERTEX
  5
3F0
  8
0
  6
CONTINUOUS
 62
   179
 10
2372.1104954583
 20
340.0970389306
 30
0.0
  0
VERTEX
  5
3F1
  8
0
  6
CONTINUOUS
 62
   179
 10
2371.6555765577
 20
340.3572270217
 30
0.0
  0
VERTEX
  5
3F2
  8
0
  6
CONTINUOUS
 62
   179
 10
2371.1865060959
 20
340.6116371879
 30
0.0
  0
VERTEX
  5
3F3
  8
0
  6
CONTINUOUS
 62
   179
 10
2370.7036066729
 20
340.8600944603
 30
0.0
  0
VERTEX
  5
3F4
  8
0
  6
CONTINUOUS
 62
   179
 10
2370.2072103994
 20
341.1024279642
 30
0.0
  0
VERTEX
  5
3F5
  8
0
  6
CONTINUOUS
 62
   179
 10
2369.6976586686
 20
341.3384710364
 30
0.0
  0
VERTEX
  5
3F6
  8
0
  6
CONTINUOUS
 62
   179
 10
2369.1753019212
 20
341.5680613399
 30
0.0
  0
VERTEX
  5
3F7
  8
0
  6
CONTINUOUS
 62
   179
 10
2368.6404994045
 20
341.7910409755
 30
0.0
  0
VERTEX
  5
3F8
  8
0
  6
CONTINUOUS
 62
   179
 10
2368.0936189252
 20
342.0072565904
 30
0.0
  0
VERTEX
  5
3F9
  8
0
  6
CONTINUOUS
 62
   179
 10
2367.5350365967
 20
342.216559484
 30
0.0
  0
VERTEX
  5
3FA
  8
0
  6
CONTINUOUS
 62
   179
 10
2366.9651365801
 20
342.4188057094
 30
0.0
  0
VERTEX
  5
3FB
  8
0
  6
CONTINUOUS
 62
   179
 10
2366.3843108203
 20
342.6138561734
 30
0.0
  0
VERTEX
  5
3FC
  8
0
  6
CONTINUOUS
 62
   179
 10
2365.7929587762
 20
342.8015767312
 30
0.0
  0
VERTEX
  5
3FD
  8
0
  6
CONTINUOUS
 62
   179
 10
2365.1914871461
 20
342.9818382793
 30
0.0
  0
VERTEX
  5
3FE
  8
0
  6
CONTINUOUS
 62
   179
 10
2364.5803095881
 20
343.1545168442
 30
0.0
  0
VERTEX
  5
3FF
  8
0
  6
CONTINUOUS
 62
   179
 10
2363.9598464353
 20
343.3194936672
 30
0.0
  0
VERTEX
  5
400
  8
0
  6
CONTINUOUS
 62
   179
 10
2363.3305244069
 20
343.4766552867
 30
0.0
  0
VERTEX
  5
401
  8
0
  6
CONTINUOUS
 62
   179
 10
2362.692776315
 20
343.6258936159
 30
0.0
  0
VERTEX
  5
402
  8
0
  6
CONTINUOUS
 62
   179
 10
2362.0470407664
 20
343.7671060172
 30
0.0
  0
VERTEX
  5
403
  8
0
  6
CONTINUOUS
 62
   179
 10
2361.3937618613
 20
343.9001953726
 30
0.0
  0
VERTEX
  5
404
  8
0
  6
CONTINUOUS
 62
   179
 10
2360.7333888878
 20
344.0250701509
 30
0.0
  0
VERTEX
  5
405
  8
0
  6
CONTINUOUS
 62
   179
 10
2360.0663760129
 20
344.1416444703
 30
0.0
  0
VERTEX
  5
406
  8
0
  6
CONTINUOUS
 62
   179
 10
2359.3931819701
 20
344.2498381576
 30
0.0
  0
VERTEX
  5
407
  8
0
  6
CONTINUOUS
 62
   179
 10
2358.7142697441
 20
344.3495768034
 30
0.0
  0
VERTEX
  5
408
  8
0
  6
CONTINUOUS
 62
   179
 10
2358.030106252
 20
344.440791813
 30
0.0
  0
VERTEX
  5
409
  8
0
  6
CONTINUOUS
 62
   179
 10
2357.3411620227
 20
344.523420454
 30
0.0
  0
SEQEND
  5
CF0
  8
0
  6
CONTINUOUS
 62
   179
  0
POLYLINE
  5
DC
  8
0
  6
CONTINUOUS
 62
   179
 66
     1
 10
0.0
 20
0.0
 30
0.0
 70
   128
  0
VERTEX
  5
40A
  8
0
  6
CONTINUOUS
 62
   179
 10
2708.2866879839
 20
338.5841707372
 30
0.0
  0
VERTEX
  5
40B
  8
0
  6
CONTINUOUS
 62
   179
 10
2708.3252434632
 20
338.5905460317
 30
0.0
  0
VERTEX
  5
40C
  8
0
  6
CONTINUOUS
 62
   179
 10
2708.3636037467
 20
338.5978528011
 30
0.0
  0
VERTEX
  5
40D
  8
0
  6
CONTINUOUS
 62
   179
 10
2708.4017423285
 20
338.6060859968
 30
0.0
  0
VERTEX
  5
40E
  8
0
  6
CONTINUOUS
 62
   179
 10
2708.439632856
 20
338.6152399299
 30
0.0
  0
VERTEX
  5
40F
  8
0
  6
CONTINUOUS
 62
   179
 10
2708.4772491479
 20
338.6253082752
 30
0.0
  0
VERTEX
  5
410
  8
0
  6
CONTINUOUS
 62
   179
 10
2708.5145652125
 20
338.6362840758
 30
0.0
  0
VERTEX
  5
411
  8
0
  6
CONTINUOUS
 62
   179
 10
2708.5515552656
 20
338.6481597477
 30
0.0
  0
VERTEX
  5
412
  8
0
  6
CONTINUOUS
 62
   179
 10
2708.5881937479
 20
338.6609270852
 30
0.0
  0
VERTEX
  5
413
  8
0
  6
CONTINUOUS
 62
   179
 10
2708.6244553434
 20
338.6745772665
 30
0.0
  0
VERTEX
  5
414
  8
0
  6
CONTINUOUS
 62
   179
 10
2708.6603149965
 20
338.6891008597
 30
0.0
  0
VERTEX
  5
415
  8
0
  6
CONTINUOUS
 62
   179
 10
2708.6957479291
 20
338.7044878293
 30
0.0
  0
VERTEX
  5
416
  8
0
  6
CONTINUOUS
 62
   179
 10
2708.7307296581
 20
338.7207275435
 30
0.0
  0
VERTEX
  5
417
  8
0
  6
CONTINUOUS
 62
   179
 10
2708.7652360121
 20
338.737808781
 30
0.0
  0
VERTEX
  5
418
  8
0
  6
CONTINUOUS
 62
   179
 10
2708.7992431483
 20
338.7557197393
 30
0.0
  0
VERTEX
  5
419
  8
0
  6
CONTINUOUS
 62
   179
 10
2708.8327275687
 20
338.7744480424
 30
0.0
  0
VERTEX
  5
41A
  8
0
  6
CONTINUOUS
 62
   179
 10
2708.8656661366
 20
338.7939807496
 30
0.0
  0
VERTEX
  5
41B
  8
0
  6
CONTINUOUS
 62
   179
 10
2708.8980360924
 20
338.8143043643
 30
0.0
  0
VERTEX
  5
41C
  8
0
  6
CONTINUOUS
 62
   179
 10
2708.9298150693
 20
338.8354048435
 30
0.0
  0
VERTEX
  5
41D
  8
0
  6
CONTINUOUS
 62
   179
 10
2708.9609811092
 20
338.8572676075
 30
0.0
  0
VERTEX
  5
41E
  8
0
  6
CONTINUOUS
 62
   179
 10
2708.991512677
 20
338.8798775496
 30
0.0
  0
VERTEX
  5
41F
  8
0
  6
CONTINUOUS
 62
   179
 10
2709.0213886764
 20
338.903219047
 30
0.0
  0
VERTEX
  5
420
  8
0
  6
CONTINUOUS
 62
   179
 10
2709.0505884639
 20
338.9272759716
 30
0.0
  0
VERTEX
  5
421
  8
0
  6
CONTINUOUS
 62
   179
 10
2709.0790918635
 20
338.9520317006
 30
0.0
  0
VERTEX
  5
422
  8
0
  6
CONTINUOUS
 62
   179
 10
2709.1068791799
 20
338.9774691285
 30
0.0
  0
VERTEX
  5
423
  8
0
  6
CONTINUOUS
 62
   179
 10
2709.133931213
 20
339.0035706789
 30
0.0
  0
VERTEX
  5
424
  8
0
  6
CONTINUOUS
 62
   179
 10
2709.1602292707
 20
339.0303183162
 30
0.0
  0
VERTEX
  5
425
  8
0
  6
CONTINUOUS
 62
   179
 10
2709.1857551818
 20
339.0576935588
 30
0.0
  0
VERTEX
  5
426
  8
0
  6
CONTINUOUS
 62
   179
 10
2709.2104913085
 20
339.085677491
 30
0.0
  0
VERTEX
  5
427
  8
0
  6
CONTINUOUS
 62
   179
 10
2709.2344205589
 20
339.1142507769
 30
0.0
  0
VERTEX
  5
428
  8
0
  6
CONTINUOUS
 62
   179
 10
2709.2575263987
 20
339.1433936731
 30
0.0
  0
VERTEX
  5
429
  8
0
  6
CONTINUOUS
 62
   179
 10
2709.2797928624
 20
339.1730860426
 30
0.0
  0
VERTEX
  5
42A
  8
0
  6
CONTINUOUS
 62
   179
 10
2709.3012045645
 20
339.203307369
 30
0.0
  0
VERTEX
  5
42B
  8
0
  6
CONTINUOUS
 62
   179
 10
2709.3217467101
 20
339.2340367703
 30
0.0
  0
VERTEX
  5
42C
  8
0
  6
CONTINUOUS
 62
   179
 10
2709.3414051052
 20
339.2652530131
 30
0.0
  0
VERTEX
  5
42D
  8
0
  6
CONTINUOUS
 62
   179
 10
2709.3601661665
 20
339.2969345282
 30
0.0
  0
VERTEX
  5
42E
  8
0
  6
CONTINUOUS
 62
   179
 10
2709.3780169305
 20
339.3290594244
 30
0.0
  0
VERTEX
  5
42F
  8
0
  6
CONTINUOUS
 62
   179
 10
2709.394945063
 20
339.3616055044
 30
0.0
  0
VERTEX
  5
430
  8
0
  6
CONTINUOUS
 62
   179
 10
2709.410938867
 20
339.3945502798
 30
0.0
  0
VERTEX
  5
431
  8
0
  6
CONTINUOUS
 62
   179
 10
2709.4259872914
 20
339.4278709867
 30
0.0
  0
VERTEX
  5
432
  8
0
  6
CONTINUOUS
 62
   179
 10
2709.4400799381
 20
339.4615446015
 30
0.0
  0
VERTEX
  5
433
  8
0
  6
CONTINUOUS
 62
   179
 10
2709.4532070695
 20
339.4955478567
 30
0.0
  0
VERTEX
  5
434
  8
0
  6
CONTINUOUS
 62
   179
 10
2709.4653596151
 20
339.5298572571
 30
0.0
  0
VERTEX
  5
435
  8
0
  6
CONTINUOUS
 62
   179
 10
2709.4765291779
 20
339.5644490958
 30
0.0
  0
VERTEX
  5
436
  8
0
  6
CONTINUOUS
 62
   179
 10
2709.4867080401
 20
339.5992994709
 30
0.0
  0
VERTEX
  5
437
  8
0
  6
CONTINUOUS
 62
   179
 10
2709.4958891683
 20
339.6343843018
 30
0.0
  0
VERTEX
  5
438
  8
0
  6
CONTINUOUS
 62
   179
 10
2709.5040662186
 20
339.6696793459
 30
0.0
  0
VERTEX
  5
439
  8
0
  6
CONTINUOUS
 62
   179
 10
2709.511233541
 20
339.7051602153
 30
0.0
  0
VERTEX
  5
43A
  8
0
  6
CONTINUOUS
 62
   179
 10
2709.5173861831
 20
339.7408023939
 30
0.0
  0
VERTEX
  5
43B
  8
0
  6
CONTINUOUS
 62
   179
 10
2709.5225198935
 20
339.7765812539
 30
0.0
  0
VERTEX
  5
43C
  8
0
  6
CONTINUOUS
 62
   179
 10
2709.5266311249
 20
339.8124720732
 30
0.0
  0
VERTEX
  5
43D
  8
0
  6
CONTINUOUS
 62
   179
 10
2709.5297170368
 20
339.8484500522
 30
0.0
  0
VERTEX
  5
43E
  8
0
  6
CONTINUOUS
 62
   179
 10
2709.5317754967
 20
339.8844903313
 30
0.0
  0
VERTEX
  5
43F
  8
0
  6
CONTINUOUS
 62
   179
 10
2709.5328050824
 20
339.9205680076
 30
0.0
  0
VERTEX
  5
440
  8
0
  6
CONTINUOUS
 62
   179
 10
2709.5328050824
 20
339.9566581525
 30
0.0
  0
VERTEX
  5
441
  8
0
  6
CONTINUOUS
 62
   179
 10
2709.5317754967
 20
339.9927358288
 30
0.0
  0
VERTEX
  5
442
  8
0
  6
CONTINUOUS
 62
   179
 10
2709.5297170368
 20
340.0287761078
 30
0.0
  0
VERTEX
  5
443
  8
0
  6
CONTINUOUS
 62
   179
 10
2709.5266311249
 20
340.0647540868
 30
0.0
  0
VERTEX
  5
444
  8
0
  6
CONTINUOUS
 62
   179
 10
2709.5225198935
 20
340.1006449061
 30
0.0
  0
VERTEX
  5
445
  8
0
  6
CONTINUOUS
 62
   179
 10
2709.5173861831
 20
340.1364237661
 30
0.0
  0
VERTEX
  5
446
  8
0
  6
CONTINUOUS
 62
   179
 10
2709.511233541
 20
340.1720659447
 30
0.0
  0
VERTEX
  5
447
  8
0
  6
CONTINUOUS
 62
   179
 10
2709.5040662186
 20
340.2075468142
 30
0.0
  0
VERTEX
  5
448
  8
0
  6
CONTINUOUS
 62
   179
 10
2709.4958891683
 20
340.2428418583
 30
0.0
  0
VERTEX
  5
449
  8
0
  6
CONTINUOUS
 62
   179
 10
2709.4867080401
 20
340.2779266892
 30
0.0
  0
VERTEX
  5
44A
  8
0
  6
CONTINUOUS
 62
   179
 10
2709.4765291779
 20
340.3127770643
 30
0.0
  0
VERTEX
  5
44B
  8
0
  6
CONTINUOUS
 62
   179
 10
2709.4653596151
 20
340.347368903
 30
0.0
  0
VERTEX
  5
44C
  8
0
  6
CONTINUOUS
 62
   179
 10
2709.4532070695
 20
340.3816783033
 30
0.0
  0
VERTEX
  5
44D
  8
0
  6
CONTINUOUS
 62
   179
 10
2709.4400799381
 20
340.4156815585
 30
0.0
  0
VERTEX
  5
44E
  8
0
  6
CONTINUOUS
 62
   179
 10
2709.4259872914
 20
340.4493551733
 30
0.0
  0
VERTEX
  5
44F
  8
0
  6
CONTINUOUS
 62
   179
 10
2709.410938867
 20
340.4826758803
 30
0.0
  0
VERTEX
  5
450
  8
0
  6
CONTINUOUS
 62
   179
 10
2709.394945063
 20
340.5156206557
 30
0.0
  0
VERTEX
  5
451
  8
0
  6
CONTINUOUS
 62
   179
 10
2709.3780169305
 20
340.5481667357
 30
0.0
  0
VERTEX
  5
452
  8
0
  6
CONTINUOUS
 62
   179
 10
2709.3601661665
 20
340.5802916319
 30
0.0
  0
VERTEX
  5
453
  8
0
  6
CONTINUOUS
 62
   179
 10
2709.3414051052
 20
340.6119731469
 30
0.0
  0
VERTEX
  5
454
  8
0
  6
CONTINUOUS
 62
   179
 10
2709.3217467101
 20
340.6431893898
 30
0.0
  0
VERTEX
  5
455
  8
0
  6
CONTINUOUS
 62
   179
 10
2709.3012045645
 20
340.673918791
 30
0.0
  0
VERTEX
  5
456
  8
0
  6
CONTINUOUS
 62
   179
 10
2709.2797928624
 20
340.7041401174
 30
0.0
  0
VERTEX
  5
457
  8
0
  6
CONTINUOUS
 62
   179
 10
2709.2575263987
 20
340.733832487
 30
0.0
  0
VERTEX
  5
458
  8
0
  6
CONTINUOUS
 62
   179
 10
2709.2344205589
 20
340.7629753832
 30
0.0
  0
VERTEX
  5
459
  8
0
  6
CONTINUOUS
 62
   179
 10
2709.2104913085
 20
340.791548669
 30
0.0
  0
VERTEX
  5
45A
  8
0
  6
CONTINUOUS
 62
   179
 10
2709.1857551818
 20
340.8195326013
 30
0.0
  0
VERTEX
  5
45B
  8
0
  6
CONTINUOUS
 62
   179
 10
2709.1602292707
 20
340.8469078438
 30
0.0
  0
VERTEX
  5
45C
  8
0
  6
CONTINUOUS
 62
   179
 10
2709.133931213
 20
340.8736554812
 30
0.0
  0
VERTEX
  5
45D
  8
0
  6
CONTINUOUS
 62
   179
 10
2709.1068791799
 20
340.8997570316
 30
0.0
  0
VERTEX
  5
45E
  8
0
  6
CONTINUOUS
 62
   179
 10
2709.0790918635
 20
340.9251944595
 30
0.0
  0
VERTEX
  5
45F
  8
0
  6
CONTINUOUS
 62
   179
 10
2709.0505884639
 20
340.9499501885
 30
0.0
  0
VERTEX
  5
460
  8
0
  6
CONTINUOUS
 62
   179
 10
2709.0213886764
 20
340.974007113
 30
0.0
  0
VERTEX
  5
461
  8
0
  6
CONTINUOUS
 62
   179
 10
2708.991512677
 20
340.9973486105
 30
0.0
  0
VERTEX
  5
462
  8
0
  6
CONTINUOUS
 62
   179
 10
2708.9609811092
 20
341.0199585526
 30
0.0
  0
VERTEX
  5
463
  8
0
  6
CONTINUOUS
 62
   179
 10
2708.9298150693
 20
341.0418213165
 30
0.0
  0
VERTEX
  5
464
  8
0
  6
CONTINUOUS
 62
   179
 10
2708.8980360924
 20
341.0629217958
 30
0.0
  0
VERTEX
  5
465
  8
0
  6
CONTINUOUS
 62
   179
 10
2708.8656661366
 20
341.0832454105
 30
0.0
  0
VERTEX
  5
466
  8
0
  6
CONTINUOUS
 62
   179
 10
2708.8327275687
 20
341.1027781176
 30
0.0
  0
VERTEX
  5
467
  8
0
  6
CONTINUOUS
 62
   179
 10
2708.7992431483
 20
341.1215064207
 30
0.0
  0
VERTEX
  5
468
  8
0
  6
CONTINUOUS
 62
   179
 10
2708.7652360121
 20
341.139417379
 30
0.0
  0
VERTEX
  5
469
  8
0
  6
CONTINUOUS
 62
   179
 10
2708.7307296581
 20
341.1564986166
 30
0.0
  0
VERTEX
  5
46A
  8
0
  6
CONTINUOUS
 62
   179
 10
2708.6957479291
 20
341.1727383308
 30
0.0
  0
VERTEX
  5
46B
  8
0
  6
CONTINUOUS
 62
   179
 10
2708.6603149965
 20
341.1881253004
 30
0.0
  0
VERTEX
  5
46C
  8
0
  6
CONTINUOUS
 62
   179
 10
2708.6244553434
 20
341.2026488936
 30
0.0
  0
VERTEX
  5
46D
  8
0
  6
CONTINUOUS
 62
   179
 10
2708.5881937479
 20
341.2162990748
 30
0.0
  0
VERTEX
  5
46E
  8
0
  6
CONTINUOUS
 62
   179
 10
2708.5515552656
 20
341.2290664124
 30
0.0
  0
VERTEX
  5
46F
  8
0
  6
CONTINUOUS
 62
   179
 10
2708.5145652125
 20
341.2409420843
 30
0.0
  0
VERTEX
  5
470
  8
0
  6
CONTINUOUS
 62
   179
 10
2708.4772491479
 20
341.2519178849
 30
0.0
  0
VERTEX
  5
471
  8
0
  6
CONTINUOUS
 62
   179
 10
2708.439632856
 20
341.2619862302
 30
0.0
  0
VERTEX
  5
472
  8
0
  6
CONTINUOUS
 62
   179
 10
2708.4017423285
 20
341.2711401632
 30
0.0
  0
VERTEX
  5
473
  8
0
  6
CONTINUOUS
 62
   179
 10
2708.3636037467
 20
341.2793733589
 30
0.0
  0
VERTEX
  5
474
  8
0
  6
CONTINUOUS
 62
   179
 10
2708.3252434632
 20
341.2866801284
 30
0.0
  0
SEQEND
  5
CF1
  8
0
  6
CONTINUOUS
 62
   179
  0
TEXT
  5
DD
  8
0
  6
CONTINUOUS
 62
     7
 10
2231.444945447
 20
130.9741163699
 30
0.0
 40
37.0416666667
  1
580
 41
0.7
 11
2231.444945447
 21
117.8887749097
 31
0.0
 73
     1
  0
TEXT
  5
DE
  8
0
  6
CONTINUOUS
 62
     7
 10
2158.8845987823
 20
129.542595296
 30
0.0
 40
18.0
  1
COD.
 41
0.7
 11
2158.8845987823
 21
123.1839141814
 31
0.0
 73
     1
  0
TEXT
  5
DF
  8
0
  6
CONTINUOUS
 62
     7
 10
107.0855178468
 20
57.8769790168
 30
0.0
 40
18.0
  1
This document is the property of PEDRALI S.p.A. who willsafeguard its rights according to the civil and penal prevision of the Law.
 41
0.6438931298
 11
107.0855178468
 21
51.5182979023
 31
0.0
 73
     1
  0
INSERT
  5
E5
  8
0
  6
CONTINUOUS
 62
     7
  2
SW_NOTE_0
 10
1440.8605986612
 20
53.5813398756
 30
0.0
  0
TEXT
  5
E6
  8
0
  6
CONTINUOUS
 62
     7
 10
2158.8845987823
 20
217.4656717624
 30
0.0
 40
18.0
  1
SERIE:
 41
0.7
 11
2158.8845987823
 21
211.1069906478
 31
0.0
 73
     1
  0
TEXT
  5
E7
  8
0
  6
CONTINUOUS
 62
     7
 10
2231.444945447
 20
218.8971928363
 30
0.0
 40
37.0416666667
  1
RUBIK 
 41
0.7
 11
2231.444945447
 21
205.8118513761
 31
0.0
 73
     1
  0
INSERT
  5
ED
  8
0
  6
CONTINUOUS
 62
     7
  2
SW_NOTE_1
 10
2766.9883061954
 20
242.6632128381
 30
0.0
  0
POLYLINE
  5
EE
  8
0
  6
CONTINUOUS
 62
     7
 66
     1
 10
0.0
 20
0.0
 30
0.0
 70
   128
  0
VERTEX
  5
475
  8
0
  6
CONTINUOUS
 62
     7
 10
1554.6095210221
 20
1650.8523417999
 30
0.0
  0
VERTEX
  5
476
  8
0
  6
CONTINUOUS
 62
     7
 10
1562.45561569
 20
1511.4828391362
 30
0.0
  0
VERTEX
  5
477
  8
0
  6
CONTINUOUS
 62
     7
 10
1574.2306548264
 20
1301.9871978451
 30
0.0
  0
SEQEND
  5
CF2
  8
0
  6
CONTINUOUS
 62
     7
  0
POLYLINE
  5
EF
  8
0
  6
CONTINUOUS
 62
     7
 66
     1
 10
0.0
 20
0.0
 30
0.0
 70
   128
  0
VERTEX
  5
478
  8
0
  6
CONTINUOUS
 62
     7
 10
1286.0823261645
 20
1012.4584330608
 30
0.0
  0
VERTEX
  5
479
  8
0
  6
CONTINUOUS
 62
     7
 10
1293.959676018
 20
1153.0485941459
 30
0.0
  0
VERTEX
  5
47A
  8
0
  6
CONTINUOUS
 62
     7
 10
1299.5117294696
 20
1251.9871933748
 30
0.0
  0
SEQEND
  5
CF3
  8
0
  6
CONTINUOUS
 62
     7
  0
POLYLINE
  5
F0
  8
0
  6
CONTINUOUS
 62
     7
 66
     1
 10
0.0
 20
0.0
 30
0.0
 70
   128
  0
VERTEX
  5
47B
  8
0
  6
CONTINUOUS
 62
     7
 10
1577.0370650199
 20
1251.9871933748
 30
0.0
  0
VERTEX
  5
47C
  8
0
  6
CONTINUOUS
 62
     7
 10
1582.5891184714
 20
1153.0485941459
 30
0.0
  0
VERTEX
  5
47D
  8
0
  6
CONTINUOUS
 62
     7
 10
1590.4664683249
 20
1012.4584330608
 30
0.0
  0
SEQEND
  5
CF4
  8
0
  6
CONTINUOUS
 62
     7
  0
ARC
  5
F1
  8
0
  6
CONTINUOUS
 62
     7
 10
1285.5171788518
 20
1012.5570942593
 30
0.0
 40
0.5735223364252637
 50
263.5530489262
 51
350.1789340149
  0
ARC
  5
F2
  8
0
  6
CONTINUOUS
 62
     7
 10
1591.0316156377
 20
1012.5570942593
 30
0.0
 40
0.5735223364245248
 50
189.8210659851
 51
276.4469510739
  0
POLYLINE
  5
F3
  8
0
  6
CONTINUOUS
 62
     7
 66
     1
 10
0.0
 20
0.0
 30
0.0
 70
   128
  0
VERTEX
  5
47E
  8
0
  6
CONTINUOUS
 62
     7
 10
1609.59856092
 20
1018.4467329074
 30
0.0
  0
VERTEX
  5
47F
  8
0
  6
CONTINUOUS
 62
     7
 10
1603.2543617394
 20
1155.9972806264
 30
0.0
  0
VERTEX
  5
480
  8
0
  6
CONTINUOUS
 62
     7
 10
1596.8102353719
 20
1295.7139728953
 30
0.0
  0
SEQEND
  5
CF5
  8
0
  6
CONTINUOUS
 62
     7
  0
POLYLINE
  5
F4
  8
0
  6
CONTINUOUS
 62
     7
 66
     1
 10
0.0
 20
0.0
 30
0.0
 70
   128
  0
VERTEX
  5
481
  8
0
  6
CONTINUOUS
 62
     7
 10
1279.7385591176
 20
1295.7139728953
 30
0.0
  0
VERTEX
  5
482
  8
0
  6
CONTINUOUS
 62
     7
 10
1273.3943450358
 20
1158.1634326268
 30
0.0
  0
VERTEX
  5
483
  8
0
  6
CONTINUOUS
 62
     7
 10
1266.9502335694
 20
1018.4467329074
 30
0.0
  0
SEQEND
  5
CF6
  8
0
  6
CONTINUOUS
 62
     7
  0
ARC
  5
F5
  8
0
  6
CONTINUOUS
 62
     7
 10
1610.956085735
 20
1018.4394710853
 30
0.0
 40
1.357544237680497
 50
179.6935099941
 51
224.6939153955
  0
ARC
  5
F6
  8
0
  6
CONTINUOUS
 62
     7
 10
1265.5927087545
 20
1018.4394710853
 30
0.0
 40
1.357544237682539
 50
315.3060846045
 51
0.3064900059
  0
ARC
  5
F7
  8
0
  6
CONTINUOUS
 62
     7
 10
1583.3337928029
 20
1246.2403245619
 30
0.0
 40
5.686642065951492
 50
52.9041312244
 51
73.971275631
  0
ARC
  5
F8
  8
0
  6
CONTINUOUS
 62
     7
 10
1293.1728586086
 20
1246.3177906793
 30
0.0
 40
5.599449694508723
 50
105.4037697813
 51
127.2300079317
  0
LINE
  5
F9
  8
0
  6
CONTINUOUS
 62
     7
 10
1293.2030993607
 20
1251.9627703716
 30
0.0
 11
1293.5957002547
 21
1251.9859267761
 31
0.0
  0
ARC
  5
FA
  8
0
  6
CONTINUOUS
 62
     7
 10
1296.1424740991
 20
1243.0098504417
 30
0.0
 40
10.03651059868187
 50
129.3032419606
 51
162.6390683585
  0
ARC
  5
FB
  8
0
  6
CONTINUOUS
 62
     7
 10
1580.6537268594
 20
1243.1769094946
 30
0.0
 40
9.750902168497342
 50
16.8577979403
 51
51.1998917407
  0
ARC
  5
FC
  8
0
  6
CONTINUOUS
 62
     7
 10
1598.1673507105
 20
1295.8404372762
 30
0.0
 40
1.362994967756712
 50
141.8678049185
 51
185.3237997591
  0
ARC
  5
FD
  8
0
  6
CONTINUOUS
 62
     7
 10
1278.3814437789
 20
1295.8404372762
 30
0.0
 40
1.362994967761771
 50
354.6762002409
 51
38.1321950814
  0
POLYLINE
  5
FE
  8
0
  6
CONTINUOUS
 62
     7
 66
     1
 10
0.0
 20
0.0
 30
0.0
 70
   128
  0
VERTEX
  5
484
  8
0
  6
CONTINUOUS
 62
     7
 10
1286.2891244796
 20
1244.805817156
 30
0.0
  0
VERTEX
  5
485
  8
0
  6
CONTINUOUS
 62
     7
 10
1286.3873678353
 20
1245.3746242811
 30
0.0
  0
VERTEX
  5
486
  8
0
  6
CONTINUOUS
 62
     7
 10
1286.562605491
 20
1246.0030360509
 30
0.0
  0
SEQEND
  5
CF7
  8
0
  6
CONTINUOUS
 62
     7
  0
POLYLINE
  5
FF
  8
0
  6
CONTINUOUS
 62
     7
 66
     1
 10
0.0
 20
0.0
 30
0.0
 70
   128
  0
VERTEX
  5
487
  8
0
  6
CONTINUOUS
 62
     7
 10
1589.9861889985
 20
1246.0030360509
 30
0.0
  0
VERTEX
  5
488
  8
0
  6
CONTINUOUS
 62
     7
 10
1590.1613670495
 20
1245.3749521066
 30
0.0
  0
VERTEX
  5
489
  8
0
  6
CONTINUOUS
 62
     7
 10
1590.2583736089
 20
1244.8135657598
 30
0.0
  0
SEQEND
  5
CF8
  8
0
  6
CONTINUOUS
 62
     7
  0
ARC
  5
100
  8
0
  6
CONTINUOUS
 62
     7
 10
1280.114652416
 20
1308.1120478201
 30
0.0
 40
6.128928824111344
 50
267.9095573875
 51
308.6718201265
  0
ARC
  5
101
  8
0
  6
CONTINUOUS
 62
     7
 10
1596.423133144
 20
1308.07873703
 30
0.0
 40
6.096054016770498
 50
231.2127844287
 51
272.2052652065
  0
ARC
  5
102
  8
0
  6
CONTINUOUS
 62
     7
 10
1277.5246459887
 20
1309.3720112473
 30
0.0
 40
8.818177591280481
 50
316.7950055033
 51
334.3540254957
  0
ARC
  5
103
  8
0
  6
CONTINUOUS
 62
     7
 10
1598.8975615048
 20
1309.2852525952
 30
0.0
 40
8.666542953982221
 50
205.4911171686
 51
223.3598518324
  0
POLYLINE
  5
104
  8
0
  6
CONTINUOUS
 62
     7
 66
     1
 10
0.0
 20
0.0
 30
0.0
 70
   128
  0
VERTEX
  5
48A
  8
0
  6
CONTINUOUS
 62
     7
 10
1302.318139663
 20
1301.9871978451
 30
0.0
  0
VERTEX
  5
48B
  8
0
  6
CONTINUOUS
 62
     7
 10
1314.0931787994
 20
1511.4828391362
 30
0.0
  0
VERTEX
  5
48C
  8
0
  6
CONTINUOUS
 62
     7
 10
1321.9391691592
 20
1650.8504940559
 30
0.0
  0
SEQEND
  5
CF9
  8
0
  6
CONTINUOUS
 62
     7
  0
ARC
  5
105
  8
0
  6
CONTINUOUS
 62
     7
 10
1601.1310394606
 20
1310.4216129033
 30
0.0
 40
11.17183931341849
 50
192.7276816645
 51
205.8219819022
  0
ARC
  5
106
  8
0
  6
CONTINUOUS
 62
     7
 10
1275.4099170925
 20
1310.424353845
 30
0.0
 40
11.18008857522597
 50
334.1828700451
 51
347.2674663882
  0
ARC
  5
107
  8
0
  6
CONTINUOUS
 62
     7
 10
1608.840528446
 20
1312.3166924505
 30
0.0
 40
19.11000010625324
 50
183.2762884864
 51
193.1773539899
  0
ARC
  5
108
  8
0
  6
CONTINUOUS
 62
     7
 10
1267.7585366982
 20
1312.3094243156
 30
0.0
 40
19.05939673994466
 50
346.8094692344
 51
356.7368882893
  0
POLYLINE
  5
109
  8
0
  6
CONTINUOUS
 62
     7
 66
     1
 10
0.0
 20
0.0
 30
0.0
 70
   128
  0
VERTEX
  5
48D
  8
0
  6
CONTINUOUS
 62
     7
 10
1589.7617626097
 20
1311.2245394279
 30
0.0
  0
VERTEX
  5
48E
  8
0
  6
CONTINUOUS
 62
     7
 10
1581.2626171019
 20
1455.2245034267
 30
0.0
  0
VERTEX
  5
48F
  8
0
  6
CONTINUOUS
 62
     7
 10
1572.600482693
 20
1601.9884689142
 30
0.0
  0
SEQEND
  5
CFA
  8
0
  6
CONTINUOUS
 62
     7
  0
POLYLINE
  5
10A
  8
0
  6
CONTINUOUS
 62
     7
 66
     1
 10
0.0
 20
0.0
 30
0.0
 70
   128
  0
VERTEX
  5
490
  8
0
  6
CONTINUOUS
 62
     7
 10
1303.9483117965
 20
1601.9884689142
 30
0.0
  0
VERTEX
  5
491
  8
0
  6
CONTINUOUS
 62
     7
 10
1295.5559927132
 20
1459.7959338118
 30
0.0
  0
VERTEX
  5
492
  8
0
  6
CONTINUOUS
 62
     7
 10
1286.7870318797
 20
1311.2245394279
 30
0.0
  0
SEQEND
  5
CFB
  8
0
  6
CONTINUOUS
 62
     7
  0
ARC
  5
10B
  8
0
  6
CONTINUOUS
 62
     7
 10
1239.7612156465
 20
1012.4894281988
 30
0.0
 40
0.5022306410254256
 50
178.9902519931
 51
270.1242777502
  0
ARC
  5
10C
  8
0
  6
CONTINUOUS
 62
     7
 10
1636.7875788429
 20
1012.4894281988
 30
0.0
 40
0.5022306410244034
 50
269.8757222498
 51
1.009748007
  0
LINE
  5
10D
  8
0
  6
CONTINUOUS
 62
     7
 10
1637.2897314933
 20
1012.4982787658
 30
0.0
 11
1632.1994948294
 21
1242.33122602
 31
0.0
  0
LINE
  5
10E
  8
0
  6
CONTINUOUS
 62
     7
 10
1244.34929966
 20
1242.33122602
 30
0.0
 11
1239.2590629962
 21
1012.4983979751
 31
0.0
  0
POLYLINE
  5
10F
  8
0
  6
CONTINUOUS
 62
     7
 66
     1
 10
0.0
 20
0.0
 30
0.0
 70
   128
  0
VERTEX
  5
493
  8
0
  6
CONTINUOUS
 62
     7
 10
1572.5959080365
 20
1601.9878877689
 30
0.0
  0
VERTEX
  5
494
  8
0
  6
CONTINUOUS
 62
     7
 10
1572.4237996247
 20
1605.1012767841
 30
0.0
  0
VERTEX
  5
495
  8
0
  6
CONTINUOUS
 62
     7
 10
1572.254194608
 20
1608.0335123826
 30
0.0
  0
VERTEX
  5
496
  8
0
  6
CONTINUOUS
 62
     7
 10
1572.0888513234
 20
1610.784728675
 30
0.0
  0
VERTEX
  5
497
  8
0
  6
CONTINUOUS
 62
     7
 10
1571.9292896893
 20
1613.3550597717
 30
0.0
  0
VERTEX
  5
498
  8
0
  6
CONTINUOUS
 62
     7
 10
1571.7768061068
 20
1615.744639783
 30
0.0
  0
VERTEX
  5
499
  8
0
  6
CONTINUOUS
 62
     7
 10
1571.632518163
 20
1617.9535432149
 30
0.0
  0
VERTEX
  5
49A
  8
0
  6
CONTINUOUS
 62
     7
 10
1571.4973795321
 20
1619.9818743755
 30
0.0
  0
VERTEX
  5
49B
  8
0
  6
CONTINUOUS
 62
     7
 10
1571.3822233584
 20
1621.6826035072
 30
0.0
  0
VERTEX
  5
49C
  8
0
  6
CONTINUOUS
 62
     7
 10
1571.2759631779
 20
1623.2317133237
 30
0.0
  0
VERTEX
  5
49D
  8
0
  6
CONTINUOUS
 62
     7
 10
1571.1790311244
 20
1624.6292485286
 30
0.0
  0
VERTEX
  5
49E
  8
0
  6
CONTINUOUS
 62
     7
 10
1571.0864204076
 20
1625.9517861892
 30
0.0
  0
VERTEX
  5
49F
  8
0
  6
CONTINUOUS
 62
     7
 10
1570.9924387839
 20
1627.2819383432
 30
0.0
  0
VERTEX
  5
4A0
  8
0
  6
CONTINUOUS
 62
     7
 10
1570.8971309569
 20
1628.6197645952
 30
0.0
  0
VERTEX
  5
4A1
  8
0
  6
CONTINUOUS
 62
     7
 10
1570.4752045777
 20
1634.4272388507
 30
0.0
  0
VERTEX
  5
4A2
  8
0
  6
CONTINUOUS
 62
     7
 10
1570.3897315171
 20
1635.584463029
 30
0.0
  0
VERTEX
  5
4A3
  8
0
  6
CONTINUOUS
 62
     7
 10
1570.3015613463
 20
1636.7726816226
 30
0.0
  0
VERTEX
  5
4A4
  8
0
  6
CONTINUOUS
 62
     7
 10
1570.2061641124
 20
1638.0526466657
 30
0.0
  0
VERTEX
  5
4A5
  8
0
  6
CONTINUOUS
 62
     7
 10
1570.1032715943
 20
1639.4269658614
 30
0.0
  0
VERTEX
  5
4A6
  8
0
  6
CONTINUOUS
 62
     7
 10
1569.9709492829
 20
1641.1860479404
 30
0.0
  0
VERTEX
  5
4A7
  8
0
  6
CONTINUOUS
 62
     7
 10
1569.8278683331
 20
1643.0788232375
 30
0.0
  0
VERTEX
  5
4A8
  8
0
  6
CONTINUOUS
 62
     7
 10
1569.6739989426
 20
1645.1052619506
 30
0.0
  0
VERTEX
  5
4A9
  8
0
  6
CONTINUOUS
 62
     7
 10
1569.5093113091
 20
1647.2653342773
 30
0.0
  0
VERTEX
  5
4AA
  8
0
  6
CONTINUOUS
 62
     7
 10
1569.3338352349
 20
1649.5590402175
 30
0.0
  0
VERTEX
  5
4AB
  8
0
  6
CONTINUOUS
 62
     7
 10
1569.1476452258
 20
1651.986349969
 30
0.0
  0
SEQEND
  5
CFC
  8
0
  6
CONTINUOUS
 62
     7
  0
POLYLINE
  5
110
  8
0
  6
CONTINUOUS
 62
     7
 66
     1
 10
0.0
 20
0.0
 30
0.0
 70
   128
  0
VERTEX
  5
4AC
  8
0
  6
CONTINUOUS
 62
     7
 10
1307.4008810427
 20
1651.986349969
 30
0.0
  0
VERTEX
  5
4AD
  8
0
  6
CONTINUOUS
 62
     7
 10
1307.1789878514
 20
1649.0908457328
 30
0.0
  0
VERTEX
  5
4AE
  8
0
  6
CONTINUOUS
 62
     7
 10
1306.971414676
 20
1646.37388721
 30
0.0
  0
VERTEX
  5
4AF
  8
0
  6
CONTINUOUS
 62
     7
 10
1306.7783254292
 20
1643.8355638076
 30
0.0
  0
VERTEX
  5
4B0
  8
0
  6
CONTINUOUS
 62
     7
 10
1306.5997350123
 20
1641.4758755256
 30
0.0
  0
VERTEX
  5
4B1
  8
0
  6
CONTINUOUS
 62
     7
 10
1306.4356285241
 20
1639.294822364
 30
0.0
  0
VERTEX
  5
4B2
  8
0
  6
CONTINUOUS
 62
     7
 10
1306.2859314587
 20
1637.2924788286
 30
0.0
  0
VERTEX
  5
4B3
  8
0
  6
CONTINUOUS
 62
     7
 10
1306.1233299878
 20
1635.1013226796
 30
0.0
  0
VERTEX
  5
4B4
  8
0
  6
CONTINUOUS
 62
     7
 10
1305.9656608012
 20
1632.9574926187
 30
0.0
  0
VERTEX
  5
4B5
  8
0
  6
CONTINUOUS
 62
     7
 10
1305.8125960734
 20
1630.8553411056
 30
0.0
  0
VERTEX
  5
4B6
  8
0
  6
CONTINUOUS
 62
     7
 10
1305.6641954091
 20
1628.7948979427
 30
0.0
  0
VERTEX
  5
4B7
  8
0
  6
CONTINUOUS
 62
     7
 10
1305.5722254422
 20
1627.5054110576
 30
0.0
  0
VERTEX
  5
4B8
  8
0
  6
CONTINUOUS
 62
     7
 10
1305.4821628239
 20
1626.2328071882
 30
0.0
  0
VERTEX
  5
4B9
  8
0
  6
CONTINUOUS
 62
     7
 10
1305.3940373566
 20
1624.9771012355
 30
0.0
  0
VERTEX
  5
4BA
  8
0
  6
CONTINUOUS
 62
     7
 10
1305.3068208602
 20
1623.7234814454
 30
0.0
  0
VERTEX
  5
4BB
  8
0
  6
CONTINUOUS
 62
     7
 10
1305.211676946
 20
1622.342531233
 30
0.0
  0
VERTEX
  5
4BC
  8
0
  6
CONTINUOUS
 62
     7
 10
1305.1068770793
 20
1620.8040310432
 30
0.0
  0
VERTEX
  5
4BD
  8
0
  6
CONTINUOUS
 62
     7
 10
1304.9928831961
 20
1619.1079361726
 30
0.0
  0
VERTEX
  5
4BE
  8
0
  6
CONTINUOUS
 62
     7
 10
1304.8702615407
 20
1617.2542019178
 30
0.0
  0
VERTEX
  5
4BF
  8
0
  6
CONTINUOUS
 62
     7
 10
1304.7332304623
 20
1615.1430650045
 30
0.0
  0
VERTEX
  5
4C0
  8
0
  6
CONTINUOUS
 62
     7
 10
1304.5883166697
 20
1612.8587467958
 30
0.0
  0
VERTEX
  5
4C1
  8
0
  6
CONTINUOUS
 62
     7
 10
1304.4365334418
 20
1610.401187687
 30
0.0
  0
VERTEX
  5
4C2
  8
0
  6
CONTINUOUS
 62
     7
 10
1304.2790877726
 20
1607.7702833701
 30
0.0
  0
VERTEX
  5
4C3
  8
0
  6
CONTINUOUS
 62
     7
 10
1304.1173356679
 20
1604.9658848335
 30
0.0
  0
VERTEX
  5
4C4
  8
0
  6
CONTINUOUS
 62
     7
 10
1303.9528864529
 20
1601.9878877689
 30
0.0
  0
SEQEND
  5
CFD
  8
0
  6
CONTINUOUS
 62
     7
  0
LINE
  5
111
  8
0
  6
CONTINUOUS
 62
     7
 10
1312.0445001033
 20
1723.236490636
 30
0.0
 11
1310.9213101771
 21
1705.1477326442
 31
0.0
  0
LINE
  5
112
  8
0
  6
CONTINUOUS
 62
     7
 10
1565.6274843123
 20
1705.1477326442
 30
0.0
 11
1564.5042943862
 21
1723.236490636
 31
0.0
  0
POLYLINE
  5
113
  8
0
  6
CONTINUOUS
 62
     7
 66
     1
 10
0.0
 20
0.0
 30
0.0
 70
   128
  0
VERTEX
  5
4C5
  8
0
  6
CONTINUOUS
 62
     7
 10
1310.9210419562
 20
1705.1463617374
 30
0.0
  0
VERTEX
  5
4C6
  8
0
  6
CONTINUOUS
 62
     7
 10
1310.7676046994
 20
1702.1333171417
 30
0.0
  0
VERTEX
  5
4C7
  8
0
  6
CONTINUOUS
 62
     7
 10
1310.6139588263
 20
1699.2600752403
 30
0.0
  0
VERTEX
  5
4C8
  8
0
  6
CONTINUOUS
 62
     7
 10
1310.4608493951
 20
1696.5266360332
 30
0.0
  0
VERTEX
  5
4C9
  8
0
  6
CONTINUOUS
 62
     7
 10
1310.3100794461
 20
1693.9328505088
 30
0.0
  0
VERTEX
  5
4CA
  8
0
  6
CONTINUOUS
 62
     7
 10
1310.1627665665
 20
1691.4786888648
 30
0.0
  0
VERTEX
  5
4CB
  8
0
  6
CONTINUOUS
 62
     7
 10
1310.019894233
 20
1689.1640318919
 30
0.0
  0
VERTEX
  5
4CC
  8
0
  6
CONTINUOUS
 62
     7
 10
1309.8823714164
 20
1686.9888497878
 30
0.0
  0
VERTEX
  5
4CD
  8
0
  6
CONTINUOUS
 62
     7
 10
1309.7510176804
 20
1684.9530531455
 30
0.0
  0
VERTEX
  5
4CE
  8
0
  6
CONTINUOUS
 62
     7
 10
1309.6265184787
 20
1683.0566121627
 30
0.0
  0
VERTEX
  5
4CF
  8
0
  6
CONTINUOUS
 62
     7
 10
1309.5093953517
 20
1681.2994374324
 30
0.0
  0
VERTEX
  5
4D0
  8
0
  6
CONTINUOUS
 62
     7
 10
1309.4001698401
 20
1679.6815289546
 30
0.0
  0
VERTEX
  5
4D1
  8
0
  6
CONTINUOUS
 62
     7
 10
1309.2992293742
 20
1678.2028271247
 30
0.0
  0
VERTEX
  5
4D2
  8
0
  6
CONTINUOUS
 62
     7
 10
1309.2069166806
 20
1676.8633021404
 30
0.0
  0
VERTEX
  5
4D3
  8
0
  6
CONTINUOUS
 62
     7
 10
1309.1235446837
 20
1675.6629540016
 30
0.0
  0
VERTEX
  5
4D4
  8
0
  6
CONTINUOUS
 62
     7
 10
1309.0493667033
 20
1674.6016933013
 30
0.0
  0
VERTEX
  5
4D5
  8
0
  6
CONTINUOUS
 62
     7
 10
1308.9845466521
 20
1673.6795796443
 30
0.0
  0
VERTEX
  5
4D6
  8
0
  6
CONTINUOUS
 62
     7
 10
1308.937667599
 20
1673.0152262737
 30
0.0
  0
VERTEX
  5
4D7
  8
0
  6
CONTINUOUS
 62
     7
 10
1308.8975238707
 20
1672.4481476833
 30
0.0
  0
VERTEX
  5
4D8
  8
0
  6
CONTINUOUS
 62
     7
 10
1308.864175072
 20
1671.9783438731
 30
0.0
  0
VERTEX
  5
4D9
  8
0
  6
CONTINUOUS
 62
     7
 10
1308.8307815697
 20
1671.508718877
 30
0.0
  0
VERTEX
  5
4DA
  8
0
  6
CONTINUOUS
 62
     7
 10
1308.7900566962
 20
1670.9373487521
 30
0.0
  0
VERTEX
  5
4DB
  8
0
  6
CONTINUOUS
 62
     7
 10
1308.7419408467
 20
1670.264263301
 30
0.0
  0
VERTEX
  5
4DC
  8
0
  6
CONTINUOUS
 62
     7
 10
1308.6756753829
 20
1669.340391307
 30
0.0
  0
VERTEX
  5
4DD
  8
0
  6
CONTINUOUS
 62
     7
 10
1308.5989791062
 20
1668.2752265025
 30
0.0
  0
VERTEX
  5
4DE
  8
0
  6
CONTINUOUS
 62
     7
 10
1308.5117477086
 20
1667.0687688876
 30
0.0
  0
VERTEX
  5
4DF
  8
0
  6
CONTINUOUS
 62
     7
 10
1308.4138768819
 20
1665.7210482646
 30
0.0
  0
VERTEX
  5
4E0
  8
0
  6
CONTINUOUS
 62
     7
 10
1308.3029377368
 20
1664.2002059509
 30
0.0
  0
VERTEX
  5
4E1
  8
0
  6
CONTINUOUS
 62
     7
 10
1308.180748215
 20
1662.5322891761
 30
0.0
  0
VERTEX
  5
4E2
  8
0
  6
CONTINUOUS
 62
     7
 10
1308.0472785142
 20
1660.7172979404
 30
0.0
  0
VERTEX
  5
4E3
  8
0
  6
CONTINUOUS
 62
     7
 10
1307.9024839309
 20
1658.7552024413
 30
0.0
  0
VERTEX
  5
4E4
  8
0
  6
CONTINUOUS
 62
     7
 10
1307.7464389708
 20
1656.6460324813
 30
0.0
  0
VERTEX
  5
4E5
  8
0
  6
CONTINUOUS
 62
     7
 10
1307.5792479422
 20
1654.389758258
 30
0.0
  0
VERTEX
  5
4E6
  8
0
  6
CONTINUOUS
 62
     7
 10
1307.4010449555
 20
1651.986349969
 30
0.0
  0
SEQEND
  5
CFE
  8
0
  6
CONTINUOUS
 62
     7
  0
POLYLINE
  5
114
  8
0
  6
CONTINUOUS
 62
     7
 66
     1
 10
0.0
 20
0.0
 30
0.0
 70
   128
  0
VERTEX
  5
4E7
  8
0
  6
CONTINUOUS
 62
     7
 10
1569.1477495339
 20
1651.986349969
 30
0.0
  0
VERTEX
  5
4E8
  8
0
  6
CONTINUOUS
 62
     7
 10
1568.9699339774
 20
1654.3846918632
 30
0.0
  0
VERTEX
  5
4E9
  8
0
  6
CONTINUOUS
 62
     7
 10
1568.8030558732
 20
1656.6365255405
 30
0.0
  0
VERTEX
  5
4EA
  8
0
  6
CONTINUOUS
 62
     7
 10
1568.6472940352
 20
1658.7418808032
 30
0.0
  0
VERTEX
  5
4EB
  8
0
  6
CONTINUOUS
 62
     7
 10
1568.5027378705
 20
1660.7008172561
 30
0.0
  0
VERTEX
  5
4EC
  8
0
  6
CONTINUOUS
 62
     7
 10
1568.3694320824
 20
1662.5132752944
 30
0.0
  0
VERTEX
  5
4ED
  8
0
  6
CONTINUOUS
 62
     7
 10
1568.2494628337
 20
1664.150853305
 30
0.0
  0
VERTEX
  5
4EE
  8
0
  6
CONTINUOUS
 62
     7
 10
1568.1402969268
 20
1665.6471981098
 30
0.0
  0
VERTEX
  5
4EF
  8
0
  6
CONTINUOUS
 62
     7
 10
1568.0418598559
 20
1667.0022501041
 30
0.0
  0
VERTEX
  5
4F0
  8
0
  6
CONTINUOUS
 62
     7
 10
1567.9540771153
 20
1668.2160390903
 30
0.0
  0
VERTEX
  5
4F1
  8
0
  6
CONTINUOUS
 62
     7
 10
1567.8768443969
 20
1669.288535266
 30
0.0
  0
VERTEX
  5
4F2
  8
0
  6
CONTINUOUS
 62
     7
 10
1567.8100424912
 20
1670.2197386314
 30
0.0
  0
VERTEX
  5
4F3
  8
0
  6
CONTINUOUS
 62
     7
 10
1567.7535819915
 20
1671.0096789886
 30
0.0
  0
VERTEX
  5
4F4
  8
0
  6
CONTINUOUS
 62
     7
 10
1567.7073734906
 20
1671.6582669307
 30
0.0
  0
VERTEX
  5
4F5
  8
0
  6
CONTINUOUS
 62
     7
 10
1567.6778095868
 20
1672.0742179443
 30
0.0
  0
VERTEX
  5
4F6
  8
0
  6
CONTINUOUS
 62
     7
 10
1567.6457571891
 20
1672.5259317447
 30
0.0
  0
VERTEX
  5
4F7
  8
0
  6
CONTINUOUS
 62
     7
 10
1567.6078933385
 20
1673.0610324432
 30
0.0
  0
VERTEX
  5
4F8
  8
0
  6
CONTINUOUS
 62
     7
 10
1567.5642478373
 20
1673.6795796443
 30
0.0
  0
VERTEX
  5
4F9
  8
0
  6
CONTINUOUS
 62
     7
 10
1567.4994277861
 20
1674.6016933013
 30
0.0
  0
VERTEX
  5
4FA
  8
0
  6
CONTINUOUS
 62
     7
 10
1567.4252498057
 20
1675.6629540016
 30
0.0
  0
VERTEX
  5
4FB
  8
0
  6
CONTINUOUS
 62
     7
 10
1567.3418778088
 20
1676.8633021404
 30
0.0
  0
VERTEX
  5
4FC
  8
0
  6
CONTINUOUS
 62
     7
 10
1567.2495651152
 20
1678.2028271247
 30
0.0
  0
VERTEX
  5
4FD
  8
0
  6
CONTINUOUS
 62
     7
 10
1567.1486246493
 20
1679.6815289546
 30
0.0
  0
VERTEX
  5
4FE
  8
0
  6
CONTINUOUS
 62
     7
 10
1567.0393991378
 20
1681.2994374324
 30
0.0
  0
VERTEX
  5
4FF
  8
0
  6
CONTINUOUS
 62
     7
 10
1566.9222760108
 20
1683.0566121627
 30
0.0
  0
VERTEX
  5
500
  8
0
  6
CONTINUOUS
 62
     7
 10
1566.797776809
 20
1684.9530531455
 30
0.0
  0
VERTEX
  5
501
  8
0
  6
CONTINUOUS
 62
     7
 10
1566.6664230731
 20
1686.9888497878
 30
0.0
  0
VERTEX
  5
502
  8
0
  6
CONTINUOUS
 62
     7
 10
1566.5289002564
 20
1689.1640318919
 30
0.0
  0
VERTEX
  5
503
  8
0
  6
CONTINUOUS
 62
     7
 10
1566.3860279229
 20
1691.4786888648
 30
0.0
  0
VERTEX
  5
504
  8
0
  6
CONTINUOUS
 62
     7
 10
1566.2387150433
 20
1693.9328505088
 30
0.0
  0
VERTEX
  5
505
  8
0
  6
CONTINUOUS
 62
     7
 10
1566.0879450944
 20
1696.5266360332
 30
0.0
  0
VERTEX
  5
506
  8
0
  6
CONTINUOUS
 62
     7
 10
1565.9348356631
 20
1699.2600752403
 30
0.0
  0
VERTEX
  5
507
  8
0
  6
CONTINUOUS
 62
     7
 10
1565.78118979
 20
1702.1333171417
 30
0.0
  0
VERTEX
  5
508
  8
0
  6
CONTINUOUS
 62
     7
 10
1565.6277525332
 20
1705.1463617374
 30
0.0
  0
SEQEND
  5
CFF
  8
0
  6
CONTINUOUS
 62
     7
  0
POLYLINE
  5
115
  8
0
  6
CONTINUOUS
 62
     7
 66
     1
 10
0.0
 20
0.0
 30
0.0
 70
   128
  0
VERTEX
  5
509
  8
0
  6
CONTINUOUS
 62
     7
 10
1356.447471967
 20
1761.8752910186
 30
0.0
  0
VERTEX
  5
50A
  8
0
  6
CONTINUOUS
 62
     7
 10
1355.5264088419
 20
1761.8686152984
 30
0.0
  0
VERTEX
  5
50B
  8
0
  6
CONTINUOUS
 62
     7
 10
1354.7109427955
 20
1761.8459953357
 30
0.0
  0
VERTEX
  5
50C
  8
0
  6
CONTINUOUS
 62
     7
 10
1353.9999413398
 20
1761.8134511997
 30
0.0
  0
VERTEX
  5
50D
  8
0
  6
CONTINUOUS
 62
     7
 10
1353.3629912045
 20
1761.7740525295
 30
0.0
  0
VERTEX
  5
50E
  8
0
  6
CONTINUOUS
 62
     7
 10
1352.6879164484
 20
1761.721689849
 30
0.0
  0
VERTEX
  5
50F
  8
0
  6
CONTINUOUS
 62
     7
 10
1351.964383116
 20
1761.6535021354
 30
0.0
  0
VERTEX
  5
510
  8
0
  6
CONTINUOUS
 62
     7
 10
1351.193039408
 20
1761.5669561912
 30
0.0
  0
VERTEX
  5
511
  8
0
  6
CONTINUOUS
 62
     7
 10
1350.3746154812
 20
1761.4594592143
 30
0.0
  0
VERTEX
  5
512
  8
0
  6
CONTINUOUS
 62
     7
 10
1348.9953192976
 20
1761.241544633
 30
0.0
  0
VERTEX
  5
513
  8
0
  6
CONTINUOUS
 62
     7
 10
1347.5051435735
 20
1760.953862815
 30
0.0
  0
VERTEX
  5
514
  8
0
  6
CONTINUOUS
 62
     7
 10
1345.9079849627
 20
1760.584463029
 30
0.0
  0
VERTEX
  5
515
  8
0
  6
CONTINUOUS
 62
     7
 10
1344.2081946042
 20
1760.120858102
 30
0.0
  0
VERTEX
  5
516
  8
0
  6
CONTINUOUS
 62
     7
 10
1342.1610954311
 20
1759.4641341258
 30
0.0
  0
VERTEX
  5
517
  8
0
  6
CONTINUOUS
 62
     7
 10
1340.0935071614
 20
1758.6888267089
 30
0.0
  0
VERTEX
  5
518
  8
0
  6
CONTINUOUS
 62
     7
 10
1338.0533221271
 20
1757.8083468963
 30
0.0
  0
VERTEX
  5
519
  8
0
  6
CONTINUOUS
 62
     7
 10
1336.045733383
 20
1756.8235887576
 30
0.0
  0
VERTEX
  5
51A
  8
0
  6
CONTINUOUS
 62
     7
 10
1334.0835559275
 20
1755.7423008968
 30
0.0
  0
VERTEX
  5
51B
  8
0
  6
CONTINUOUS
 62
     7
 10
1332.1801039484
 20
1754.5724107314
 30
0.0
  0
VERTEX
  5
51C
  8
0
  6
CONTINUOUS
 62
     7
 10
1330.3463670519
 20
1753.3227993537
 30
0.0
  0
VERTEX
  5
51D
  8
0
  6
CONTINUOUS
 62
     7
 10
1328.6188977864
 20
1752.0275010158
 30
0.0
  0
VERTEX
  5
51E
  8
0
  6
CONTINUOUS
 62
     7
 10
1327.507010391
 20
1751.1282159377
 30
0.0
  0
VERTEX
  5
51F
  8
0
  6
CONTINUOUS
 62
     7
 10
1326.4262962249
 20
1750.2011550952
 30
0.0
  0
VERTEX
  5
520
  8
0
  6
CONTINUOUS
 62
     7
 10
1325.3762411979
 20
1749.24685493
 30
0.0
  0
VERTEX
  5
521
  8
0
  6
CONTINUOUS
 62
     7
 10
1324.3587601092
 20
1748.2680870582
 30
0.0
  0
VERTEX
  5
522
  8
0
  6
CONTINUOUS
 62
     7
 10
1323.3749481943
 20
1747.2668184329
 30
0.0
  0
VERTEX
  5
523
  8
0
  6
CONTINUOUS
 62
     7
 10
1322.4734800961
 20
1746.2975276996
 30
0.0
  0
VERTEX
  5
524
  8
0
  6
CONTINUOUS
 62
     7
 10
1321.6876003053
 20
1745.4082263995
 30
0.0
  0
VERTEX
  5
525
  8
0
  6
CONTINUOUS
 62
     7
 10
1321.0090684798
 20
1744.6041597415
 30
0.0
  0
VERTEX
  5
526
  8
0
  6
CONTINUOUS
 62
     7
 10
1320.4304489401
 20
1743.8895894576
 30
0.0
  0
VERTEX
  5
527
  8
0
  6
CONTINUOUS
 62
     7
 10
1319.9447157886
 20
1743.2674659778
 30
0.0
  0
VERTEX
  5
528
  8
0
  6
CONTINUOUS
 62
     7
 10
1319.5455062297
 20
1742.7396668483
 30
0.0
  0
VERTEX
  5
529
  8
0
  6
CONTINUOUS
 62
     7
 10
1319.2281189468
 20
1742.3086954643
 30
0.0
  0
VERTEX
  5
52A
  8
0
  6
CONTINUOUS
 62
     7
 10
1319.0414670017
 20
1742.0502497245
 30
0.0
  0
VERTEX
  5
52B
  8
0
  6
CONTINUOUS
 62
     7
 10
1318.8905629423
 20
1741.8384744216
 30
0.0
  0
VERTEX
  5
52C
  8
0
  6
CONTINUOUS
 62
     7
 10
1318.7159809377
 20
1741.5902806808
 30
0.0
  0
VERTEX
  5
52D
  8
0
  6
CONTINUOUS
 62
     7
 10
1318.5052040127
 20
1741.2857903529
 30
0.0
  0
VERTEX
  5
52E
  8
0
  6
CONTINUOUS
 62
     7
 10
1318.3423864749
 20
1741.0468651344
 30
0.0
  0
VERTEX
  5
52F
  8
0
  6
CONTINUOUS
 62
     7
 10
1318.1341576484
 20
1740.7363249351
 30
0.0
  0
VERTEX
  5
530
  8
0
  6
CONTINUOUS
 62
     7
 10
1317.8751829174
 20
1740.3418017913
 30
0.0
  0
VERTEX
  5
531
  8
0
  6
CONTINUOUS
 62
     7
 10
1317.5675558951
 20
1739.859957843
 30
0.0
  0
VERTEX
  5
532
  8
0
  6
CONTINUOUS
 62
     7
 10
1317.2150465753
 20
1739.288855939
 30
0.0
  0
VERTEX
  5
533
  8
0
  6
CONTINUOUS
 62
     7
 10
1316.8228480127
 20
1738.6273635913
 30
0.0
  0
VERTEX
  5
534
  8
0
  6
CONTINUOUS
 62
     7
 10
1316.3094210532
 20
1737.7139522125
 30
0.0
  0
VERTEX
  5
535
  8
0
  6
CONTINUOUS
 62
     7
 10
1315.7623472717
 20
1736.6705431033
 30
0.0
  0
VERTEX
  5
536
  8
0
  6
CONTINUOUS
 62
     7
 10
1315.1933091786
 20
1735.4930831481
 30
0.0
  0
VERTEX
  5
537
  8
0
  6
CONTINUOUS
 62
     7
 10
1314.6164777782
 20
1734.1771914054
 30
0.0
  0
VERTEX
  5
538
  8
0
  6
CONTINUOUS
 62
     7
 10
1314.0477898624
 20
1732.7178312827
 30
0.0
  0
VERTEX
  5
539
  8
0
  6
CONTINUOUS
 62
     7
 10
1313.5926338938
 20
1731.3879622508
 30
0.0
  0
VERTEX
  5
53A
  8
0
  6
CONTINUOUS
 62
     7
 10
1313.1663489249
 20
1729.9512220908
 30
0.0
  0
VERTEX
  5
53B
  8
0
  6
CONTINUOUS
 62
     7
 10
1312.7840298322
 20
1728.4135116626
 30
0.0
  0
VERTEX
  5
53C
  8
0
  6
CONTINUOUS
 62
     7
 10
1312.4600189832
 20
1726.7794503261
 30
0.0
  0
VERTEX
  5
53D
  8
0
  6
CONTINUOUS
 62
     7
 10
1312.2085469868
 20
1725.0527633716
 30
0.0
  0
VERTEX
  5
53E
  8
0
  6
CONTINUOUS
 62
     7
 10
1312.0444852021
 20
1723.2388152171
 30
0.0
  0
SEQEND
  5
D00
  8
0
  6
CONTINUOUS
 62
     7
  0
POLYLINE
  5
116
  8
0
  6
CONTINUOUS
 62
     7
 66
     1
 10
0.0
 20
0.0
 30
0.0
 70
   128
  0
VERTEX
  5
53F
  8
0
  6
CONTINUOUS
 62
     7
 10
1564.5043092873
 20
1723.2387854148
 30
0.0
  0
VERTEX
  5
540
  8
0
  6
CONTINUOUS
 62
     7
 10
1564.3380719331
 20
1725.0711216022
 30
0.0
  0
VERTEX
  5
541
  8
0
  6
CONTINUOUS
 62
     7
 10
1564.082740536
 20
1726.8142594386
 30
0.0
  0
VERTEX
  5
542
  8
0
  6
CONTINUOUS
 62
     7
 10
1563.7536930945
 20
1728.4627749015
 30
0.0
  0
VERTEX
  5
543
  8
0
  6
CONTINUOUS
 62
     7
 10
1563.3655476477
 20
1730.0128234912
 30
0.0
  0
VERTEX
  5
544
  8
0
  6
CONTINUOUS
 62
     7
 10
1562.9331904557
 20
1731.4594580222
 30
0.0
  0
VERTEX
  5
545
  8
0
  6
CONTINUOUS
 62
     7
 10
1562.4720144179
 20
1732.7970458556
 30
0.0
  0
VERTEX
  5
546
  8
0
  6
CONTINUOUS
 62
     7
 10
1561.8965166714
 20
1734.2631115009
 30
0.0
  0
VERTEX
  5
547
  8
0
  6
CONTINUOUS
 62
     7
 10
1561.3137695101
 20
1735.5830861617
 30
0.0
  0
VERTEX
  5
548
  8
0
  6
CONTINUOUS
 62
     7
 10
1560.7400897053
 20
1736.7620660354
 30
0.0
  0
VERTEX
  5
549
  8
0
  6
CONTINUOUS
 62
     7
 10
1560.1898643282
 20
1737.8046406795
 30
0.0
  0
VERTEX
  5
54A
  8
0
  6
CONTINUOUS
 62
     7
 10
1559.6752378252
 20
1738.7145651866
 30
0.0
  0
VERTEX
  5
54B
  8
0
  6
CONTINUOUS
 62
     7
 10
1559.2838215735
 20
1739.3710507442
 30
0.0
  0
VERTEX
  5
54C
  8
0
  6
CONTINUOUS
 62
     7
 10
1558.9337262419
 20
1739.9353577186
 30
0.0
  0
VERTEX
  5
54D
  8
0
  6
CONTINUOUS
 62
     7
 10
1558.6300927308
 20
1740.408797412
 30
0.0
  0
VERTEX
  5
54E
  8
0
  6
CONTINUOUS
 62
     7
 10
1558.3409953025
 20
1740.8468021442
 30
0.0
  0
VERTEX
  5
54F
  8
0
  6
CONTINUOUS
 62
     7
 10
1558.1220450905
 20
1741.1710812141
 30
0.0
  0
VERTEX
  5
550
  8
0
  6
CONTINUOUS
 62
     7
 10
1557.9452502635
 20
1741.4285136749
 30
0.0
  0
VERTEX
  5
551
  8
0
  6
CONTINUOUS
 62
     7
 10
1557.7900621202
 20
1741.6513754417
 30
0.0
  0
VERTEX
  5
552
  8
0
  6
CONTINUOUS
 62
     7
 10
1557.6571139601
 20
1741.8400539447
 30
0.0
  0
VERTEX
  5
553
  8
0
  6
CONTINUOUS
 62
     7
 10
1557.5024324563
 20
1742.0570744563
 30
0.0
  0
VERTEX
  5
554
  8
0
  6
CONTINUOUS
 62
     7
 10
1557.3098200467
 20
1742.3235966255
 30
0.0
  0
VERTEX
  5
555
  8
0
  6
CONTINUOUS
 62
     7
 10
1557.0712673571
 20
1742.6482333232
 30
0.0
  0
VERTEX
  5
556
  8
0
  6
CONTINUOUS
 62
     7
 10
1556.6768485215
 20
1743.1723965694
 30
0.0
  0
VERTEX
  5
557
  8
0
  6
CONTINUOUS
 62
     7
 10
1556.1921137479
 20
1743.7964572002
 30
0.0
  0
VERTEX
  5
558
  8
0
  6
CONTINUOUS
 62
     7
 10
1555.6104692724
 20
1744.5182694484
 30
0.0
  0
VERTEX
  5
559
  8
0
  6
CONTINUOUS
 62
     7
 10
1554.9243229535
 20
1745.3349126865
 30
0.0
  0
VERTEX
  5
55A
  8
0
  6
CONTINUOUS
 62
     7
 10
1554.2168977764
 20
1746.1404992629
 30
0.0
  0
VERTEX
  5
55B
  8
0
  6
CONTINUOUS
 62
     7
 10
1553.4135538247
 20
1747.0141543437
 30
0.0
  0
VERTEX
  5
55C
  8
0
  6
CONTINUOUS
 62
     7
 10
1552.5248038676
 20
1747.9337646056
 30
0.0
  0
VERTEX
  5
55D
  8
0
  6
CONTINUOUS
 62
     7
 10
1551.6035395768
 20
1748.8390995551
 30
0.0
  0
VERTEX
  5
55E
  8
0
  6
CONTINUOUS
 62
     7
 10
1550.6542685535
 20
1749.7248245765
 30
0.0
  0
VERTEX
  5
55F
  8
0
  6
CONTINUOUS
 62
     7
 10
1549.6787491348
 20
1750.5885256816
 30
0.0
  0
VERTEX
  5
560
  8
0
  6
CONTINUOUS
 62
     7
 10
1548.6773463991
 20
1751.4291001846
 30
0.0
  0
VERTEX
  5
561
  8
0
  6
CONTINUOUS
 62
     7
 10
1547.6495537069
 20
1752.2461606551
 30
0.0
  0
VERTEX
  5
562
  8
0
  6
CONTINUOUS
 62
     7
 10
1545.6715586689
 20
1753.6975635578
 30
0.0
  0
VERTEX
  5
563
  8
0
  6
CONTINUOUS
 62
     7
 10
1543.561710706
 20
1755.0840271999
 30
0.0
  0
VERTEX
  5
564
  8
0
  6
CONTINUOUS
 62
     7
 10
1541.3733559754
 20
1756.3593579818
 30
0.0
  0
VERTEX
  5
565
  8
0
  6
CONTINUOUS
 62
     7
 10
1539.1193988827
 20
1757.5155092765
 30
0.0
  0
VERTEX
  5
566
  8
0
  6
CONTINUOUS
 62
     7
 10
1537.6775625255
 20
1758.1761373569
 30
0.0
  0
VERTEX
  5
567
  8
0
  6
CONTINUOUS
 62
     7
 10
1536.2215551641
 20
1758.7827040244
 30
0.0
  0
VERTEX
  5
568
  8
0
  6
CONTINUOUS
 62
     7
 10
1534.7515705135
 20
1759.3364311744
 30
0.0
  0
VERTEX
  5
569
  8
0
  6
CONTINUOUS
 62
     7
 10
1533.2763928082
 20
1759.8346365978
 30
0.0
  0
VERTEX
  5
56A
  8
0
  6
CONTINUOUS
 62
     7
 10
1531.8555000332
 20
1760.2611376334
 30
0.0
  0
VERTEX
  5
56B
  8
0
  6
CONTINUOUS
 62
     7
 10
1530.3231242206
 20
1760.663498788
 30
0.0
  0
VERTEX
  5
56C
  8
0
  6
CONTINUOUS
 62
     7
 10
1528.8818615582
 20
1760.9882248927
 30
0.0
  0
VERTEX
  5
56D
  8
0
  6
CONTINUOUS
 62
     7
 10
1527.5351020601
 20
1761.2452699233
 30
0.0
  0
VERTEX
  5
56E
  8
0
  6
CONTINUOUS
 62
     7
 10
1526.2858930137
 20
1761.4440514137
 30
0.0
  0
VERTEX
  5
56F
  8
0
  6
CONTINUOUS
 62
     7
 10
1525.1369166281
 20
1761.5934802581
 30
0.0
  0
VERTEX
  5
570
  8
0
  6
CONTINUOUS
 62
     7
 10
1524.257725766
 20
1761.686374097
 30
0.0
  0
VERTEX
  5
571
  8
0
  6
CONTINUOUS
 62
     7
 10
1523.4510067013
 20
1761.7552770664
 30
0.0
  0
VERTEX
  5
572
  8
0
  6
CONTINUOUS
 62
     7
 10
1522.7131682542
 20
1761.8065072585
 30
0.0
  0
VERTEX
  5
573
  8
0
  6
CONTINUOUS
 62
     7
 10
1522.1586513427
 20
1761.8545187999
 30
0.0
  0
VERTEX
  5
574
  8
0
  6
CONTINUOUS
 62
     7
 10
1521.585165253
 20
1761.9109345962
 30
0.0
  0
VERTEX
  5
575
  8
0
  6
CONTINUOUS
 62
     7
 10
1520.99136143
 20
1761.9613601257
 30
0.0
  0
VERTEX
  5
576
  8
0
  6
CONTINUOUS
 62
     7
 10
1520.3765693214
 20
1761.9854702045
 30
0.0
  0
SEQEND
  5
D01
  8
0
  6
CONTINUOUS
 62
     7
  0
ARC
  5
117
  8
0
  6
CONTINUOUS
 62
     7
 10
1322.142087569
 20
1645.1928339613
 30
0.0
 40
5.004369186089863
 50
129.7443436234
 51
155.9339269412
  0
ARC
  5
118
  8
0
  6
CONTINUOUS
 62
     7
 10
1554.3899703098
 20
1645.1801481912
 30
0.0
 40
5.024826361500618
 50
24.1203269135
 51
50.2014025219
  0
ARC
  5
119
  8
0
  6
CONTINUOUS
 62
     7
 10
1549.5634561312
 20
1639.1714522186
 30
0.0
 40
12.73145729363709
 50
50.8220311956
 51
73.2426377903
  0
ARC
  5
11A
  8
0
  6
CONTINUOUS
 62
     7
 10
1327.2626525145
 20
1638.6936268618
 30
0.0
 40
13.27733383924512
 50
102.2571349447
 51
128.803023003
  0
ARC
  5
11B
  8
0
  6
CONTINUOUS
 62
     7
 10
1330.7065037717
 20
1640.2859185097
 30
0.0
 40
14.85819943104162
 50
152.121587703
 51
162.4238380488
  0
ARC
  5
11C
  8
0
  6
CONTINUOUS
 62
     7
 10
1545.9722115667
 20
1640.3403382944
 30
0.0
 40
14.71791586888171
 50
17.5269294664
 51
27.9276447818
  0
ARC
  5
11D
  8
0
  6
CONTINUOUS
 62
     7
 10
1643.3988080319
 20
1242.966352702
 30
0.0
 40
11.21730055638645
 50
141.2003548713
 51
183.245152745
  0
ARC
  5
11E
  8
0
  6
CONTINUOUS
 62
     7
 10
1233.1355880043
 20
1242.9617361711
 30
0.0
 40
11.23141589691964
 50
356.7825181923
 51
38.7719741915
  0
POLYLINE
  5
11F
  8
0
  6
CONTINUOUS
 62
     7
 66
     1
 10
0.0
 20
0.0
 30
0.0
 70
   128
  0
VERTEX
  5
577
  8
0
  6
CONTINUOUS
 62
     7
 10
1627.4128097203
 20
1301.9888965775
 30
0.0
  0
VERTEX
  5
578
  8
0
  6
CONTINUOUS
 62
     7
 10
1627.0216393378
 20
1302.0165680338
 30
0.0
  0
VERTEX
  5
579
  8
0
  6
CONTINUOUS
 62
     7
 10
1626.595406523
 20
1302.0844130207
 30
0.0
  0
VERTEX
  5
57A
  8
0
  6
CONTINUOUS
 62
     7
 10
1626.1351245549
 20
1302.2052316357
 30
0.0
  0
VERTEX
  5
57B
  8
0
  6
CONTINUOUS
 62
     7
 10
1625.6606417802
 20
1302.3820711662
 30
0.0
  0
VERTEX
  5
57C
  8
0
  6
CONTINUOUS
 62
     7
 10
1625.254898062
 20
1302.5752200176
 30
0.0
  0
VERTEX
  5
57D
  8
0
  6
CONTINUOUS
 62
     7
 10
1624.9272960332
 20
1302.7607543756
 30
0.0
  0
VERTEX
  5
57E
  8
0
  6
CONTINUOUS
 62
     7
 10
1624.67509388
 20
1302.9225735356
 30
0.0
  0
VERTEX
  5
57F
  8
0
  6
CONTINUOUS
 62
     7
 10
1624.4685339835
 20
1303.068075924
 30
0.0
  0
VERTEX
  5
580
  8
0
  6
CONTINUOUS
 62
     7
 10
1624.2698120978
 20
1303.2195909311
 30
0.0
  0
VERTEX
  5
581
  8
0
  6
CONTINUOUS
 62
     7
 10
1624.0787047055
 20
1303.3765001584
 30
0.0
  0
VERTEX
  5
582
  8
0
  6
CONTINUOUS
 62
     7
 10
1623.9201414492
 20
1303.5154013325
 30
0.0
  0
VERTEX
  5
583
  8
0
  6
CONTINUOUS
 62
     7
 10
1623.7158316281
 20
1303.7065161754
 30
0.0
  0
VERTEX
  5
584
  8
0
  6
CONTINUOUS
 62
     7
 10
1623.4581607487
 20
1303.9683295776
 30
0.0
  0
VERTEX
  5
585
  8
0
  6
CONTINUOUS
 62
     7
 10
1623.1527912524
 20
1304.3114288141
 30
0.0
  0
VERTEX
  5
586
  8
0
  6
CONTINUOUS
 62
     7
 10
1622.8074419406
 20
1304.7478614737
 30
0.0
  0
VERTEX
  5
587
  8
0
  6
CONTINUOUS
 62
     7
 10
1622.4323350098
 20
1305.2905468632
 30
0.0
  0
VERTEX
  5
588
  8
0
  6
CONTINUOUS
 62
     7
 10
1622.0405089762
 20
1305.9524415423
 30
0.0
  0
VERTEX
  5
589
  8
0
  6
CONTINUOUS
 62
     7
 10
1621.6482657101
 20
1306.7454366375
 30
0.0
  0
VERTEX
  5
58A
  8
0
  6
CONTINUOUS
 62
     7
 10
1621.2754386571
 20
1307.6790912439
 30
0.0
  0
VERTEX
  5
58B
  8
0
  6
CONTINUOUS
 62
     7
 10
1621.0288542416
 20
1308.4551660706
 30
0.0
  0
SEQEND
  5
D02
  8
0
  6
CONTINUOUS
 62
     7
  0
POLYLINE
  5
120
  8
0
  6
CONTINUOUS
 62
     7
 66
     1
 10
0.0
 20
0.0
 30
0.0
 70
   128
  0
VERTEX
  5
58C
  8
0
  6
CONTINUOUS
 62
     7
 10
1255.5040705111
 20
1308.4183527519
 30
0.0
  0
VERTEX
  5
58D
  8
0
  6
CONTINUOUS
 62
     7
 10
1255.4161536601
 20
1308.109973221
 30
0.0
  0
VERTEX
  5
58E
  8
0
  6
CONTINUOUS
 62
     7
 10
1255.1248657611
 20
1307.2837932397
 30
0.0
  0
VERTEX
  5
58F
  8
0
  6
CONTINUOUS
 62
     7
 10
1254.8233556655
 20
1306.5799815942
 30
0.0
  0
VERTEX
  5
590
  8
0
  6
CONTINUOUS
 62
     7
 10
1254.5276719239
 20
1305.9910504509
 30
0.0
  0
VERTEX
  5
591
  8
0
  6
CONTINUOUS
 62
     7
 10
1254.2510616687
 20
1305.5080516626
 30
0.0
  0
VERTEX
  5
592
  8
0
  6
CONTINUOUS
 62
     7
 10
1254.0021973756
 20
1305.1186843206
 30
0.0
  0
VERTEX
  5
593
  8
0
  6
CONTINUOUS
 62
     7
 10
1253.7564027217
 20
1304.7695724655
 30
0.0
  0
VERTEX
  5
594
  8
0
  6
CONTINUOUS
 62
     7
 10
1253.5045581963
 20
1304.4436691691
 30
0.0
  0
VERTEX
  5
595
  8
0
  6
CONTINUOUS
 62
     7
 10
1253.2479005959
 20
1304.1409148265
 30
0.0
  0
VERTEX
  5
596
  8
0
  6
CONTINUOUS
 62
     7
 10
1252.9876965192
 20
1303.8611008216
 30
0.0
  0
VERTEX
  5
597
  8
0
  6
CONTINUOUS
 62
     7
 10
1252.7250784543
 20
1303.6039067794
 30
0.0
  0
VERTEX
  5
598
  8
0
  6
CONTINUOUS
 62
     7
 10
1252.4694639352
 20
1303.3759786178
 30
0.0
  0
VERTEX
  5
599
  8
0
  6
CONTINUOUS
 62
     7
 10
1252.2304493096
 20
1303.1815259148
 30
0.0
  0
VERTEX
  5
59A
  8
0
  6
CONTINUOUS
 62
     7
 10
1252.0095991996
 20
1303.0169574906
 30
0.0
  0
VERTEX
  5
59B
  8
0
  6
CONTINUOUS
 62
     7
 10
1251.8004614022
 20
1302.8738243867
 30
0.0
  0
VERTEX
  5
59C
  8
0
  6
CONTINUOUS
 62
     7
 10
1251.5386330989
 20
1302.7112452675
 30
0.0
  0
VERTEX
  5
59D
  8
0
  6
CONTINUOUS
 62
     7
 10
1251.2074845937
 20
1302.5307624031
 30
0.0
  0
VERTEX
  5
59E
  8
0
  6
CONTINUOUS
 62
     7
 10
1250.8047062066
 20
1302.3471875478
 30
0.0
  0
VERTEX
  5
59F
  8
0
  6
CONTINUOUS
 62
     7
 10
1250.3481793311
 20
1302.1849735071
 30
0.0
  0
VERTEX
  5
5A0
  8
0
  6
CONTINUOUS
 62
     7
 10
1249.7065055278
 20
1302.0400820662
 30
0.0
  0
VERTEX
  5
5A1
  8
0
  6
CONTINUOUS
 62
     7
 10
1249.1359847691
 20
1301.9888965775
 30
0.0
  0
SEQEND
  5
D03
  8
0
  6
CONTINUOUS
 62
     7
  0
ARC
  5
121
  8
0
  6
CONTINUOUS
 62
     7
 10
1638.6579023421
 20
1247.1867908385
 30
0.0
 40
4.888380138617259
 50
99.7290311104
 51
144.9362833191
  0
ARC
  5
122
  8
0
  6
CONTINUOUS
 62
     7
 10
1237.7522765144
 20
1246.9677990429
 30
0.0
 40
5.128614396688361
 50
36.1766629277
 51
79.1580226427
  0
LINE
  5
123
  8
0
  6
CONTINUOUS
 62
     7
 10
1269.273086181
 20
1626.7556889345
 30
0.0
 11
1255.5989760068
 21
1308.983144014
 31
0.0
  0
LINE
  5
124
  8
0
  6
CONTINUOUS
 62
     7
 10
1620.9497439769
 20
1308.9848650981
 30
0.0
 11
1607.2757083085
 21
1626.7556889345
 31
0.0
  0
POLYLINE
  5
125
  8
0
  6
CONTINUOUS
 62
     7
 66
     1
 10
0.0
 20
0.0
 30
0.0
 70
   128
  0
VERTEX
  5
5A2
  8
0
  6
CONTINUOUS
 62
     7
 10
1255.5994230416
 20
1308.9936046292
 30
0.0
  0
VERTEX
  5
5A3
  8
0
  6
CONTINUOUS
 62
     7
 10
1255.5669832137
 20
1308.6862905313
 30
0.0
  0
VERTEX
  5
5A4
  8
0
  6
CONTINUOUS
 62
     7
 10
1255.4930436518
 20
1308.3638145019
 30
0.0
  0
SEQEND
  5
D04
  8
0
  6
CONTINUOUS
 62
     7
  0
POLYLINE
  5
126
  8
0
  6
CONTINUOUS
 62
     7
 66
     1
 10
0.0
 20
0.0
 30
0.0
 70
   128
  0
VERTEX
  5
5A5
  8
0
  6
CONTINUOUS
 62
     7
 10
1621.0557508376
 20
1308.3638145019
 30
0.0
  0
VERTEX
  5
5A6
  8
0
  6
CONTINUOUS
 62
     7
 10
1620.9818112757
 20
1308.6862905313
 30
0.0
  0
VERTEX
  5
5A7
  8
0
  6
CONTINUOUS
 62
     7
 10
1620.9493714478
 20
1308.9936046292
 30
0.0
  0
SEQEND
  5
D05
  8
0
  6
CONTINUOUS
 62
     7
  0
POLYLINE
  5
127
  8
0
  6
CONTINUOUS
 62
     7
 66
     1
 10
0.0
 20
0.0
 30
0.0
 70
   128
  0
VERTEX
  5
5A8
  8
0
  6
CONTINUOUS
 62
     7
 10
1271.3813769725
 20
1668.920983224
 30
0.0
  0
VERTEX
  5
5A9
  8
0
  6
CONTINUOUS
 62
     7
 10
1271.3555085566
 20
1668.4020353843
 30
0.0
  0
VERTEX
  5
5AA
  8
0
  6
CONTINUOUS
 62
     7
 10
1271.3165122178
 20
1667.6105453063
 30
0.0
  0
VERTEX
  5
5AB
  8
0
  6
CONTINUOUS
 62
     7
 10
1271.2690818217
 20
1666.6419102241
 30
0.0
  0
VERTEX
  5
5AC
  8
0
  6
CONTINUOUS
 62
     7
 10
1271.2126809266
 20
1665.4961301376
 30
0.0
  0
VERTEX
  5
5AD
  8
0
  6
CONTINUOUS
 62
     7
 10
1271.1466687825
 20
1664.1732646514
 30
0.0
  0
VERTEX
  5
5AE
  8
0
  6
CONTINUOUS
 62
     7
 10
1271.0706579592
 20
1662.6732243587
 30
0.0
  0
VERTEX
  5
5AF
  8
0
  6
CONTINUOUS
 62
     7
 10
1270.9857809451
 20
1661.0125793506
 30
0.0
  0
VERTEX
  5
5B0
  8
0
  6
CONTINUOUS
 62
     7
 10
1270.8936321643
 20
1659.2128469039
 30
0.0
  0
VERTEX
  5
5B1
  8
0
  6
CONTINUOUS
 62
     7
 10
1270.7943308261
 20
1657.2741164256
 30
0.0
  0
VERTEX
  5
5B2
  8
0
  6
CONTINUOUS
 62
     7
 10
1270.6879812386
 20
1655.1963879157
 30
0.0
  0
VERTEX
  5
5B3
  8
0
  6
CONTINUOUS
 62
     7
 10
1270.5607402232
 20
1652.7042283107
 30
0.0
  0
VERTEX
  5
5B4
  8
0
  6
CONTINUOUS
 62
     7
 10
1270.4251247552
 20
1650.0376059104
 30
0.0
  0
VERTEX
  5
5B5
  8
0
  6
CONTINUOUS
 62
     7
 10
1270.2814775613
 20
1647.1964015056
 30
0.0
  0
VERTEX
  5
5B6
  8
0
  6
CONTINUOUS
 62
     7
 10
1270.1301115659
 20
1644.1805554916
 30
0.0
  0
VERTEX
  5
5B7
  8
0
  6
CONTINUOUS
 62
     7
 10
1269.9713545945
 20
1640.9899486591
 30
0.0
  0
VERTEX
  5
5B8
  8
0
  6
CONTINUOUS
 62
     7
 10
1269.8085445073
 20
1637.6860930015
 30
0.0
  0
VERTEX
  5
5B9
  8
0
  6
CONTINUOUS
 62
     7
 10
1269.6390885022
 20
1634.2133177806
 30
0.0
  0
VERTEX
  5
5BA
  8
0
  6
CONTINUOUS
 62
     7
 10
1269.4624948409
 20
1630.5713845779
 30
0.0
  0
VERTEX
  5
5BB
  8
0
  6
CONTINUOUS
 62
     7
 10
1269.277899256
 20
1626.7601294805
 30
0.0
  0
SEQEND
  5
D06
  8
0
  6
CONTINUOUS
 62
     7
  0
POLYLINE
  5
128
  8
0
  6
CONTINUOUS
 62
     7
 66
     1
 10
0.0
 20
0.0
 30
0.0
 70
   128
  0
VERTEX
  5
5BC
  8
0
  6
CONTINUOUS
 62
     7
 10
1607.2708952334
 20
1626.7601294805
 30
0.0
  0
VERTEX
  5
5BD
  8
0
  6
CONTINUOUS
 62
     7
 10
1607.0830064919
 20
1630.6391103555
 30
0.0
  0
VERTEX
  5
5BE
  8
0
  6
CONTINUOUS
 62
     7
 10
1606.9034176972
 20
1634.3425704528
 30
0.0
  0
VERTEX
  5
5BF
  8
0
  6
CONTINUOUS
 62
     7
 10
1606.7311900761
 20
1637.8706438829
 30
0.0
  0
VERTEX
  5
5C0
  8
0
  6
CONTINUOUS
 62
     7
 10
1606.5658616927
 20
1641.2236584712
 30
0.0
  0
VERTEX
  5
5C1
  8
0
  6
CONTINUOUS
 62
     7
 10
1606.407626262
 20
1644.4017781307
 30
0.0
  0
VERTEX
  5
5C2
  8
0
  6
CONTINUOUS
 62
     7
 10
1606.2594193127
 20
1647.3530425121
 30
0.0
  0
VERTEX
  5
5C3
  8
0
  6
CONTINUOUS
 62
     7
 10
1606.1186778453
 20
1650.135834365
 30
0.0
  0
VERTEX
  5
5C4
  8
0
  6
CONTINUOUS
 62
     7
 10
1605.9857147839
 20
1652.7502728988
 30
0.0
  0
VERTEX
  5
5C5
  8
0
  6
CONTINUOUS
 62
     7
 10
1605.8608132508
 20
1655.1963879157
 30
0.0
  0
VERTEX
  5
5C6
  8
0
  6
CONTINUOUS
 62
     7
 10
1605.7717043069
 20
1656.9374991943
 30
0.0
  0
VERTEX
  5
5C7
  8
0
  6
CONTINUOUS
 62
     7
 10
1605.6874829438
 20
1658.5820509483
 30
0.0
  0
VERTEX
  5
5C8
  8
0
  6
CONTINUOUS
 62
     7
 10
1605.6081938651
 20
1660.1300729801
 30
0.0
  0
VERTEX
  5
5C9
  8
0
  6
CONTINUOUS
 62
     7
 10
1605.5339115765
 20
1661.5815950919
 30
0.0
  0
VERTEX
  5
5CA
  8
0
  6
CONTINUOUS
 62
     7
 10
1605.4647701886
 20
1662.935514598
 30
0.0
  0
VERTEX
  5
5CB
  8
0
  6
CONTINUOUS
 62
     7
 10
1605.4021257069
 20
1664.1732646514
 30
0.0
  0
VERTEX
  5
5CC
  8
0
  6
CONTINUOUS
 62
     7
 10
1605.3361135628
 20
1665.4961301376
 30
0.0
  0
VERTEX
  5
5CD
  8
0
  6
CONTINUOUS
 62
     7
 10
1605.2797126677
 20
1666.6419102241
 30
0.0
  0
VERTEX
  5
5CE
  8
0
  6
CONTINUOUS
 62
     7
 10
1605.2322822717
 20
1667.6105453063
 30
0.0
  0
VERTEX
  5
5CF
  8
0
  6
CONTINUOUS
 62
     7
 10
1605.1932859328
 20
1668.4020353843
 30
0.0
  0
VERTEX
  5
5D0
  8
0
  6
CONTINUOUS
 62
     7
 10
1605.167417517
 20
1668.9209236194
 30
0.0
  0
SEQEND
  5
D07
  8
0
  6
CONTINUOUS
 62
     7
  0
POLYLINE
  5
129
  8
0
  6
CONTINUOUS
 62
     7
 66
     1
 10
0.0
 20
0.0
 30
0.0
 70
   128
  0
VERTEX
  5
5D1
  8
0
  6
CONTINUOUS
 62
     7
 10
1637.2897165921
 20
1012.4984277774
 30
0.0
  0
VERTEX
  5
5D2
  8
0
  6
CONTINUOUS
 62
     7
 10
1634.7800332215
 20
1125.8152617503
 30
0.0
  0
VERTEX
  5
5D3
  8
0
  6
CONTINUOUS
 62
     7
 10
1632.1994948294
 20
1242.3313750316
 30
0.0
  0
SEQEND
  5
D08
  8
0
  6
CONTINUOUS
 62
     7
  0
LINE
  5
12A
  8
0
  6
CONTINUOUS
 62
     7
 10
1239.2590629962
 20
1012.4983979751
 30
0.0
 11
1239.2590629962
 21
1012.4982787658
 31
0.0
  0
LINE
  5
12B
  8
0
  6
CONTINUOUS
 62
     7
 10
1290.5514675286
 20
1251.9871933748
 30
0.0
 11
1298.3817893174
 21
1251.9871933748
 31
0.0
  0
LINE
  5
12C
  8
0
  6
CONTINUOUS
 62
     7
 10
1578.167005172
 20
1251.9871933748
 30
0.0
 11
1585.9973269608
 21
1251.9871933748
 31
0.0
  0
LINE
  5
12D
  8
0
  6
CONTINUOUS
 62
     7
 10
1298.3817893174
 20
1251.9871933748
 30
0.0
 11
1578.167005172
 21
1251.9871933748
 31
0.0
  0
LINE
  5
12E
  8
0
  6
CONTINUOUS
 62
     7
 10
1299.3535834458
 20
1301.9871978451
 30
0.0
 11
1577.1952110436
 21
1301.9871978451
 31
0.0
  0
LINE
  5
12F
  8
0
  6
CONTINUOUS
 62
     7
 10
1285.9352368024
 20
1301.9871978451
 30
0.0
 11
1299.3535834458
 21
1301.9871978451
 31
0.0
  0
LINE
  5
130
  8
0
  6
CONTINUOUS
 62
     7
 10
1577.1952110436
 20
1301.9871978451
 30
0.0
 11
1590.6135576871
 21
1301.9871978451
 31
0.0
  0
LINE
  5
131
  8
0
  6
CONTINUOUS
 62
     7
 10
1270.2108013537
 20
1011.9871987392
 30
0.0
 11
1270.9909814503
 21
1011.9871987392
 31
0.0
  0
LINE
  5
132
  8
0
  6
CONTINUOUS
 62
     7
 10
1605.5578130391
 20
1011.9871987392
 30
0.0
 11
1606.3379931357
 21
1011.9871987392
 31
0.0
  0
LINE
  5
133
  8
0
  6
CONTINUOUS
 62
     7
 10
1255.0580936578
 20
1011.9871987392
 30
0.0
 11
1270.2108013537
 21
1011.9871987392
 31
0.0
  0
LINE
  5
134
  8
0
  6
CONTINUOUS
 62
     7
 10
1606.3379931357
 20
1011.9871987392
 30
0.0
 11
1621.4907008317
 21
1011.9871987392
 31
0.0
  0
LINE
  5
135
  8
0
  6
CONTINUOUS
 62
     7
 10
1270.9909814503
 20
1011.9871987392
 30
0.0
 11
1285.5698156264
 21
1011.9871987392
 31
0.0
  0
LINE
  5
136
  8
0
  6
CONTINUOUS
 62
     7
 10
1605.5578130391
 20
1011.9871987392
 30
0.0
 11
1590.9790086654
 21
1011.9871987392
 31
0.0
  0
LINE
  5
137
  8
0
  6
CONTINUOUS
 62
     7
 10
1265.5450391677
 20
1301.9871978451
 30
0.0
 11
1285.9352368024
 21
1301.9871978451
 31
0.0
  0
LINE
  5
138
  8
0
  6
CONTINUOUS
 62
     7
 10
1590.6135576871
 20
1301.9871978451
 30
0.0
 11
1611.0037553218
 21
1301.9871978451
 31
0.0
  0
LINE
  5
139
  8
0
  6
CONTINUOUS
 62
     7
 10
1239.905400863
 20
1011.9871987392
 30
0.0
 11
1255.0580936578
 21
1011.9871987392
 31
0.0
  0
LINE
  5
13A
  8
0
  6
CONTINUOUS
 62
     7
 10
1621.4907008317
 20
1011.9871987392
 30
0.0
 11
1636.6433936265
 21
1011.9871987392
 31
0.0
  0
POLYLINE
  5
13B
  8
0
  6
CONTINUOUS
 62
     7
 66
     1
 10
0.0
 20
0.0
 30
0.0
 70
   128
  0
VERTEX
  5
5D4
  8
0
  6
CONTINUOUS
 62
     7
 10
1566.2976342347
 20
1626.7555399228
 30
0.0
  0
VERTEX
  5
5D5
  8
0
  6
CONTINUOUS
 62
     7
 10
1566.2950116303
 20
1626.7567469169
 30
0.0
  0
VERTEX
  5
5D6
  8
0
  6
CONTINUOUS
 62
     7
 10
1566.2923443225
 20
1626.7588479806
 30
0.0
  0
VERTEX
  5
5D7
  8
0
  6
CONTINUOUS
 62
     7
 10
1566.2868308928
 20
1626.7658068229
 30
0.0
  0
VERTEX
  5
5D8
  8
0
  6
CONTINUOUS
 62
     7
 10
1566.2751632836
 20
1626.7906321575
 30
0.0
  0
VERTEX
  5
5D9
  8
0
  6
CONTINUOUS
 62
     7
 10
1566.249220362
 20
1626.8839283277
 30
0.0
  0
VERTEX
  5
5DA
  8
0
  6
CONTINUOUS
 62
     7
 10
1566.1868441012
 20
1627.2451920797
 30
0.0
  0
VERTEX
  5
5DB
  8
0
  6
CONTINUOUS
 62
     7
 10
1566.0202193167
 20
1628.6663307239
 30
0.0
  0
VERTEX
  5
5DC
  8
0
  6
CONTINUOUS
 62
     7
 10
1565.519391289
 20
1634.3030525733
 30
0.0
  0
VERTEX
  5
5DD
  8
0
  6
CONTINUOUS
 62
     7
 10
1564.9305570033
 20
1641.873140483
 30
0.0
  0
SEQEND
  5
D09
  8
0
  6
CONTINUOUS
 62
     7
  0
ARC
  5
13C
  8
0
  6
CONTINUOUS
 62
     7
 10
1111.1420665976
 20
1652.3676022163
 30
0.0
 40
200.7506633144654
 50
352.6696849164
 51
357.0034342161
  0
LINE
  5
13D
  8
0
  6
CONTINUOUS
 62
     7
 10
1356.4247253444
 20
1761.9863642742
 30
0.0
 11
1340.1072981861
 21
1761.9863642742
 31
0.0
  0
LINE
  5
13E
  8
0
  6
CONTINUOUS
 62
     7
 10
1520.1013225224
 20
1761.9863642742
 30
0.0
 11
1520.3771132138
 21
1761.9792117168
 31
0.0
  0
LINE
  5
13F
  8
0
  6
CONTINUOUS
 62
     7
 10
1520.124069145
 20
1761.9863642742
 30
0.0
 11
1536.4414963033
 21
1761.9863642742
 31
0.0
  0
LINE
  5
140
  8
0
  6
CONTINUOUS
 62
     7
 10
1245.1548713353
 20
1301.9871978451
 30
0.0
 11
1265.5450391677
 21
1301.9871978451
 31
0.0
  0
LINE
  5
141
  8
0
  6
CONTINUOUS
 62
     7
 10
1611.0037553218
 20
1301.9871978451
 30
0.0
 11
1631.3939231541
 21
1301.9871978451
 31
0.0
  0
ARC
  5
142
  8
0
  6
CONTINUOUS
 62
     7
 10
1552.1079548418
 20
1635.6021930749
 30
0.0
 40
16.37960091346027
 50
66.3582685079
 51
88.0110223406
  0
ARC
  5
143
  8
0
  6
CONTINUOUS
 62
     7
 10
1554.0297143418
 20
1640.6862206659
 30
0.0
 40
10.95514996458394
 50
22.9338202895
 51
64.9025402314
  0
ARC
  5
144
  8
0
  6
CONTINUOUS
 62
     7
 10
1322.5193840895
 20
1640.6859279902
 30
0.0
 40
10.95554392886161
 50
115.0982500238
 51
157.0653894553
  0
ARC
  5
145
  8
0
  6
CONTINUOUS
 62
     7
 10
1324.6951377262
 20
1634.4842826854
 30
0.0
 40
17.50698825163685
 50
92.6937640659
 51
112.9369450856
  0
ARC
  5
146
  8
0
  6
CONTINUOUS
 62
     7
 10
1323.075311262
 20
1640.503746191
 30
0.0
 40
11.53862124486039
 50
157.3079755703
 51
173.1841186377
  0
ARC
  5
147
  8
0
  6
CONTINUOUS
 62
     7
 10
1553.4277493507
 20
1640.4917020921
 30
0.0
 40
11.58546312930881
 50
6.8481819313
 51
22.6597238607
  0
LINE
  5
148
  8
0
  6
CONTINUOUS
 62
     7
 10
1239.905400863
 20
1011.9871987392
 30
0.0
 11
1239.7616046574
 21
1011.9871987392
 31
0.0
  0
LINE
  5
149
  8
0
  6
CONTINUOUS
 62
     7
 10
1636.6433936265
 20
1011.9871987392
 30
0.0
 11
1636.7868918088
 21
1011.9871987392
 31
0.0
  0
LINE
  5
14A
  8
0
  6
CONTINUOUS
 62
     7
 10
1324.5219576266
 20
1651.986349969
 30
0.0
 11
1552.0268368628
 21
1651.986349969
 31
0.0
  0
LINE
  5
14B
  8
0
  6
CONTINUOUS
 62
     7
 10
1310.9378653672
 20
1705.1467193652
 30
0.0
 11
1310.9377461579
 21
1705.1466895629
 31
0.0
  0
LINE
  5
14C
  8
0
  6
CONTINUOUS
 62
     7
 10
1565.6109291222
 20
1705.1467193652
 30
0.0
 11
1565.6110483315
 21
1705.1466895629
 31
0.0
  0
LINE
  5
14D
  8
0
  6
CONTINUOUS
 62
     7
 10
1564.4922393468
 20
1723.2357157756
 30
0.0
 11
1564.4918370154
 21
1723.2380105544
 31
0.0
  0
LINE
  5
14E
  8
0
  6
CONTINUOUS
 62
     7
 10
1520.1013225224
 20
1761.9863642742
 30
0.0
 11
1356.447471967
 21
1761.9863642742
 31
0.0
  0
LINE
  5
14F
  8
0
  6
CONTINUOUS
 62
     7
 10
1238.8874578383
 20
1251.9871933748
 30
0.0
 11
1239.1556787398
 21
1251.9530548145
 31
0.0
  0
LINE
  5
150
  8
0
  6
CONTINUOUS
 62
     7
 10
1621.0520255473
 20
1308.3629502345
 30
0.0
 11
1621.0252928641
 21
1308.4540782858
 31
0.0
  0
LINE
  5
151
  8
0
  6
CONTINUOUS
 62
     7
 10
1255.5123257544
 20
1308.4159685661
 30
0.0
 11
1255.4967689421
 21
1308.3629502345
 31
0.0
  0
LINE
  5
152
  8
0
  6
CONTINUOUS
 62
     7
 10
1640.3508025315
 20
1253.0371440936
 30
0.0
 11
1637.9508066085
 21
1301.0371370603
 31
0.0
  0
LINE
  5
153
  8
0
  6
CONTINUOUS
 62
     7
 10
1238.597987881
 20
1301.0371370603
 30
0.0
 11
1236.1979919579
 21
1253.0371440936
 31
0.0
  0
ARC
  5
154
  8
0
  6
CONTINUOUS
 62
     7
 10
1636.9520475021
 20
1300.987200396
 30
0.0
 40
1.000000000000043
 50
2.8624052261
 51
90.0
  0
LINE
  5
155
  8
0
  6
CONTINUOUS
 62
     7
 10
1631.3939231541
 20
1301.9871978451
 30
0.0
 11
1636.9520413783
 21
1301.9871978451
 31
0.0
  0
ARC
  5
156
  8
0
  6
CONTINUOUS
 62
     7
 10
1239.5967469874
 20
1300.987200396
 30
0.0
 40
0.9999999999990905
 50
90.0
 51
177.1375947964
  0
LINE
  5
157
  8
0
  6
CONTINUOUS
 62
     7
 10
1239.5967531112
 20
1301.9871978451
 30
0.0
 11
1245.1548713353
 21
1301.9871978451
 31
0.0
  0
LINE
  5
158
  8
0
  6
CONTINUOUS
 62
     7
 10
1269.273086181
 20
1626.7555399228
 30
0.0
 11
1269.2823398021
 21
1626.7601294805
 31
0.0
  0
LINE
  5
159
  8
0
  6
CONTINUOUS
 62
     7
 10
1607.2757083085
 20
1626.7555399228
 30
0.0
 11
1607.2664546874
 21
1626.7601294805
 31
0.0
  0
ARC
  5
15A
  8
0
  6
CONTINUOUS
 62
     7
 10
1639.3520475021
 20
1252.987200396
 30
0.0
 40
1.0
 50
269.9999999999
 51
2.8624052261
  0
LINE
  5
15B
  8
0
  6
CONTINUOUS
 62
     7
 10
1637.6613366511
 20
1251.9871933748
 30
0.0
 11
1639.3520522025
 21
1251.9871933748
 31
0.0
  0
LINE
  5
15C
  8
0
  6
CONTINUOUS
 62
     7
 10
1237.1967422869
 20
1251.9871933748
 30
0.0
 11
1238.8874578383
 21
1251.9871933748
 31
0.0
  0
ARC
  5
15D
  8
0
  6
CONTINUOUS
 62
     7
 10
1237.1967469874
 20
1252.987200396
 30
0.0
 40
1.000000000000258
 50
177.137594775
 51
270.0
  0
POLYLINE
  5
15E
  8
0
  6
CONTINUOUS
 62
     7
 66
     1
 10
0.0
 20
0.0
 30
0.0
 70
   128
  0
VERTEX
  5
5DE
  8
0
  6
CONTINUOUS
 62
     7
 10
1600.8466768172
 20
1755.3359164287
 30
0.0
  0
VERTEX
  5
5DF
  8
0
  6
CONTINUOUS
 62
     7
 10
1600.8503425029
 20
1755.2627219249
 30
0.0
  0
VERTEX
  5
5E0
  8
0
  6
CONTINUOUS
 62
     7
 10
1600.8613097575
 20
1755.0433768321
 30
0.0
  0
VERTEX
  5
5E1
  8
0
  6
CONTINUOUS
 62
     7
 10
1600.8795785811
 20
1754.6778811504
 30
0.0
  0
VERTEX
  5
5E2
  8
0
  6
CONTINUOUS
 62
     7
 10
1600.9051638749
 20
1754.1662646819
 30
0.0
  0
VERTEX
  5
5E3
  8
0
  6
CONTINUOUS
 62
     7
 10
1600.9380507376
 20
1753.5085274268
 30
0.0
  0
VERTEX
  5
5E4
  8
0
  6
CONTINUOUS
 62
     7
 10
1600.9782391694
 20
1752.7046693851
 30
0.0
  0
VERTEX
  5
5E5
  8
0
  6
CONTINUOUS
 62
     7
 10
1601.0170864966
 20
1751.9277228404
 30
0.0
  0
VERTEX
  5
5E6
  8
0
  6
CONTINUOUS
 62
     7
 10
1601.0604935792
 20
1751.0596109916
 30
0.0
  0
VERTEX
  5
5E7
  8
0
  6
CONTINUOUS
 62
     7
 10
1601.1084604171
 20
1750.1003040363
 30
0.0
  0
VERTEX
  5
5E8
  8
0
  6
CONTINUOUS
 62
     7
 10
1601.1609870103
 20
1749.0498317767
 30
0.0
  0
VERTEX
  5
5E9
  8
0
  6
CONTINUOUS
 62
     7
 10
1601.2180584576
 20
1747.9081644107
 30
0.0
  0
VERTEX
  5
5EA
  8
0
  6
CONTINUOUS
 62
     7
 10
1601.2797045615
 20
1746.6753317405
 30
0.0
  0
VERTEX
  5
5EB
  8
0
  6
CONTINUOUS
 62
     7
 10
1601.3459104207
 20
1745.3513039638
 30
0.0
  0
VERTEX
  5
5EC
  8
0
  6
CONTINUOUS
 62
     7
 10
1601.4116543439
 20
1744.0362466861
 30
0.0
  0
VERTEX
  5
5ED
  8
0
  6
CONTINUOUS
 62
     7
 10
1601.4801251796
 20
1742.667068391
 30
0.0
  0
VERTEX
  5
5EE
  8
0
  6
CONTINUOUS
 62
     7
 10
1601.5512782243
 20
1741.2437690784
 30
0.0
  0
VERTEX
  5
5EF
  8
0
  6
CONTINUOUS
 62
     7
 10
1601.6259777453
 20
1739.7498978664
 30
0.0
  0
VERTEX
  5
5F0
  8
0
  6
CONTINUOUS
 62
     7
 10
1601.7026144173
 20
1738.2171346237
 30
0.0
  0
VERTEX
  5
5F1
  8
0
  6
CONTINUOUS
 62
     7
 10
1601.7798471358
 20
1736.6725398589
 30
0.0
  0
VERTEX
  5
5F2
  8
0
  6
CONTINUOUS
 62
     7
 10
1601.8576609996
 20
1735.1161433746
 30
0.0
  0
VERTEX
  5
5F3
  8
0
  6
CONTINUOUS
 62
     7
 10
1601.9546377566
 20
1733.1766678382
 30
0.0
  0
VERTEX
  5
5F4
  8
0
  6
CONTINUOUS
 62
     7
 10
1602.0526277926
 20
1731.2168969203
 30
0.0
  0
VERTEX
  5
5F5
  8
0
  6
CONTINUOUS
 62
     7
 10
1602.1516311076
 20
1729.2367710162
 30
0.0
  0
VERTEX
  5
5F6
  8
0
  6
CONTINUOUS
 62
     7
 10
1602.2516626027
 20
1727.2363199283
 30
0.0
  0
VERTEX
  5
5F7
  8
0
  6
CONTINUOUS
 62
     7
 10
1602.3526924756
 20
1725.2155436565
 30
0.0
  0
VERTEX
  5
5F8
  8
0
  6
CONTINUOUS
 62
     7
 10
1602.4547505286
 20
1723.1744422008
 30
0.0
  0
SEQEND
  5
D0A
  8
0
  6
CONTINUOUS
 62
     7
  0
ARC
  5
15F
  8
0
  6
CONTINUOUS
 62
     7
 10
1593.8554094463
 20
1754.9863642878
 30
0.0
 40
6.999999999999318
 50
2.8624052261
 51
89.9999999999
  0
POLYLINE
  5
160
  8
0
  6
CONTINUOUS
 62
     7
 66
     1
 10
0.0
 20
0.0
 30
0.0
 70
   128
  0
VERTEX
  5
5F9
  8
0
  6
CONTINUOUS
 62
     7
 10
1271.3813769725
 20
1668.920983224
 30
0.0
  0
VERTEX
  5
5FA
  8
0
  6
CONTINUOUS
 62
     7
 10
1271.4485812094
 20
1670.265187173
 30
0.0
  0
VERTEX
  5
5FB
  8
0
  6
CONTINUOUS
 62
     7
 10
1271.5129095223
 20
1671.5518726398
 30
0.0
  0
VERTEX
  5
5FC
  8
0
  6
CONTINUOUS
 62
     7
 10
1271.5678501036
 20
1672.6506842662
 30
0.0
  0
VERTEX
  5
5FD
  8
0
  6
CONTINUOUS
 62
     7
 10
1271.6180074122
 20
1673.6535622169
 30
0.0
  0
VERTEX
  5
5FE
  8
0
  6
CONTINUOUS
 62
     7
 10
1271.6633516457
 20
1674.5604766895
 30
0.0
  0
VERTEX
  5
5FF
  8
0
  6
CONTINUOUS
 62
     7
 10
1271.6775375512
 20
1674.8442544032
 30
0.0
  0
VERTEX
  5
600
  8
0
  6
CONTINUOUS
 62
     7
 10
1271.6911870148
 20
1675.1171840717
 30
0.0
  0
VERTEX
  5
601
  8
0
  6
CONTINUOUS
 62
     7
 10
1271.7042851355
 20
1675.3792060901
 30
0.0
  0
VERTEX
  5
602
  8
0
  6
CONTINUOUS
 62
     7
 10
1271.7168468144
 20
1675.6303800632
 30
0.0
  0
VERTEX
  5
603
  8
0
  6
CONTINUOUS
 62
     7
 10
1271.7337447312
 20
1675.9683682014
 30
0.0
  0
VERTEX
  5
604
  8
0
  6
CONTINUOUS
 62
     7
 10
1271.7547702697
 20
1676.3890875865
 30
0.0
  0
VERTEX
  5
605
  8
0
  6
CONTINUOUS
 62
     7
 10
1271.7756467965
 20
1676.8064393092
 30
0.0
  0
VERTEX
  5
606
  8
0
  6
CONTINUOUS
 62
     7
 10
1271.9022321608
 20
1679.3381167938
 30
0.0
  0
VERTEX
  5
607
  8
0
  6
CONTINUOUS
 62
     7
 10
1272.0222014096
 20
1681.7375315715
 30
0.0
  0
VERTEX
  5
608
  8
0
  6
CONTINUOUS
 62
     7
 10
1272.0736253169
 20
1682.7659799148
 30
0.0
  0
VERTEX
  5
609
  8
0
  6
CONTINUOUS
 62
     7
 10
1272.1237230208
 20
1683.7681128074
 30
0.0
  0
VERTEX
  5
60A
  8
0
  6
CONTINUOUS
 62
     7
 10
1272.1725094226
 20
1684.7438408424
 30
0.0
  0
VERTEX
  5
60B
  8
0
  6
CONTINUOUS
 62
     7
 10
1272.2219514754
 20
1685.7325030853
 30
0.0
  0
VERTEX
  5
60C
  8
0
  6
CONTINUOUS
 62
     7
 10
1272.280617347
 20
1686.9059993316
 30
0.0
  0
VERTEX
  5
60D
  8
0
  6
CONTINUOUS
 62
     7
 10
1272.3386424687
 20
1688.06656137
 30
0.0
  0
VERTEX
  5
60E
  8
0
  6
CONTINUOUS
 62
     7
 10
1272.3960268405
 20
1689.2141892005
 30
0.0
  0
VERTEX
  5
60F
  8
0
  6
CONTINUOUS
 62
     7
 10
1272.4527704623
 20
1690.3488828231
 30
0.0
  0
VERTEX
  5
610
  8
0
  6
CONTINUOUS
 62
     7
 10
1272.65010654
 20
1694.2957533885
 30
0.0
  0
VERTEX
  5
611
  8
0
  6
CONTINUOUS
 62
     7
 10
1272.8392022755
 20
1698.0776382972
 30
0.0
  0
VERTEX
  5
612
  8
0
  6
CONTINUOUS
 62
     7
 10
1273.0200427678
 20
1701.6945673515
 30
0.0
  0
VERTEX
  5
613
  8
0
  6
CONTINUOUS
 62
     7
 10
1273.1926429179
 20
1705.1464809467
 30
0.0
  0
SEQEND
  5
D0B
  8
0
  6
CONTINUOUS
 62
     7
  0
POLYLINE
  5
161
  8
0
  6
CONTINUOUS
 62
     7
 66
     1
 10
0.0
 20
0.0
 30
0.0
 70
   128
  0
VERTEX
  5
614
  8
0
  6
CONTINUOUS
 62
     7
 10
1603.3561515715
 20
1705.1464809467
 30
0.0
  0
VERTEX
  5
615
  8
0
  6
CONTINUOUS
 62
     7
 10
1603.5156237986
 20
1701.9570960094
 30
0.0
  0
VERTEX
  5
616
  8
0
  6
CONTINUOUS
 62
     7
 10
1603.6821591761
 20
1698.6263288547
 30
0.0
  0
VERTEX
  5
617
  8
0
  6
CONTINUOUS
 62
     7
 10
1603.855757704
 20
1695.1541496803
 30
0.0
  0
VERTEX
  5
618
  8
0
  6
CONTINUOUS
 62
     7
 10
1604.0364491847
 20
1691.5405584861
 30
0.0
  0
VERTEX
  5
619
  8
0
  6
CONTINUOUS
 62
     7
 10
1604.2241889146
 20
1687.7855552722
 30
0.0
  0
VERTEX
  5
61A
  8
0
  6
CONTINUOUS
 62
     7
 10
1604.4028836396
 20
1684.2116905738
 30
0.0
  0
VERTEX
  5
61B
  8
0
  6
CONTINUOUS
 62
     7
 10
1604.5715647843
 20
1680.8380378772
 30
0.0
  0
VERTEX
  5
61C
  8
0
  6
CONTINUOUS
 62
     7
 10
1604.6227353719
 20
1679.8148347427
 30
0.0
  0
VERTEX
  5
61D
  8
0
  6
CONTINUOUS
 62
     7
 10
1604.6750831511
 20
1678.7677599479
 30
0.0
  0
VERTEX
  5
61E
  8
0
  6
CONTINUOUS
 62
     7
 10
1604.7286379245
 20
1677.6968432952
 30
0.0
  0
VERTEX
  5
61F
  8
0
  6
CONTINUOUS
 62
     7
 10
1604.7833698895
 20
1676.6020549823
 30
0.0
  0
VERTEX
  5
620
  8
0
  6
CONTINUOUS
 62
     7
 10
1604.833706012
 20
1675.5952431251
 30
0.0
  0
VERTEX
  5
621
  8
0
  6
CONTINUOUS
 62
     7
 10
1604.8683959153
 20
1674.9015046645
 30
0.0
  0
VERTEX
  5
622
  8
0
  6
CONTINUOUS
 62
     7
 10
1604.9141871836
 20
1673.9856196929
 30
0.0
  0
VERTEX
  5
623
  8
0
  6
CONTINUOUS
 62
     7
 10
1604.9652981665
 20
1672.9634298374
 30
0.0
  0
VERTEX
  5
624
  8
0
  6
CONTINUOUS
 62
     7
 10
1605.021728864
 20
1671.8349947025
 30
0.0
  0
VERTEX
  5
625
  8
0
  6
CONTINUOUS
 62
     7
 10
1605.0834643748
 20
1670.6002546836
 30
0.0
  0
VERTEX
  5
626
  8
0
  6
CONTINUOUS
 62
     7
 10
1605.1430690196
 20
1669.4079829742
 30
0.0
  0
VERTEX
  5
627
  8
0
  6
CONTINUOUS
 62
     7
 10
1605.1674324181
 20
1668.9209236194
 30
0.0
  0
SEQEND
  5
D0C
  8
0
  6
CONTINUOUS
 62
     7
  0
LINE
  5
162
  8
0
  6
CONTINUOUS
 62
     7
 10
1602.4547505286
 20
1723.1744422008
 30
0.0
 11
1603.3561515715
 21
1705.1464809467
 31
0.0
  0
LINE
  5
163
  8
0
  6
CONTINUOUS
 62
     7
 10
1273.1926429179
 20
1705.1464809467
 30
0.0
 11
1274.0940439608
 21
1723.1744422008
 31
0.0
  0
ARC
  5
164
  8
0
  6
CONTINUOUS
 62
     7
 10
1282.6933850431
 20
1754.9863642878
 30
0.0
 40
6.999999999999857
 50
90.0000000001
 51
177.1375947739
  0
POLYLINE
  5
165
  8
0
  6
CONTINUOUS
 62
     7
 66
     1
 10
0.0
 20
0.0
 30
0.0
 70
   128
  0
VERTEX
  5
628
  8
0
  6
CONTINUOUS
 62
     7
 10
1274.0940439608
 20
1723.1744422008
 30
0.0
  0
VERTEX
  5
629
  8
0
  6
CONTINUOUS
 62
     7
 10
1274.1956251767
 20
1725.2060069133
 30
0.0
  0
VERTEX
  5
62A
  8
0
  6
CONTINUOUS
 62
     7
 10
1274.2975044158
 20
1727.2436811019
 30
0.0
  0
VERTEX
  5
62B
  8
0
  6
CONTINUOUS
 62
     7
 10
1274.3987429049
 20
1729.2685104896
 30
0.0
  0
VERTEX
  5
62C
  8
0
  6
CONTINUOUS
 62
     7
 10
1274.4731593039
 20
1730.7568384696
 30
0.0
  0
VERTEX
  5
62D
  8
0
  6
CONTINUOUS
 62
     7
 10
1274.5466965344
 20
1732.2275532771
 30
0.0
  0
VERTEX
  5
62E
  8
0
  6
CONTINUOUS
 62
     7
 10
1274.6193545964
 20
1733.6806549121
 30
0.0
  0
VERTEX
  5
62F
  8
0
  6
CONTINUOUS
 62
     7
 10
1274.6911334899
 20
1735.1161433746
 30
0.0
  0
VERTEX
  5
630
  8
0
  6
CONTINUOUS
 62
     7
 10
1274.7689175513
 20
1736.6719140102
 30
0.0
  0
VERTEX
  5
631
  8
0
  6
CONTINUOUS
 62
     7
 10
1274.8461353686
 20
1738.2163597633
 30
0.0
  0
VERTEX
  5
632
  8
0
  6
CONTINUOUS
 62
     7
 10
1274.922801843
 20
1739.7495104362
 30
0.0
  0
VERTEX
  5
633
  8
0
  6
CONTINUOUS
 62
     7
 10
1274.9974864629
 20
1741.2434412528
 30
0.0
  0
VERTEX
  5
634
  8
0
  6
CONTINUOUS
 62
     7
 10
1275.0686395076
 20
1742.6663829376
 30
0.0
  0
VERTEX
  5
635
  8
0
  6
CONTINUOUS
 62
     7
 10
1275.1371103432
 20
1744.035680442
 30
0.0
  0
VERTEX
  5
636
  8
0
  6
CONTINUOUS
 62
     7
 10
1275.2028840688
 20
1745.3513039638
 30
0.0
  0
VERTEX
  5
637
  8
0
  6
CONTINUOUS
 62
     7
 10
1275.2773153689
 20
1746.8397809554
 30
0.0
  0
VERTEX
  5
638
  8
0
  6
CONTINUOUS
 62
     7
 10
1275.3463971522
 20
1748.2215954353
 30
0.0
  0
VERTEX
  5
639
  8
0
  6
CONTINUOUS
 62
     7
 10
1275.410159221
 20
1749.4967176009
 30
0.0
  0
VERTEX
  5
63A
  8
0
  6
CONTINUOUS
 62
     7
 10
1275.4700469878
 20
1750.69450274
 30
0.0
  0
VERTEX
  5
63B
  8
0
  6
CONTINUOUS
 62
     7
 10
1275.5238103774
 20
1751.7699195434
 30
0.0
  0
VERTEX
  5
63C
  8
0
  6
CONTINUOUS
 62
     7
 10
1275.5705553201
 20
1752.7046693851
 30
0.0
  0
VERTEX
  5
63D
  8
0
  6
CONTINUOUS
 62
     7
 10
1275.610758653
 20
1753.5086466361
 30
0.0
  0
VERTEX
  5
63E
  8
0
  6
CONTINUOUS
 62
     7
 10
1275.6436455157
 20
1754.1664434959
 30
0.0
  0
VERTEX
  5
63F
  8
0
  6
CONTINUOUS
 62
     7
 10
1275.6692308095
 20
1754.6780599643
 30
0.0
  0
VERTEX
  5
640
  8
0
  6
CONTINUOUS
 62
     7
 10
1275.6874996331
 20
1755.0435258437
 30
0.0
  0
VERTEX
  5
641
  8
0
  6
CONTINUOUS
 62
     7
 10
1275.6984668877
 20
1755.2628113319
 30
0.0
  0
VERTEX
  5
642
  8
0
  6
CONTINUOUS
 62
     7
 10
1275.7021176722
 20
1755.3359164287
 30
0.0
  0
SEQEND
  5
D0D
  8
0
  6
CONTINUOUS
 62
     7
  0
LINE
  5
166
  8
0
  6
CONTINUOUS
 62
     7
 10
1536.4414963033
 20
1761.9863642742
 30
0.0
 11
1593.8554096129
 21
1761.9863642742
 31
0.0
  0
LINE
  5
167
  8
0
  6
CONTINUOUS
 62
     7
 10
1282.6933848765
 20
1761.9863642742
 30
0.0
 11
1340.1072981861
 21
1761.9863642742
 31
0.0
  0
LINE
  5
168
  8
0
  6
CONTINUOUS
 62
     7
 10
1637.6613366511
 20
1251.9871933748
 30
0.0
 11
1637.4381619599
 21
1251.9587917615
 31
0.0
  0
LINE
  5
169
  8
0
  6
CONTINUOUS
 62
     7
 10
1605.9629011061
 20
660.8374122143
 30
0.0
 11
1605.9636461642
 21
661.4867154122
 31
0.0
  0
LINE
  5
16A
  8
0
  6
CONTINUOUS
 62
     7
 10
1552.0268368628
 20
379.3964389324
 30
0.0
 11
1552.676169863
 21
379.3957236767
 31
0.0
  0
LINE
  5
16B
  8
0
  6
CONTINUOUS
 62
     7
 10
1270.5858933833
 20
433.3325329781
 30
0.0
 11
1270.5851483252
 21
432.6831999779
 31
0.0
  0
LINE
  5
16C
  8
0
  6
CONTINUOUS
 62
     7
 10
1324.5219576266
 20
714.7734615565
 30
0.0
 11
1323.8726246264
 21
714.7742066145
 31
0.0
  0
LINE
  5
16D
  8
0
  6
CONTINUOUS
 62
     7
 10
1605.9629011061
 20
433.3325329781
 30
0.0
 11
1605.9629011061
 21
660.8374122143
 31
0.0
  0
LINE
  5
16E
  8
0
  6
CONTINUOUS
 62
     7
 10
1552.0268368628
 20
714.7734615565
 30
0.0
 11
1324.5219576266
 21
714.7734615565
 31
0.0
  0
LINE
  5
16F
  8
0
  6
CONTINUOUS
 62
     7
 10
1324.5219576266
 20
379.3964389324
 30
0.0
 11
1552.0268368628
 21
379.3964389324
 31
0.0
  0
LINE
  5
170
  8
0
  6
CONTINUOUS
 62
     7
 10
1270.5858933833
 20
660.8374122143
 30
0.0
 11
1270.5858933833
 21
433.3325329781
 31
0.0
  0
POLYLINE
  5
171
  8
0
  6
CONTINUOUS
 62
     7
 66
     1
 10
0.0
 20
0.0
 30
0.0
 70
   128
  0
VERTEX
  5
643
  8
0
  6
CONTINUOUS
 62
     7
 10
1323.8726022747
 20
379.3957236767
 30
0.0
  0
VERTEX
  5
644
  8
0
  6
CONTINUOUS
 62
     7
 10
1324.0466329363
 20
379.3960813046
 30
0.0
  0
VERTEX
  5
645
  8
0
  6
CONTINUOUS
 62
     7
 10
1324.5219576266
 20
379.3964389324
 30
0.0
  0
SEQEND
  5
D0E
  8
0
  6
CONTINUOUS
 62
     7
  0
POLYLINE
  5
172
  8
0
  6
CONTINUOUS
 62
     7
 66
     1
 10
0.0
 20
0.0
 30
0.0
 70
   128
  0
VERTEX
  5
646
  8
0
  6
CONTINUOUS
 62
     7
 10
1270.5851781276
 20
661.4867452145
 30
0.0
  0
VERTEX
  5
647
  8
0
  6
CONTINUOUS
 62
     7
 10
1270.5855208543
 20
661.3127294541
 30
0.0
  0
VERTEX
  5
648
  8
0
  6
CONTINUOUS
 62
     7
 10
1270.5858933833
 20
660.8374122143
 30
0.0
  0
SEQEND
  5
D0F
  8
0
  6
CONTINUOUS
 62
     7
  0
POLYLINE
  5
173
  8
0
  6
CONTINUOUS
 62
     7
 66
     1
 10
0.0
 20
0.0
 30
0.0
 70
   128
  0
VERTEX
  5
649
  8
0
  6
CONTINUOUS
 62
     7
 10
1552.6761922148
 20
714.7741768122
 30
0.0
  0
VERTEX
  5
64A
  8
0
  6
CONTINUOUS
 62
     7
 10
1552.5021615532
 20
714.7738340855
 30
0.0
  0
VERTEX
  5
64B
  8
0
  6
CONTINUOUS
 62
     7
 10
1552.0268368628
 20
714.7734615565
 30
0.0
  0
SEQEND
  5
D10
  8
0
  6
CONTINUOUS
 62
     7
  0
POLYLINE
  5
174
  8
0
  6
CONTINUOUS
 62
     7
 66
     1
 10
0.0
 20
0.0
 30
0.0
 70
   128
  0
VERTEX
  5
64C
  8
0
  6
CONTINUOUS
 62
     7
 10
1605.9636163619
 20
432.6831701756
 30
0.0
  0
VERTEX
  5
64D
  8
0
  6
CONTINUOUS
 62
     7
 10
1605.9632736352
 20
432.857185936
 30
0.0
  0
VERTEX
  5
64E
  8
0
  6
CONTINUOUS
 62
     7
 10
1605.9629011061
 20
433.3325329781
 30
0.0
  0
SEQEND
  5
D11
  8
0
  6
CONTINUOUS
 62
     7
  0
POLYLINE
  5
175
  8
0
  6
CONTINUOUS
 62
     7
 66
     1
 10
0.0
 20
0.0
 30
0.0
 70
   128
  0
VERTEX
  5
64F
  8
0
  6
CONTINUOUS
 62
     7
 10
1322.4180999306
 20
379.3852928639
 30
0.0
  0
VERTEX
  5
650
  8
0
  6
CONTINUOUS
 62
     7
 10
1322.8491607216
 20
379.3902400494
 30
0.0
  0
VERTEX
  5
651
  8
0
  6
CONTINUOUS
 62
     7
 10
1323.8744872716
 20
379.3957832813
 30
0.0
  0
SEQEND
  5
D12
  8
0
  6
CONTINUOUS
 62
     7
  0
POLYLINE
  5
176
  8
0
  6
CONTINUOUS
 62
     7
 66
     1
 10
0.0
 20
0.0
 30
0.0
 70
   128
  0
VERTEX
  5
652
  8
0
  6
CONTINUOUS
 62
     7
 10
1270.5747175124
 20
662.9412475586
 30
0.0
  0
VERTEX
  5
653
  8
0
  6
CONTINUOUS
 62
     7
 10
1270.5796646979
 20
662.5101867676
 30
0.0
  0
VERTEX
  5
654
  8
0
  6
CONTINUOUS
 62
     7
 10
1270.5851930287
 20
661.4848676682
 30
0.0
  0
SEQEND
  5
D13
  8
0
  6
CONTINUOUS
 62
     7
  0
POLYLINE
  5
177
  8
0
  6
CONTINUOUS
 62
     7
 66
     1
 10
0.0
 20
0.0
 30
0.0
 70
   128
  0
VERTEX
  5
655
  8
0
  6
CONTINUOUS
 62
     7
 10
1554.1306945589
 20
714.7846374273
 30
0.0
  0
VERTEX
  5
656
  8
0
  6
CONTINUOUS
 62
     7
 10
1553.6996337679
 20
714.7796902418
 30
0.0
  0
VERTEX
  5
657
  8
0
  6
CONTINUOUS
 62
     7
 10
1552.6743072179
 20
714.774161911
 30
0.0
  0
SEQEND
  5
D14
  8
0
  6
CONTINUOUS
 62
     7
  0
POLYLINE
  5
178
  8
0
  6
CONTINUOUS
 62
     7
 66
     1
 10
0.0
 20
0.0
 30
0.0
 70
   128
  0
VERTEX
  5
658
  8
0
  6
CONTINUOUS
 62
     7
 10
1605.974076977
 20
431.2286678314
 30
0.0
  0
VERTEX
  5
659
  8
0
  6
CONTINUOUS
 62
     7
 10
1605.9691297915
 20
431.6597286225
 30
0.0
  0
VERTEX
  5
65A
  8
0
  6
CONTINUOUS
 62
     7
 10
1605.9636014607
 20
432.6850477219
 30
0.0
  0
SEQEND
  5
D15
  8
0
  6
CONTINUOUS
 62
     7
  0
POLYLINE
  5
179
  8
0
  6
CONTINUOUS
 62
     7
 66
     1
 10
0.0
 20
0.0
 30
0.0
 70
   128
  0
VERTEX
  5
65B
  8
0
  6
CONTINUOUS
 62
     7
 10
1564.8886996415
 20
378.8548115254
 30
0.0
  0
VERTEX
  5
65C
  8
0
  6
CONTINUOUS
 62
     7
 10
1567.6474261191
 20
376.9088390827
 30
0.0
  0
VERTEX
  5
65D
  8
0
  6
CONTINUOUS
 62
     7
 10
1570.6491607335
 20
374.7914436817
 30
0.0
  0
VERTEX
  5
65E
  8
0
  6
CONTINUOUS
 62
     7
 10
1573.6508953479
 20
372.6740482807
 30
0.0
  0
VERTEX
  5
65F
  8
0
  6
CONTINUOUS
 62
     7
 10
1576.6526150611
 20
370.5566528797
 30
0.0
  0
VERTEX
  5
660
  8
0
  6
CONTINUOUS
 62
     7
 10
1579.6543496754
 20
368.4392574787
 30
0.0
  0
VERTEX
  5
661
  8
0
  6
CONTINUOUS
 62
     7
 10
1582.6560842898
 20
366.3218024731
 30
0.0
  0
VERTEX
  5
662
  8
0
  6
CONTINUOUS
 62
     7
 10
1585.4772764352
 20
364.331782198
 30
0.0
  0
SEQEND
  5
D16
  8
0
  6
CONTINUOUS
 62
     7
  0
POLYLINE
  5
17A
  8
0
  6
CONTINUOUS
 62
     7
 66
     1
 10
0.0
 20
0.0
 30
0.0
 70
   128
  0
VERTEX
  5
663
  8
0
  6
CONTINUOUS
 62
     7
 10
1311.6600948479
 20
715.3150889635
 30
0.0
  0
VERTEX
  5
664
  8
0
  6
CONTINUOUS
 62
     7
 10
1308.4004509356
 20
717.6144126415
 30
0.0
  0
VERTEX
  5
665
  8
0
  6
CONTINUOUS
 62
     7
 10
1304.8985886481
 20
720.084607935
 30
0.0
  0
VERTEX
  5
666
  8
0
  6
CONTINUOUS
 62
     7
 10
1301.3967263606
 20
722.5548032284
 30
0.0
  0
VERTEX
  5
667
  8
0
  6
CONTINUOUS
 62
     7
 10
1297.8948640731
 20
725.0249985218
 30
0.0
  0
VERTEX
  5
668
  8
0
  6
CONTINUOUS
 62
     7
 10
1294.3930017855
 20
727.4951938152
 30
0.0
  0
VERTEX
  5
669
  8
0
  6
CONTINUOUS
 62
     7
 10
1291.0715180543
 20
729.8381480932
 30
0.0
  0
SEQEND
  5
D17
  8
0
  6
CONTINUOUS
 62
     7
  0
LINE
  5
17B
  8
0
  6
CONTINUOUS
 62
     7
 10
1270.0233298447
 20
420.4409721852
 30
0.0
 11
1255.5212068465
 21
399.8820785046
 31
0.0
  0
LINE
  5
17C
  8
0
  6
CONTINUOUS
 62
     7
 10
1606.5254646447
 20
673.7289432049
 30
0.0
 11
1621.0275876429
 21
694.2878368855
 31
0.0
  0
LINE
  5
17D
  8
0
  6
CONTINUOUS
 62
     7
 10
1291.0715180543
 20
364.331782198
 30
0.0
 11
1311.6309332755
 21
378.8342479229
 31
0.0
  0
LINE
  5
17E
  8
0
  6
CONTINUOUS
 62
     7
 10
1255.5212068465
 20
694.2878368855
 30
0.0
 11
1270.0237023738
 21
673.7284067631
 31
0.0
  0
LINE
  5
17F
  8
0
  6
CONTINUOUS
 62
     7
 10
1585.4772764352
 20
729.8381480932
 30
0.0
 11
1564.9178612139
 21
715.335652566
 31
0.0
  0
LINE
  5
180
  8
0
  6
CONTINUOUS
 62
     7
 10
1621.0275876429
 20
399.8820785046
 30
0.0
 11
1606.5250921157
 21
420.441508627
 31
0.0
  0
LINE
  5
181
  8
0
  6
CONTINUOUS
 62
     7
 10
1278.6436813977
 20
734.5578822851
 30
0.0
 11
1264.7225695756
 21
720.6367853642
 31
0.0
  0
LINE
  5
182
  8
0
  6
CONTINUOUS
 62
     7
 10
1625.7473069337
 20
706.7156884432
 30
0.0
 11
1611.8262249139
 21
720.6367853642
 31
0.0
  0
LINE
  5
183
  8
0
  6
CONTINUOUS
 62
     7
 10
1597.9051130917
 20
359.6120480061
 30
0.0
 11
1611.8262249139
 21
373.5331300259
 31
0.0
  0
LINE
  5
184
  8
0
  6
CONTINUOUS
 62
     7
 10
1250.8014875558
 20
387.4542120457
 30
0.0
 11
1264.7225695756
 21
373.5331300259
 31
0.0
  0
LINE
  5
185
  8
0
  6
CONTINUOUS
 62
     7
 10
1611.8262249139
 20
373.5331300259
 30
0.0
 11
1625.7473069337
 21
387.4542120457
 31
0.0
  0
LINE
  5
186
  8
0
  6
CONTINUOUS
 62
     7
 10
1264.7225695756
 20
720.6367853642
 30
0.0
 11
1250.8014875558
 21
706.7156884432
 31
0.0
  0
LINE
  5
187
  8
0
  6
CONTINUOUS
 62
     7
 10
1264.7225695756
 20
373.5331300259
 30
0.0
 11
1278.6436813977
 21
359.6120480061
 31
0.0
  0
LINE
  5
188
  8
0
  6
CONTINUOUS
 62
     7
 10
1611.8262249139
 20
720.6367853642
 30
0.0
 11
1597.9051130917
 21
734.5578822851
 31
0.0
  0
ARC
  5
189
  8
0
  6
CONTINUOUS
 62
     7
 10
1578.1700439999
 20
729.1954295829
 30
0.0
 40
19.95459384666653
 50
65.6267543531
 51
90.0087254098
  0
ARC
  5
18A
  8
0
  6
CONTINUOUS
 62
     7
 10
1256.1634520874
 20
686.980673744
 30
0.0
 40
19.95412058783491
 50
155.6263571279
 51
180.0089245855
  0
ARC
  5
18B
  8
0
  6
CONTINUOUS
 62
     7
 10
1298.3789922076
 20
364.9755905742
 30
0.0
 40
19.95571347950325
 50
245.6274488505
 51
270.0080309125
  0
ARC
  5
18C
  8
0
  6
CONTINUOUS
 62
     7
 10
1620.3848665068
 20
407.1893294891
 30
0.0
 40
19.95459646965145
 50
335.6266523213
 51
0.008672148
  0
ARC
  5
18D
  8
0
  6
CONTINUOUS
 62
     7
 10
1256.1642854702
 20
407.1894066653
 30
0.0
 40
19.95495394563585
 50
179.9915495999
 51
204.3731259308
  0
ARC
  5
18E
  8
0
  6
CONTINUOUS
 62
     7
 10
1298.3788587954
 20
729.1949278969
 30
0.0
 40
19.95509551644067
 50
89.9915857809
 51
114.3729344561
  0
ARC
  5
18F
  8
0
  6
CONTINUOUS
 62
     7
 10
1578.1696121779
 20
364.9764711596
 30
0.0
 40
19.95659403918687
 50
269.9925152341
 51
294.372005003
  0
ARC
  5
190
  8
0
  6
CONTINUOUS
 62
     7
 10
1620.3846694782
 20
686.9805284696
 30
0.0
 40
19.95479348956859
 50
359.9914928388
 51
24.3732254477
  0
LINE
  5
191
  8
0
  6
CONTINUOUS
 62
     7
 10
1578.167005172
 20
749.1626146794
 30
0.0
 11
1298.3817893174
 21
749.1626146794
 31
0.0
  0
LINE
  5
192
  8
0
  6
CONTINUOUS
 62
     7
 10
1298.3817893174
 20
345.0073007107
 30
0.0
 11
1578.167005172
 21
345.0073007107
 31
0.0
  0
LINE
  5
193
  8
0
  6
CONTINUOUS
 62
     7
 10
1236.1967402604
 20
686.9775656223
 30
0.0
 11
1236.1967402604
 21
407.1923497677
 31
0.0
  0
LINE
  5
194
  8
0
  6
CONTINUOUS
 62
     7
 10
1640.352054229
 20
407.1923497677
 30
0.0
 11
1640.352054229
 21
686.9775656223
 31
0.0
  0
LINE
  5
195
  8
0
  6
CONTINUOUS
 62
     7
 10
1594.9624913838
 20
353.0435565472
 30
0.0
 11
1605.5654275325
 21
348.161280489
 31
0.0
  0
LINE
  5
196
  8
0
  6
CONTINUOUS
 62
     7
 10
1244.233010998
 20
390.3968933582
 30
0.0
 11
1239.3507349398
 21
379.7939423084
 31
0.0
  0
LINE
  5
197
  8
0
  6
CONTINUOUS
 62
     7
 10
1270.983366957
 20
348.161280489
 30
0.0
 11
1281.5863031056
 21
353.0435565472
 31
0.0
  0
LINE
  5
198
  8
0
  6
CONTINUOUS
 62
     7
 10
1637.1980595496
 20
379.7939423084
 30
0.0
 11
1632.3157834914
 21
390.3968933582
 31
0.0
  0
LINE
  5
199
  8
0
  6
CONTINUOUS
 62
     7
 10
1239.3507349398
 20
714.3759879828
 30
0.0
 11
1244.233010998
 21
703.7730518341
 31
0.0
  0
POLYLINE
  5
19A
  8
0
  6
CONTINUOUS
 62
     7
 66
     1
 10
0.0
 20
0.0
 30
0.0
 70
   128
  0
VERTEX
  5
66A
  8
0
  6
CONTINUOUS
 62
     7
 10
1605.5451172498
 20
745.9989938498
 30
0.0
  0
VERTEX
  5
66B
  8
0
  6
CONTINUOUS
 62
     7
 10
1600.0953304675
 20
743.4895637989
 30
0.0
  0
VERTEX
  5
66C
  8
0
  6
CONTINUOUS
 62
     7
 10
1594.9627149012
 20
741.1261651278
 30
0.0
  0
SEQEND
  5
D18
  8
0
  6
CONTINUOUS
 62
     7
  0
POLYLINE
  5
19B
  8
0
  6
CONTINUOUS
 62
     7
 66
     1
 10
0.0
 20
0.0
 30
0.0
 70
   128
  0
VERTEX
  5
66D
  8
0
  6
CONTINUOUS
 62
     7
 10
1281.5860944894
 20
741.1261651278
 30
0.0
  0
VERTEX
  5
66E
  8
0
  6
CONTINUOUS
 62
     7
 10
1276.5403526929
 20
743.4495541811
 30
0.0
  0
VERTEX
  5
66F
  8
0
  6
CONTINUOUS
 62
     7
 10
1271.0036772397
 20
745.9989938498
 30
0.0
  0
SEQEND
  5
D19
  8
0
  6
CONTINUOUS
 62
     7
  0
POLYLINE
  5
19C
  8
0
  6
CONTINUOUS
 62
     7
 66
     1
 10
0.0
 20
0.0
 30
0.0
 70
   128
  0
VERTEX
  5
670
  8
0
  6
CONTINUOUS
 62
     7
 10
1632.3156344798
 20
703.7732455492
 30
0.0
  0
VERTEX
  5
671
  8
0
  6
CONTINUOUS
 62
     7
 10
1634.6396493819
 20
708.8203731537
 30
0.0
  0
VERTEX
  5
672
  8
0
  6
CONTINUOUS
 62
     7
 10
1637.1891039517
 20
714.3570337057
 30
0.0
  0
SEQEND
  5
D1A
  8
0
  6
CONTINUOUS
 62
     7
  0
LINE
  5
19D
  8
0
  6
CONTINUOUS
 62
     7
 10
1254.7045487073
 20
363.5151389599
 30
0.0
 11
1269.8572564032
 21
348.3623865605
 31
0.0
  0
LINE
  5
19E
  8
0
  6
CONTINUOUS
 62
     7
 10
1621.8442457822
 20
730.6548062325
 30
0.0
 11
1606.6915380862
 21
745.8075139284
 31
0.0
  0
LINE
  5
19F
  8
0
  6
CONTINUOUS
 62
     7
 10
1621.8442457822
 20
363.5151389599
 30
0.0
 11
1636.9969534781
 21
378.6678317547
 31
0.0
  0
LINE
  5
1A0
  8
0
  6
CONTINUOUS
 62
     7
 10
1254.7045487073
 20
730.6548062325
 30
0.0
 11
1239.5518410113
 21
715.5020985365
 31
0.0
  0
LINE
  5
1A1
  8
0
  6
CONTINUOUS
 62
     7
 10
1606.6915380862
 20
348.3623865605
 30
0.0
 11
1621.8442457822
 21
363.5151389599
 31
0.0
  0
LINE
  5
1A2
  8
0
  6
CONTINUOUS
 62
     7
 10
1636.9969534781
 20
715.5020985365
 30
0.0
 11
1621.8442457822
 21
730.6548062325
 31
0.0
  0
LINE
  5
1A3
  8
0
  6
CONTINUOUS
 62
     7
 10
1269.8572564032
 20
745.8075139284
 30
0.0
 11
1254.7045487073
 21
730.6548062325
 31
0.0
  0
LINE
  5
1A4
  8
0
  6
CONTINUOUS
 62
     7
 10
1239.5518410113
 20
378.6678317547
 30
0.0
 11
1254.7045487073
 21
363.5151389599
 31
0.0
  0
ARC
  5
1A5
  8
0
  6
CONTINUOUS
 62
     7
 10
1674.6533434984
 20
427.5148592468
 30
0.0
 40
68.5752664614333
 50
180.6951165122
 51
185.2497164727
  0
ARC
  5
1A6
  8
0
  6
CONTINUOUS
 62
     7
 10
1609.8568460609
 20
421.4817333842
 30
0.0
 40
3.499449940671115
 50
183.9536321069
 51
197.2150709547
  0
ARC
  5
1A7
  8
0
  6
CONTINUOUS
 62
     7
 10
1602.6553833513
 20
417.3983576474
 30
0.0
 40
4.910957838731301
 50
19.8083067069
 51
38.1032324243
  0
ARC
  5
1A8
  8
0
  6
CONTINUOUS
 62
     7
 10
1610.0655518956
 20
672.6516246335
 30
0.0
 40
3.710245394090538
 50
163.1736783982
 51
175.7053892453
  0
ARC
  5
1A9
  8
0
  6
CONTINUOUS
 62
     7
 10
1674.4402795672
 20
666.6661194977
 30
0.0
 40
68.36208451769579
 50
174.7431781816
 51
179.3119888335
  0
ARC
  5
1AA
  8
0
  6
CONTINUOUS
 62
     7
 10
1777.3019745949
 20
661.0393172238
 30
0.0
 40
171.3402097272733
 50
177.8434016447
 51
179.8502912267
  0
ARC
  5
1AB
  8
0
  6
CONTINUOUS
 62
     7
 10
1771.8123939756
 20
432.9721757222
 30
0.0
 40
165.8485627826911
 50
180.6060276798
 51
182.1732733085
  0
ARC
  5
1AC
  8
0
  6
CONTINUOUS
 62
     7
 10
1318.7045824877
 20
310.6966229364
 30
0.0
 40
68.58464290771671
 50
90.6952647142
 51
95.2492472461
  0
ARC
  5
1AD
  8
0
  6
CONTINUOUS
 62
     7
 10
1312.6707615506
 20
375.5041677579
 30
0.0
 40
3.49776768364902
 50
93.9490265143
 51
107.216298741
  0
ARC
  5
1AE
  8
0
  6
CONTINUOUS
 62
     7
 10
1563.8408269019
 20
375.2922015123
 30
0.0
 40
3.711861316169267
 50
73.1773951828
 51
85.703358754
  0
ARC
  5
1AF
  8
0
  6
CONTINUOUS
 62
     7
 10
1557.8574799326
 20
310.9521575892
 30
0.0
 40
68.32896682681209
 50
84.7422281027
 51
89.313259937
  0
ARC
  5
1B0
  8
0
  6
CONTINUOUS
 62
     7
 10
1552.2276605194
 20
208.065895443
 30
0.0
 40
171.3317273088734
 50
87.8429254675
 51
89.8499197021
  0
ARC
  5
1B1
  8
0
  6
CONTINUOUS
 62
     7
 10
1324.1565424239
 20
213.7780657878
 30
0.0
 40
165.6174172519713
 50
90.6051184565
 51
92.1745542653
  0
ARC
  5
1B2
  8
0
  6
CONTINUOUS
 62
     7
 10
1312.7078558688
 20
718.8767579469
 30
0.0
 40
3.710899702118781
 50
253.1747081807
 51
265.703973047
  0
ARC
  5
1B3
  8
0
  6
CONTINUOUS
 62
     7
 10
1318.6932868762
 20
783.2521391815
 30
0.0
 40
68.36338429511721
 50
264.7432225789
 51
269.31195256
  0
ARC
  5
1B4
  8
0
  6
CONTINUOUS
 62
     7
 10
1324.320040776
 20
886.1131124452
 30
0.0
 40
171.3407871137954
 50
267.8434053983
 51
269.8502931994
  0
ARC
  5
1B5
  8
0
  6
CONTINUOUS
 62
     7
 10
1552.3872224771
 20
880.6215970972
 30
0.0
 40
165.8472050723158
 50
270.6060176954
 51
272.1732787286
  0
ARC
  5
1B6
  8
0
  6
CONTINUOUS
 62
     7
 10
1557.8441227561
 20
783.4713950827
 30
0.0
 40
68.58276165947899
 50
270.6953583501
 51
275.2494665111
  0
ARC
  5
1B7
  8
0
  6
CONTINUOUS
 62
     7
 10
1563.8775514385
 20
718.6676535463
 30
0.0
 40
3.499702250414501
 50
273.9547418251
 51
287.2147374643
  0
ARC
  5
1B8
  8
0
  6
CONTINUOUS
 62
     7
 10
1266.4815592204
 20
421.518564376
 30
0.0
 40
3.711944533837451
 50
343.1767169956
 51
355.7031234377
  0
ARC
  5
1B9
  8
0
  6
CONTINUOUS
 62
     7
 10
1202.1085149228
 20
427.5037958923
 30
0.0
 40
68.36208451714751
 50
354.7431781816
 51
359.3119888336
  0
ARC
  5
1BA
  8
0
  6
CONTINUOUS
 62
     7
 10
1099.2468198957
 20
433.1305981662
 30
0.0
 40
171.3402097261007
 50
357.8434016447
 51
359.8502912267
  0
ARC
  5
1BB
  8
0
  6
CONTINUOUS
 62
     7
 10
1104.739170438
 20
661.1978068627
 30
0.0
 40
165.8457923028009
 50
0.6060145885
 51
2.1732863998
  0
ARC
  5
1BC
  8
0
  6
CONTINUOUS
 62
     7
 10
1201.8963399666
 20
666.6551023033
 30
0.0
 40
68.5743769912984
 50
0.695086958
 51
5.2497460268
  0
ARC
  5
1BD
  8
0
  6
CONTINUOUS
 62
     7
 10
1266.6937971619
 20
672.6884886223
 30
0.0
 40
3.49758447055263
 50
3.9507093449
 51
17.2187699445
  0
ARC
  5
1BE
  8
0
  6
CONTINUOUS
 62
     7
 10
1263.8157725831
 20
709.0231451356
 30
0.0
 40
16.31229877627755
 50
204.7831464112
 51
221.0226178178
  0
ARC
  5
1BF
  8
0
  6
CONTINUOUS
 62
     7
 10
1600.2122859139
 20
721.5440441359
 30
0.0
 40
16.31175428614612
 50
114.7828735433
 51
131.0228906857
  0
ARC
  5
1C0
  8
0
  6
CONTINUOUS
 62
     7
 10
1612.733569695
 20
385.1471246739
 30
0.0
 40
16.3116528714169
 50
24.7828227179
 51
41.0229415111
  0
ARC
  5
1C1
  8
0
  6
CONTINUOUS
 62
     7
 10
1276.3356642704
 20
372.6273376459
 30
0.0
 40
16.31342601576084
 50
294.7834288555
 51
311.021713126
  0
ARC
  5
1C2
  8
0
  6
CONTINUOUS
 62
     7
 10
1600.2129576276
 20
372.6270708863
 30
0.0
 40
16.31311147662148
 50
228.9781292694
 51
245.216728749
  0
ARC
  5
1C3
  8
0
  6
CONTINUOUS
 62
     7
 10
1612.7335290823
 20
709.0228169926
 30
0.0
 40
16.31170075836108
 50
318.9770824882
 51
335.2171532828
  0
ARC
  5
1C4
  8
0
  6
CONTINUOUS
 62
     7
 10
1263.8147175264
 20
385.1474528765
 30
0.0
 40
16.31105474543222
 50
138.9767587168
 51
155.2174770543
  0
ARC
  5
1C5
  8
0
  6
CONTINUOUS
 62
     7
 10
1276.3366810765
 20
721.5443107525
 30
0.0
 40
16.31143991520677
 50
48.9769517609
 51
65.2172840102
  0
ARC
  5
1C6
  8
0
  6
CONTINUOUS
 62
     7
 10
1294.5209550304
 20
733.746272317
 30
0.0
 40
5.214152297059265
 50
225.0444582967
 51
227.8291420207
  0
POLYLINE
  5
1C7
  8
0
  6
CONTINUOUS
 62
     7
 66
     1
 10
0.0
 20
0.0
 30
0.0
 70
   128
  0
VERTEX
  5
673
  8
0
  6
CONTINUOUS
 62
     7
 10
1291.120304456
 20
729.8014018297
 30
0.0
  0
VERTEX
  5
674
  8
0
  6
CONTINUOUS
 62
     7
 10
1291.0688954499
 20
729.8401299477
 30
0.0
  0
VERTEX
  5
675
  8
0
  6
CONTINUOUS
 62
     7
 10
1291.020466676
 20
729.8818233967
 30
0.0
  0
SEQEND
  5
D1B
  8
0
  6
CONTINUOUS
 62
     7
  0
ARC
  5
1C8
  8
0
  6
CONTINUOUS
 62
     7
 10
1582.0608558483
 20
360.4586701859
 30
0.0
 40
5.166026829978708
 50
45.0289866236
 51
47.8397309039
  0
POLYLINE
  5
1C9
  8
0
  6
CONTINUOUS
 62
     7
 66
     1
 10
0.0
 20
0.0
 30
0.0
 70
   128
  0
VERTEX
  5
676
  8
0
  6
CONTINUOUS
 62
     7
 10
1585.4284900334
 20
364.3684986592
 30
0.0
  0
VERTEX
  5
677
  8
0
  6
CONTINUOUS
 62
     7
 10
1585.4798990395
 20
364.3298152447
 30
0.0
  0
VERTEX
  5
678
  8
0
  6
CONTINUOUS
 62
     7
 10
1585.5283278134
 20
364.2880919934
 30
0.0
  0
SEQEND
  5
D1C
  8
0
  6
CONTINUOUS
 62
     7
  0
ARC
  5
1CA
  8
0
  6
CONTINUOUS
 62
     7
 10
1624.9646587093
 20
690.8105832918
 30
0.0
 40
5.254290788780792
 50
135.0528334958
 51
137.8161225941
  0
POLYLINE
  5
1CB
  8
0
  6
CONTINUOUS
 62
     7
 66
     1
 10
0.0
 20
0.0
 30
0.0
 70
   128
  0
VERTEX
  5
679
  8
0
  6
CONTINUOUS
 62
     7
 10
1620.9908413794
 20
694.2390504837
 30
0.0
  0
VERTEX
  5
67A
  8
0
  6
CONTINUOUS
 62
     7
 10
1621.0295694974
 20
694.2904594898
 30
0.0
  0
VERTEX
  5
67B
  8
0
  6
CONTINUOUS
 62
     7
 10
1621.0712629464
 20
694.3389031649
 30
0.0
  0
SEQEND
  5
D1D
  8
0
  6
CONTINUOUS
 62
     7
  0
ARC
  5
1CC
  8
0
  6
CONTINUOUS
 62
     7
 10
1251.4931485131
 20
403.446167172
 30
0.0
 40
5.380033564907917
 50
315.0828666938
 51
317.7814447727
  0
POLYLINE
  5
1CD
  8
0
  6
CONTINUOUS
 62
     7
 66
     1
 10
0.0
 20
0.0
 30
0.0
 70
   128
  0
VERTEX
  5
67C
  8
0
  6
CONTINUOUS
 62
     7
 10
1255.55795311
 20
399.930835104
 30
0.0
  0
VERTEX
  5
67D
  8
0
  6
CONTINUOUS
 62
     7
 10
1255.5192249921
 20
399.8794559002
 30
0.0
  0
VERTEX
  5
67E
  8
0
  6
CONTINUOUS
 62
     7
 10
1255.477531543
 20
399.830997324
 30
0.0
  0
SEQEND
  5
D1E
  8
0
  6
CONTINUOUS
 62
     7
  0
POLYLINE
  5
1CE
  8
0
  6
CONTINUOUS
 62
     7
 66
     1
 10
0.0
 20
0.0
 30
0.0
 70
   128
  0
VERTEX
  5
67F
  8
0
  6
CONTINUOUS
 62
     7
 10
1585.5283278134
 20
729.8818233967
 30
0.0
  0
VERTEX
  5
680
  8
0
  6
CONTINUOUS
 62
     7
 10
1585.4798990395
 20
729.8401299477
 30
0.0
  0
VERTEX
  5
681
  8
0
  6
CONTINUOUS
 62
     7
 10
1585.4284900334
 20
729.8014018297
 30
0.0
  0
SEQEND
  5
D1F
  8
0
  6
CONTINUOUS
 62
     7
  0
ARC
  5
1CF
  8
0
  6
CONTINUOUS
 62
     7
 10
1582.0446236868
 20
733.7286244584
 30
0.0
 40
5.189804702477422
 50
312.1643246127
 51
314.96207507
  0
POLYLINE
  5
1D0
  8
0
  6
CONTINUOUS
 62
     7
 66
     1
 10
0.0
 20
0.0
 30
0.0
 70
   128
  0
VERTEX
  5
682
  8
0
  6
CONTINUOUS
 62
     7
 10
1291.020466676
 20
364.2880919934
 30
0.0
  0
VERTEX
  5
683
  8
0
  6
CONTINUOUS
 62
     7
 10
1291.0688954499
 20
364.3298152447
 30
0.0
  0
VERTEX
  5
684
  8
0
  6
CONTINUOUS
 62
     7
 10
1291.120304456
 20
364.3684986592
 30
0.0
  0
SEQEND
  5
D20
  8
0
  6
CONTINUOUS
 62
     7
  0
ARC
  5
1D1
  8
0
  6
CONTINUOUS
 62
     7
 10
1294.4965478995
 20
360.4496187114
 30
0.0
 40
5.178515019561845
 50
132.1636588828
 51
134.9676235897
  0
POLYLINE
  5
1D2
  8
0
  6
CONTINUOUS
 62
     7
 66
     1
 10
0.0
 20
0.0
 30
0.0
 70
   128
  0
VERTEX
  5
685
  8
0
  6
CONTINUOUS
 62
     7
 10
1621.0712629464
 20
399.830997324
 30
0.0
  0
VERTEX
  5
686
  8
0
  6
CONTINUOUS
 62
     7
 10
1621.0295694974
 20
399.8794559002
 30
0.0
  0
VERTEX
  5
687
  8
0
  6
CONTINUOUS
 62
     7
 10
1620.9908413794
 20
399.930835104
 30
0.0
  0
SEQEND
  5
D21
  8
0
  6
CONTINUOUS
 62
     7
  0
ARC
  5
1D3
  8
0
  6
CONTINUOUS
 62
     7
 10
1624.9993671195
 20
403.3926337367
 30
0.0
 40
5.302382137358916
 50
222.1987916535
 51
224.93689688
  0
POLYLINE
  5
1D4
  8
0
  6
CONTINUOUS
 62
     7
 66
     1
 10
0.0
 20
0.0
 30
0.0
 70
   128
  0
VERTEX
  5
688
  8
0
  6
CONTINUOUS
 62
     7
 10
1255.477531543
 20
694.3389031649
 30
0.0
  0
VERTEX
  5
689
  8
0
  6
CONTINUOUS
 62
     7
 10
1255.5192249921
 20
694.2904594898
 30
0.0
  0
VERTEX
  5
68A
  8
0
  6
CONTINUOUS
 62
     7
 10
1255.55795311
 20
694.2390504837
 30
0.0
  0
SEQEND
  5
D22
  8
0
  6
CONTINUOUS
 62
     7
  0
ARC
  5
1D5
  8
0
  6
CONTINUOUS
 62
     7
 10
1251.6047247704
 20
690.8301663108
 30
0.0
 40
5.225884289684744
 50
42.1763656904
 51
44.9546782197
  0
LINE
  5
1D6
  8
0
  6
CONTINUOUS
 62
     7
 10
1621.2458896544
 20
399.6474150181
 30
0.0
 11
1625.0398445037
 21
395.8534601689
 31
0.0
  0
LINE
  5
1D7
  8
0
  6
CONTINUOUS
 62
     7
 10
1290.8368545678
 20
364.1134503842
 30
0.0
 11
1287.0428997186
 21
360.3194955349
 31
0.0
  0
LINE
  5
1D8
  8
0
  6
CONTINUOUS
 62
     7
 10
1585.7119399216
 20
730.0564501047
 30
0.0
 11
1589.5058947709
 21
733.850404954
 31
0.0
  0
LINE
  5
1D9
  8
0
  6
CONTINUOUS
 62
     7
 10
1255.302904835
 20
694.522500372
 30
0.0
 11
1251.5089499858
 21
698.3164552212
 31
0.0
  0
LINE
  5
1DA
  8
0
  6
CONTINUOUS
 62
     7
 10
1287.0428997186
 20
733.850404954
 30
0.0
 11
1290.8368545678
 21
730.0564501047
 31
0.0
  0
LINE
  5
1DB
  8
0
  6
CONTINUOUS
 62
     7
 10
1251.5089499858
 20
395.8534601689
 30
0.0
 11
1255.302904835
 21
399.6474150181
 31
0.0
  0
LINE
  5
1DC
  8
0
  6
CONTINUOUS
 62
     7
 10
1625.0398445037
 20
698.3164552212
 30
0.0
 11
1621.2458896544
 21
694.522500372
 31
0.0
  0
LINE
  5
1DD
  8
0
  6
CONTINUOUS
 62
     7
 10
1589.5058947709
 20
360.3194955349
 30
0.0
 11
1585.7119399216
 21
364.1134503842
 31
0.0
  0
ARC
  5
1DE
  8
0
  6
CONTINUOUS
 62
     7
 10
1297.6661884363
 20
360.4673755374
 30
0.0
 40
1.997590944275093
 50
225.0000668471
 51
269.9987871244
  0
LINE
  5
1DF
  8
0
  6
CONTINUOUS
 62
     7
 10
1578.8826483395
 20
358.4697845936
 30
0.0
 11
1297.6661461499
 21
358.4697845936
 31
0.0
  0
ARC
  5
1E0
  8
0
  6
CONTINUOUS
 62
     7
 10
1578.8826629308
 20
360.4672382266
 30
0.0
 40
1.997453633033398
 50
269.9995814579
 51
315.0015645706
  0
ARC
  5
1E1
  8
0
  6
CONTINUOUS
 62
     7
 10
1624.89214716
 20
406.4766434233
 30
0.0
 40
1.997408285278608
 50
314.9985010652
 51
0.000957353
  0
LINE
  5
1E2
  8
0
  6
CONTINUOUS
 62
     7
 10
1626.889555445
 20
687.6932087898
 30
0.0
 11
1626.889555445
 21
406.4766767979
 31
0.0
  0
ARC
  5
1E3
  8
0
  6
CONTINUOUS
 62
     7
 10
1624.8922545451
 20
687.6933015457
 30
0.0
 40
1.997300902001824
 50
359.9973391494
 51
45.0027750128
  0
ARC
  5
1E4
  8
0
  6
CONTINUOUS
 62
     7
 10
1578.8827269691
 20
733.7027808916
 30
0.0
 40
1.997335005286117
 50
44.9976302622
 51
90.0022555755
  0
LINE
  5
1E5
  8
0
  6
CONTINUOUS
 62
     7
 10
1297.6661461499
 20
735.7001158953
 30
0.0
 11
1578.8826483395
 21
735.7001158953
 31
0.0
  0
ARC
  5
1E6
  8
0
  6
CONTINUOUS
 62
     7
 10
1297.6660764293
 20
733.7027593836
 30
0.0
 40
1.997356512860907
 50
89.9980000075
 51
135.0021141548
  0
ARC
  5
1E7
  8
0
  6
CONTINUOUS
 62
     7
 10
1251.656574406
 20
687.6932872711
 30
0.0
 40
1.997335363129717
 50
134.9976345147
 51
180.0022513231
  0
LINE
  5
1E8
  8
0
  6
CONTINUOUS
 62
     7
 10
1249.6592390445
 20
406.4766767979
 30
0.0
 11
1249.6592390445
 21
687.6932087898
 31
0.0
  0
ARC
  5
1E9
  8
0
  6
CONTINUOUS
 62
     7
 10
1251.6565843448
 20
406.4766173338
 30
0.0
 40
1.997345301242833
 50
179.998294216
 51
225.0022473659
  0
LINE
  5
1EA
  8
0
  6
CONTINUOUS
 62
     7
 10
1250.2443033364
 20
689.1056749582
 30
0.0
 11
1255.477531543
 21
694.3389031649
 31
0.0
  0
LINE
  5
1EB
  8
0
  6
CONTINUOUS
 62
     7
 10
1626.304491153
 20
405.0642255306
 30
0.0
 11
1621.0712629464
 21
399.830997324
 31
0.0
  0
LINE
  5
1EC
  8
0
  6
CONTINUOUS
 62
     7
 10
1296.2536799815
 20
359.0548637867
 30
0.0
 11
1291.020466676
 21
364.2880919934
 31
0.0
  0
LINE
  5
1ED
  8
0
  6
CONTINUOUS
 62
     7
 10
1580.2951145079
 20
735.1150516033
 30
0.0
 11
1585.5283278134
 21
729.8818233967
 31
0.0
  0
LINE
  5
1EE
  8
0
  6
CONTINUOUS
 62
     7
 10
1255.477531543
 20
399.830997324
 30
0.0
 11
1250.2443033364
 21
405.0642255306
 31
0.0
  0
LINE
  5
1EF
  8
0
  6
CONTINUOUS
 62
     7
 10
1621.0712629464
 20
694.3389031649
 30
0.0
 11
1626.304491153
 21
689.1056749582
 31
0.0
  0
LINE
  5
1F0
  8
0
  6
CONTINUOUS
 62
     7
 10
1585.5283278134
 20
364.2880919934
 30
0.0
 11
1580.2951145079
 21
359.0548637867
 31
0.0
  0
LINE
  5
1F1
  8
0
  6
CONTINUOUS
 62
     7
 10
1291.020466676
 20
729.8818233967
 30
0.0
 11
1296.2536799815
 21
735.1150516033
 31
0.0
  0
ARC
  5
1F2
  8
0
  6
CONTINUOUS
 62
     7
 10
1258.0771559346
 20
408.0712937879
 30
0.0
 40
22.07212718025902
 50
204.4091764615
 51
222.9911592724
  0
ARC
  5
1F3
  8
0
  6
CONTINUOUS
 62
     7
 10
1256.1753186436
 20
407.1929906888
 30
0.0
 40
19.97732669600125
 50
180.0018381876
 51
204.3694157557
  0
ARC
  5
1F4
  8
0
  6
CONTINUOUS
 62
     7
 10
1620.3736864777
 20
407.1929452039
 30
0.0
 40
19.977116062664
 50
335.6304538097
 51
359.998292247
  0
ARC
  5
1F5
  8
0
  6
CONTINUOUS
 62
     7
 10
1618.4706879857
 20
408.0719277428
 30
0.0
 40
22.07325476793237
 50
317.0093195516
 51
335.5903447145
  0
ARC
  5
1F6
  8
0
  6
CONTINUOUS
 62
     7
 10
1618.4723731583
 20
686.0990737019
 30
0.0
 40
22.07127140745887
 50
24.4088958014
 51
42.9915728671
  0
ARC
  5
1F7
  8
0
  6
CONTINUOUS
 62
     7
 10
1620.3737493666
 20
686.9769837667
 30
0.0
 40
19.97705317334888
 50
0.0016688083
 51
24.369585135
  0
ARC
  5
1F8
  8
0
  6
CONTINUOUS
 62
     7
 10
1578.166469526
 20
729.1845928134
 30
0.0
 40
19.97677017559943
 50
65.6302396104
 51
89.9984637027
  0
ARC
  5
1F9
  8
0
  6
CONTINUOUS
 62
     7
 10
1577.2885645758
 20
727.282976196
 30
0.0
 40
22.07120525926553
 50
47.008449202
 51
65.5912150641
  0
ARC
  5
1FA
  8
0
  6
CONTINUOUS
 62
     7
 10
1299.2600774236
 20
727.2832048438
 30
0.0
 40
22.07093403231793
 50
114.4086697437
 51
132.9916659902
  0
ARC
  5
1FB
  8
0
  6
CONTINUOUS
 62
     7
 10
1298.3823249634
 20
729.1845928134
 30
0.0
 40
19.97677017559955
 50
90.0015362973
 51
114.3697603896
  0
ARC
  5
1FC
  8
0
  6
CONTINUOUS
 62
     7
 10
1298.3822700799
 20
364.9849160829
 30
0.0
 40
19.97636368043808
 50
245.6298842888
 51
269.9986210872
  0
ARC
  5
1FD
  8
0
  6
CONTINUOUS
 62
     7
 10
1299.2600235025
 20
366.8866445967
 30
0.0
 40
22.07083812552558
 50
227.0082932768
 51
245.5913709893
  0
ARC
  5
1FE
  8
0
  6
CONTINUOUS
 62
     7
 10
1256.1751823782
 20
686.9769541271
 30
0.0
 40
19.97719042964072
 50
155.6304998617
 51
179.998246195
  0
ARC
  5
1FF
  8
0
  6
CONTINUOUS
 62
     7
 10
1258.0767201541
 20
686.09887441
 30
0.0
 40
22.07162587804922
 50
137.0085776738
 51
155.5909536577
  0
ARC
  5
200
  8
0
  6
CONTINUOUS
 62
     7
 10
1577.2886052219
 20
366.8868931494
 30
0.0
 40
22.07113296394927
 50
294.4087542318
 51
312.9915815021
  0
ARC
  5
201
  8
0
  6
CONTINUOUS
 62
     7
 10
1578.1665244095
 20
364.9849160829
 30
0.0
 40
19.97636368043808
 50
270.0013789128
 51
294.3701157112
  0
LINE
  5
202
  8
0
  6
CONTINUOUS
 62
     7
 10
1586.409820905
 20
747.3824772597
 30
0.0
 11
1586.409358969
 21
747.3814639807
 31
0.0
  0
LINE
  5
203
  8
0
  6
CONTINUOUS
 62
     7
 10
1237.9768776801
 20
695.2203813553
 30
0.0
 11
1237.9778909591
 21
695.2199343205
 31
0.0
  0
LINE
  5
204
  8
0
  6
CONTINUOUS
 62
     7
 10
1290.1389735844
 20
346.7874530316
 30
0.0
 11
1290.1394355204
 21
346.7884663105
 31
0.0
  0
LINE
  5
205
  8
0
  6
CONTINUOUS
 62
     7
 10
1638.5719168093
 20
398.9495638371
 30
0.0
 11
1638.5709035304
 21
398.9499810696
 31
0.0
  0
POLYLINE
  5
206
  8
0
  6
CONTINUOUS
 62
     7
 66
     1
 10
0.0
 20
0.0
 30
0.0
 70
   128
  0
VERTEX
  5
68B
  8
0
  6
CONTINUOUS
 62
     7
 10
1592.338709822
 20
743.4270534277
 30
0.0
  0
VERTEX
  5
68C
  8
0
  6
CONTINUOUS
 62
     7
 10
1592.2343867924
 20
743.50972507
 30
0.0
  0
VERTEX
  5
68D
  8
0
  6
CONTINUOUS
 62
     7
 10
1592.2300654557
 20
743.5120198488
 30
0.0
  0
SEQEND
  5
D23
  8
0
  6
CONTINUOUS
 62
     7
  0
LINE
  5
207
  8
0
  6
CONTINUOUS
 62
     7
 10
1241.8717729953
 20
701.0812017679
 30
0.0
 11
1241.932301512
 21
701.1492702723
 31
0.0
  0
POLYLINE
  5
208
  8
0
  6
CONTINUOUS
 62
     7
 66
     1
 10
0.0
 20
0.0
 30
0.0
 70
   128
  0
VERTEX
  5
68E
  8
0
  6
CONTINUOUS
 62
     7
 10
1284.2100846675
 20
350.7428768635
 30
0.0
  0
VERTEX
  5
68F
  8
0
  6
CONTINUOUS
 62
     7
 10
1284.314407697
 20
350.6602052212
 30
0.0
  0
VERTEX
  5
690
  8
0
  6
CONTINUOUS
 62
     7
 10
1284.3187290337
 20
350.65788064
 30
0.0
  0
SEQEND
  5
D24
  8
0
  6
CONTINUOUS
 62
     7
  0
LINE
  5
209
  8
0
  6
CONTINUOUS
 62
     7
 10
1634.6770214942
 20
393.088698721
 30
0.0
 11
1634.6164929774
 21
393.0206302166
 31
0.0
  0
POLYLINE
  5
20A
  8
0
  6
CONTINUOUS
 62
     7
 66
     1
 10
0.0
 20
0.0
 30
0.0
 70
   128
  0
VERTEX
  5
691
  8
0
  6
CONTINUOUS
 62
     7
 10
1237.9877555278
 20
398.9544514179
 30
0.0
  0
VERTEX
  5
692
  8
0
  6
CONTINUOUS
 62
     7
 10
1237.9866975453
 20
398.9539745808
 30
0.0
  0
VERTEX
  5
693
  8
0
  6
CONTINUOUS
 62
     7
 10
1237.9778909591
 20
398.9499810696
 30
0.0
  0
SEQEND
  5
D25
  8
0
  6
CONTINUOUS
 62
     7
  0
POLYLINE
  5
20B
  8
0
  6
CONTINUOUS
 62
     7
 66
     1
 10
0.0
 20
0.0
 30
0.0
 70
   128
  0
VERTEX
  5
694
  8
0
  6
CONTINUOUS
 62
     7
 10
1638.5709035304
 20
695.2199343205
 30
0.0
  0
VERTEX
  5
695
  8
0
  6
CONTINUOUS
 62
     7
 10
1638.5620969441
 20
695.2159408093
 30
0.0
  0
VERTEX
  5
696
  8
0
  6
CONTINUOUS
 62
     7
 10
1638.5610240605
 20
695.2154490709
 30
0.0
  0
SEQEND
  5
D26
  8
0
  6
CONTINUOUS
 62
     7
  0
POLYLINE
  5
20C
  8
0
  6
CONTINUOUS
 62
     7
 66
     1
 10
0.0
 20
0.0
 30
0.0
 70
   128
  0
VERTEX
  5
697
  8
0
  6
CONTINUOUS
 62
     7
 10
1241.932301512
 20
393.0206302166
 30
0.0
  0
VERTEX
  5
698
  8
0
  6
CONTINUOUS
 62
     7
 10
1241.8496298697
 20
393.1249979496
 30
0.0
  0
VERTEX
  5
699
  8
0
  6
CONTINUOUS
 62
     7
 10
1241.8473350909
 20
393.129289484
 30
0.0
  0
SEQEND
  5
D27
  8
0
  6
CONTINUOUS
 62
     7
  0
POLYLINE
  5
20D
  8
0
  6
CONTINUOUS
 62
     7
 66
     1
 10
0.0
 20
0.0
 30
0.0
 70
   128
  0
VERTEX
  5
69A
  8
0
  6
CONTINUOUS
 62
     7
 10
1284.2100846675
 20
743.4270534277
 30
0.0
  0
VERTEX
  5
69B
  8
0
  6
CONTINUOUS
 62
     7
 10
1284.314407697
 20
743.50972507
 30
0.0
  0
VERTEX
  5
69C
  8
0
  6
CONTINUOUS
 62
     7
 10
1284.3187290337
 20
743.5120198488
 30
0.0
  0
SEQEND
  5
D28
  8
0
  6
CONTINUOUS
 62
     7
  0
POLYLINE
  5
20E
  8
0
  6
CONTINUOUS
 62
     7
 66
     1
 10
0.0
 20
0.0
 30
0.0
 70
   128
  0
VERTEX
  5
69D
  8
0
  6
CONTINUOUS
 62
     7
 10
1592.338709822
 20
350.7428768635
 30
0.0
  0
VERTEX
  5
69E
  8
0
  6
CONTINUOUS
 62
     7
 10
1592.2343867924
 20
350.6602052212
 30
0.0
  0
VERTEX
  5
69F
  8
0
  6
CONTINUOUS
 62
     7
 10
1592.2300654557
 20
350.65788064
 30
0.0
  0
SEQEND
  5
D29
  8
0
  6
CONTINUOUS
 62
     7
  0
POLYLINE
  5
20F
  8
0
  6
CONTINUOUS
 62
     7
 66
     1
 10
0.0
 20
0.0
 30
0.0
 70
   128
  0
VERTEX
  5
6A0
  8
0
  6
CONTINUOUS
 62
     7
 10
1634.6164929774
 20
701.1492702723
 30
0.0
  0
VERTEX
  5
6A1
  8
0
  6
CONTINUOUS
 62
     7
 10
1634.6991646197
 20
701.0449472428
 30
0.0
  0
VERTEX
  5
6A2
  8
0
  6
CONTINUOUS
 62
     7
 10
1634.7014593985
 20
701.040625906
 30
0.0
  0
SEQEND
  5
D2A
  8
0
  6
CONTINUOUS
 62
     7
  0
ARC
  5
210
  8
0
  6
CONTINUOUS
 62
     7
 10
1606.0033429365
 20
349.0183429074
 30
0.0
 40
0.9500901820567307
 50
242.8861675219
 51
316.3767823706
  0
ARC
  5
211
  8
0
  6
CONTINUOUS
 62
     7
 10
1240.2078595078
 20
379.3560079169
 30
0.0
 40
0.9501609465962746
 50
152.8860566173
 51
226.3719480719
  0
ARC
  5
212
  8
0
  6
CONTINUOUS
 62
     7
 10
1270.5443147575
 20
349.0116441502
 30
0.0
 40
0.9446544509063619
 50
223.3766706357
 51
297.3603794718
  0
ARC
  5
213
  8
0
  6
CONTINUOUS
 62
     7
 10
1636.3475777799
 20
379.3548920686
 30
0.0
 40
0.9447785302410278
 50
313.3831451028
 51
27.3573693368
  0
ARC
  5
214
  8
0
  6
CONTINUOUS
 62
     7
 10
1240.2011512709
 20
714.8150459691
 30
0.0
 40
0.9447171229380027
 50
133.3812041569
 51
207.3588077479
  0
ARC
  5
215
  8
0
  6
CONTINUOUS
 62
     7
 10
1605.9953431561
 20
745.1380680666
 30
0.0
 40
0.9652280753276569
 50
43.8771696408
 51
117.6179493457
  0
ARC
  5
216
  8
0
  6
CONTINUOUS
 62
     7
 10
1270.5534513334
 20
745.1380680666
 30
0.0
 40
0.9652280753275635
 50
62.3820506543
 51
136.1228303592
  0
ARC
  5
217
  8
0
  6
CONTINUOUS
 62
     7
 10
1636.3279958914
 20
714.8060286432
 30
0.0
 40
0.9647995511582892
 50
332.4522157425
 51
46.1385853521
  0
POLYLINE
  5
218
  8
0
  6
CONTINUOUS
 62
     7
 66
     1
 10
0.0
 20
0.0
 30
0.0
  0
VERTEX
  5
6A3
  8
0
  6
CONTINUOUS
 62
     7
 10
1570.7293041095
 20
679.5398666824
 30
0.0
  0
VERTEX
  5
6A4
  8
0
  6
CONTINUOUS
 62
     7
 10
1570.8445219158
 20
679.4256165638
 30
0.0
  0
VERTEX
  5
6A5
  8
0
  6
CONTINUOUS
 62
     7
 10
1570.9606819705
 20
679.3123137683
 30
0.0
  0
VERTEX
  5
6A6
  8
0
  6
CONTINUOUS
 62
     7
 10
1571.0777688423
 20
679.1999692609
 30
0.0
  0
VERTEX
  5
6A7
  8
0
  6
CONTINUOUS
 62
     7
 10
1571.1957670998
 20
679.0885940066
 30
0.0
  0
VERTEX
  5
6A8
  8
0
  6
CONTINUOUS
 62
     7
 10
1571.3146613117
 20
678.9781989704
 30
0.0
  0
VERTEX
  5
6A9
  8
0
  6
CONTINUOUS
 62
     7
 10
1571.4344360466
 20
678.8687951174
 30
0.0
  0
VERTEX
  5
6AA
  8
0
  6
CONTINUOUS
 62
     7
 10
1571.5550758732
 20
678.7603934126
 30
0.0
  0
VERTEX
  5
6AB
  8
0
  6
CONTINUOUS
 62
     7
 10
1571.6765653602
 20
678.653004821
 30
0.0
  0
VERTEX
  5
6AC
  8
0
  6
CONTINUOUS
 62
     7
 10
1571.7988890761
 20
678.5466403077
 30
0.0
  0
VERTEX
  5
6AD
  8
0
  6
CONTINUOUS
 62
     7
 10
1571.9220315897
 20
678.4413108377
 30
0.0
  0
VERTEX
  5
6AE
  8
0
  6
CONTINUOUS
 62
     7
 10
1572.0459774695
 20
678.3370273761
 30
0.0
  0
VERTEX
  5
6AF
  8
0
  6
CONTINUOUS
 62
     7
 10
1572.1707112843
 20
678.2338008877
 30
0.0
  0
VERTEX
  5
6B0
  8
0
  6
CONTINUOUS
 62
     7
 10
1572.2962176026
 20
678.1316423378
 30
0.0
  0
VERTEX
  5
6B1
  8
0
  6
CONTINUOUS
 62
     7
 10
1572.4224809932
 20
678.0305626913
 30
0.0
  0
VERTEX
  5
6B2
  8
0
  6
CONTINUOUS
 62
     7
 10
1572.5494860246
 20
677.9305729132
 30
0.0
  0
VERTEX
  5
6B3
  8
0
  6
CONTINUOUS
 62
     7
 10
1572.6772172656
 20
677.8316839686
 30
0.0
  0
VERTEX
  5
6B4
  8
0
  6
CONTINUOUS
 62
     7
 10
1572.8056592847
 20
677.7339068225
 30
0.0
  0
VERTEX
  5
6B5
  8
0
  6
CONTINUOUS
 62
     7
 10
1572.9347966506
 20
677.63725244
 30
0.0
  0
VERTEX
  5
6B6
  8
0
  6
CONTINUOUS
 62
     7
 10
1573.0646139321
 20
677.541731786
 30
0.0
  0
VERTEX
  5
6B7
  8
0
  6
CONTINUOUS
 62
     7
 10
1573.1950957863
 20
677.4473554973
 30
0.0
  0
VERTEX
  5
6B8
  8
0
  6
CONTINUOUS
 62
     7
 10
1573.3262290321
 20
677.3541279869
 30
0.0
  0
VERTEX
  5
6B9
  8
0
  6
CONTINUOUS
 62
     7
 10
1573.4580008747
 20
677.2620564391
 30
0.0
  0
VERTEX
  5
6BA
  8
0
  6
CONTINUOUS
 62
     7
 10
1573.5903995082
 20
677.1711440269
 30
0.0
  0
VERTEX
  5
6BB
  8
0
  6
CONTINUOUS
 62
     7
 10
1573.7234243046
 20
677.0813635791
 30
0.0
  0
VERTEX
  5
6BC
  8
0
  6
CONTINUOUS
 62
     7
 10
1573.8570753848
 20
676.9927117987
 30
0.0
  0
VERTEX
  5
6BD
  8
0
  6
CONTINUOUS
 62
     7
 10
1573.9913521927
 20
676.9051901047
 30
0.0
  0
VERTEX
  5
6BE
  8
0
  6
CONTINUOUS
 62
     7
 10
1574.1262541723
 20
676.818799916
 30
0.0
  0
VERTEX
  5
6BF
  8
0
  6
CONTINUOUS
 62
     7
 10
1574.2617807675
 20
676.7335426515
 30
0.0
  0
VERTEX
  5
6C0
  8
0
  6
CONTINUOUS
 62
     7
 10
1574.3979314223
 20
676.6494197301
 30
0.0
  0
VERTEX
  5
6C1
  8
0
  6
CONTINUOUS
 62
     7
 10
1574.5347055806
 20
676.5664325707
 30
0.0
  0
VERTEX
  5
6C2
  8
0
  6
CONTINUOUS
 62
     7
 10
1574.6721026865
 20
676.4845825921
 30
0.0
  0
VERTEX
  5
6C3
  8
0
  6
CONTINUOUS
 62
     7
 10
1574.8101221839
 20
676.4038712135
 30
0.0
  0
VERTEX
  5
6C4
  8
0
  6
CONTINUOUS
 62
     7
 10
1574.9487635167
 20
676.3242998535
 30
0.0
  0
VERTEX
  5
6C5
  8
0
  6
CONTINUOUS
 62
     7
 10
1575.0880261289
 20
676.2458699312
 30
0.0
  0
VERTEX
  5
6C6
  8
0
  6
CONTINUOUS
 62
     7
 10
1575.2279094646
 20
676.1685828654
 30
0.0
  0
VERTEX
  5
6C7
  8
0
  6
CONTINUOUS
 62
     7
 10
1575.3684129676
 20
676.0924400751
 30
0.0
  0
VERTEX
  5
6C8
  8
0
  6
CONTINUOUS
 62
     7
 10
1575.5095360819
 20
676.0174429791
 30
0.0
  0
VERTEX
  5
6C9
  8
0
  6
CONTINUOUS
 62
     7
 10
1575.6512782514
 20
675.9435929965
 30
0.0
  0
VERTEX
  5
6CA
  8
0
  6
CONTINUOUS
 62
     7
 10
1575.7936389203
 20
675.870891546
 30
0.0
  0
VERTEX
  5
6CB
  8
0
  6
CONTINUOUS
 62
     7
 10
1575.9366175323
 20
675.7993400466
 30
0.0
  0
VERTEX
  5
6CC
  8
0
  6
CONTINUOUS
 62
     7
 10
1576.0802135315
 20
675.7289399172
 30
0.0
  0
VERTEX
  5
6CD
  8
0
  6
CONTINUOUS
 62
     7
 10
1576.2244263619
 20
675.6596925767
 30
0.0
  0
VERTEX
  5
6CE
  8
0
  6
CONTINUOUS
 62
     7
 10
1576.3692554673
 20
675.591599444
 30
0.0
  0
VERTEX
  5
6CF
  8
0
  6
CONTINUOUS
 62
     7
 10
1576.5147002918
 20
675.5246619381
 30
0.0
  0
VERTEX
  5
6D0
  8
0
  6
CONTINUOUS
 62
     7
 10
1576.6607602794
 20
675.4588814777
 30
0.0
  0
VERTEX
  5
6D1
  8
0
  6
CONTINUOUS
 62
     7
 10
1576.8074348739
 20
675.394259482
 30
0.0
  0
VERTEX
  5
6D2
  8
0
  6
CONTINUOUS
 62
     7
 10
1576.9547235195
 20
675.3307973697
 30
0.0
  0
VERTEX
  5
6D3
  8
0
  6
CONTINUOUS
 62
     7
 10
1577.1026256599
 20
675.2684965597
 30
0.0
  0
VERTEX
  5
6D4
  8
0
  6
CONTINUOUS
 62
     7
 10
1577.2511407392
 20
675.207358471
 30
0.0
  0
VERTEX
  5
6D5
  8
0
  6
CONTINUOUS
 62
     7
 10
1577.4002551622
 20
675.1473881103
 30
0.0
  0
VERTEX
  5
6D6
  8
0
  6
CONTINUOUS
 62
     7
 10
1577.5499278347
 20
675.0885980418
 30
0.0
  0
VERTEX
  5
6D7
  8
0
  6
CONTINUOUS
 62
     7
 10
1577.7001559157
 20
675.0309902942
 30
0.0
  0
VERTEX
  5
6D8
  8
0
  6
CONTINUOUS
 62
     7
 10
1577.8509395384
 20
674.9745660778
 30
0.0
  0
VERTEX
  5
6D9
  8
0
  6
CONTINUOUS
 62
     7
 10
1578.0022788359
 20
674.9193266026
 30
0.0
  0
VERTEX
  5
6DA
  8
0
  6
CONTINUOUS
 62
     7
 10
1578.1541739414
 20
674.8652730789
 30
0.0
  0
VERTEX
  5
6DB
  8
0
  6
CONTINUOUS
 62
     7
 10
1578.306624988
 20
674.8124067168
 30
0.0
  0
VERTEX
  5
6DC
  8
0
  6
CONTINUOUS
 62
     7
 10
1578.459521043
 20
674.7607661137
 30
0.0
  0
VERTEX
  5
6DD
  8
0
  6
CONTINUOUS
 62
     7
 10
1578.6126390424
 20
674.7104266627
 30
0.0
  0
VERTEX
  5
6DE
  8
0
  6
CONTINUOUS
 62
     7
 10
1578.765972999
 20
674.6613898998
 30
0.0
  0
VERTEX
  5
6DF
  8
0
  6
CONTINUOUS
 62
     7
 10
1578.9195232405
 20
674.6136552242
 30
0.0
  0
VERTEX
  5
6E0
  8
0
  6
CONTINUOUS
 62
     7
 10
1579.0732900949
 20
674.5672220353
 30
0.0
  0
VERTEX
  5
6E1
  8
0
  6
CONTINUOUS
 62
     7
 10
1579.22727389
 20
674.5220897325
 30
0.0
  0
VERTEX
  5
6E2
  8
0
  6
CONTINUOUS
 62
     7
 10
1579.3814749534
 20
674.4782577149
 30
0.0
  0
VERTEX
  5
6E3
  8
0
  6
CONTINUOUS
 62
     7
 10
1579.5358936132
 20
674.4357253821
 30
0.0
  0
VERTEX
  5
6E4
  8
0
  6
CONTINUOUS
 62
     7
 10
1579.6905301971
 20
674.3944921333
 30
0.0
  0
VERTEX
  5
6E5
  8
0
  6
CONTINUOUS
 62
     7
 10
1579.8453850329
 20
674.3545573678
 30
0.0
  0
VERTEX
  5
6E6
  8
0
  6
CONTINUOUS
 62
     7
 10
1580.0004584484
 20
674.3159204849
 30
0.0
  0
VERTEX
  5
6E7
  8
0
  6
CONTINUOUS
 62
     7
 10
1580.1557507715
 20
674.2785808841
 30
0.0
  0
VERTEX
  5
6E8
  8
0
  6
CONTINUOUS
 62
     7
 10
1580.31126233
 20
674.2425379646
 30
0.0
  0
VERTEX
  5
6E9
  8
0
  6
CONTINUOUS
 62
     7
 10
1580.4669934516
 20
674.2077911258
 30
0.0
  0
VERTEX
  5
6EA
  8
0
  6
CONTINUOUS
 62
     7
 10
1580.6229444643
 20
674.1743397669
 30
0.0
  0
VERTEX
  5
6EB
  8
0
  6
CONTINUOUS
 62
     7
 10
1580.7791156959
 20
674.1421832873
 30
0.0
  0
VERTEX
  5
6EC
  8
0
  6
CONTINUOUS
 62
     7
 10
1580.935507474
 20
674.1113210864
 30
0.0
  0
VERTEX
  5
6ED
  8
0
  6
CONTINUOUS
 62
     7
 10
1581.0921201267
 20
674.0817525635
 30
0.0
  0
VERTEX
  5
6EE
  8
0
  6
CONTINUOUS
 62
     7
 10
1581.2489539817
 20
674.0534771179
 30
0.0
  0
VERTEX
  5
6EF
  8
0
  6
CONTINUOUS
 62
     7
 10
1581.4060093668
 20
674.0264941489
 30
0.0
  0
VERTEX
  5
6F0
  8
0
  6
CONTINUOUS
 62
     7
 10
1581.5632866098
 20
674.0008030558
 30
0.0
  0
VERTEX
  5
6F1
  8
0
  6
CONTINUOUS
 62
     7
 10
1581.7207860386
 20
673.9764032381
 30
0.0
  0
VERTEX
  5
6F2
  8
0
  6
CONTINUOUS
 62
     7
 10
1581.8785079803
 20
673.953294095
 30
0.0
  0
VERTEX
  5
6F3
  8
0
  6
CONTINUOUS
 62
     7
 10
1582.0364511228
 20
673.931475028
 30
0.0
  0
VERTEX
  5
6F4
  8
0
  6
CONTINUOUS
 62
     7
 10
1582.1946089958
 20
673.9109454454
 30
0.0
  0
VERTEX
  5
6F5
  8
0
  6
CONTINUOUS
 62
     7
 10
1582.3529741172
 20
673.8917047568
 30
0.0
  0
VERTEX
  5
6F6
  8
0
  6
CONTINUOUS
 62
     7
 10
1582.5115390044
 20
673.873752372
 30
0.0
  0
VERTEX
  5
6F7
  8
0
  6
CONTINUOUS
 62
     7
 10
1582.6702961752
 20
673.8570877005
 30
0.0
  0
VERTEX
  5
6F8
  8
0
  6
CONTINUOUS
 62
     7
 10
1582.8292381474
 20
673.8417101519
 30
0.0
  0
VERTEX
  5
6F9
  8
0
  6
CONTINUOUS
 62
     7
 10
1582.9883574385
 20
673.827619136
 30
0.0
  0
VERTEX
  5
6FA
  8
0
  6
CONTINUOUS
 62
     7
 10
1583.1476465663
 20
673.8148140623
 30
0.0
  0
VERTEX
  5
6FB
  8
0
  6
CONTINUOUS
 62
     7
 10
1583.3070980484
 20
673.8032943405
 30
0.0
  0
VERTEX
  5
6FC
  8
0
  6
CONTINUOUS
 62
     7
 10
1583.4667044148
 20
673.7930593803
 30
0.0
  0
VERTEX
  5
6FD
  8
0
  6
CONTINUOUS
 62
     7
 10
1583.6264610073
 20
673.7841087333
 30
0.0
  0
VERTEX
  5
6FE
  8
0
  6
CONTINUOUS
 62
     7
 10
1583.7864552327
 20
673.7764601089
 30
0.0
  0
VERTEX
  5
6FF
  8
0
  6
CONTINUOUS
 62
     7
 10
1583.9467132891
 20
673.7701254372
 30
0.0
  0
VERTEX
  5
700
  8
0
  6
CONTINUOUS
 62
     7
 10
1584.1071842008
 20
673.7651033911
 30
0.0
  0
VERTEX
  5
701
  8
0
  6
CONTINUOUS
 62
     7
 10
1584.2678169922
 20
673.7613926436
 30
0.0
  0
VERTEX
  5
702
  8
0
  6
CONTINUOUS
 62
     7
 10
1584.4285606878
 20
673.7589918676
 30
0.0
  0
VERTEX
  5
703
  8
0
  6
CONTINUOUS
 62
     7
 10
1584.5893643118
 20
673.7578997362
 30
0.0
  0
VERTEX
  5
704
  8
0
  6
CONTINUOUS
 62
     7
 10
1584.7501768887
 20
673.7581149223
 30
0.0
  0
VERTEX
  5
705
  8
0
  6
CONTINUOUS
 62
     7
 10
1584.9109474429
 20
673.7596360989
 30
0.0
  0
VERTEX
  5
706
  8
0
  6
CONTINUOUS
 62
     7
 10
1585.0716249986
 20
673.7624619389
 30
0.0
  0
VERTEX
  5
707
  8
0
  6
CONTINUOUS
 62
     7
 10
1585.2321585804
 20
673.7665911154
 30
0.0
  0
VERTEX
  5
708
  8
0
  6
CONTINUOUS
 62
     7
 10
1585.3924972126
 20
673.7720223013
 30
0.0
  0
VERTEX
  5
709
  8
0
  6
CONTINUOUS
 62
     7
 10
1585.5525952784
 20
673.7787543612
 30
0.0
  0
VERTEX
  5
70A
  8
0
  6
CONTINUOUS
 62
     7
 10
1585.7124410388
 20
673.7867873712
 30
0.0
  0
VERTEX
  5
70B
  8
0
  6
CONTINUOUS
 62
     7
 10
1585.8720359564
 20
673.7961218796
 30
0.0
  0
VERTEX
  5
70C
  8
0
  6
CONTINUOUS
 62
     7
 10
1586.0313815235
 20
673.8067584357
 30
0.0
  0
VERTEX
  5
70D
  8
0
  6
CONTINUOUS
 62
     7
 10
1586.1904792325
 20
673.8186975887
 30
0.0
  0
VERTEX
  5
70E
  8
0
  6
CONTINUOUS
 62
     7
 10
1586.3493305758
 20
673.831939888
 30
0.0
  0
VERTEX
  5
70F
  8
0
  6
CONTINUOUS
 62
     7
 10
1586.5079370456
 20
673.8464858829
 30
0.0
  0
VERTEX
  5
710
  8
0
  6
CONTINUOUS
 62
     7
 10
1586.6663001343
 20
673.8623361226
 30
0.0
  0
VERTEX
  5
711
  8
0
  6
CONTINUOUS
 62
     7
 10
1586.8244213344
 20
673.8794911564
 30
0.0
  0
VERTEX
  5
712
  8
0
  6
CONTINUOUS
 62
     7
 10
1586.9823021381
 20
673.8979515337
 30
0.0
  0
VERTEX
  5
713
  8
0
  6
CONTINUOUS
 62
     7
 10
1587.1399440377
 20
673.9177178037
 30
0.0
  0
VERTEX
  5
714
  8
0
  6
CONTINUOUS
 62
     7
 10
1587.2973485257
 20
673.9387905158
 30
0.0
  0
VERTEX
  5
715
  8
0
  6
CONTINUOUS
 62
     7
 10
1587.4545170944
 20
673.9611702191
 30
0.0
  0
VERTEX
  5
716
  8
0
  6
CONTINUOUS
 62
     7
 10
1587.6114512362
 20
673.9848574631
 30
0.0
  0
VERTEX
  5
717
  8
0
  6
CONTINUOUS
 62
     7
 10
1587.7681524433
 20
674.009852797
 30
0.0
  0
VERTEX
  5
718
  8
0
  6
CONTINUOUS
 62
     7
 10
1587.9246222081
 20
674.0361567701
 30
0.0
  0
VERTEX
  5
719
  8
0
  6
CONTINUOUS
 62
     7
 10
1588.080862023
 20
674.0637699317
 30
0.0
  0
VERTEX
  5
71A
  8
0
  6
CONTINUOUS
 62
     7
 10
1588.2368731262
 20
674.0926927266
 30
0.0
  0
VERTEX
  5
71B
  8
0
  6
CONTINUOUS
 62
     7
 10
1588.3926532123
 20
674.1229241421
 30
0.0
  0
VERTEX
  5
71C
  8
0
  6
CONTINUOUS
 62
     7
 10
1588.5481973761
 20
674.1544620964
 30
0.0
  0
VERTEX
  5
71D
  8
0
  6
CONTINUOUS
 62
     7
 10
1588.7035006522
 20
674.1873044829
 30
0.0
  0
VERTEX
  5
71E
  8
0
  6
CONTINUOUS
 62
     7
 10
1588.8585580753
 20
674.2214491948
 30
0.0
  0
VERTEX
  5
71F
  8
0
  6
CONTINUOUS
 62
     7
 10
1589.0133646801
 20
674.2568941257
 30
0.0
  0
VERTEX
  5
720
  8
0
  6
CONTINUOUS
 62
     7
 10
1589.1679155013
 20
674.293637169
 30
0.0
  0
VERTEX
  5
721
  8
0
  6
CONTINUOUS
 62
     7
 10
1589.3222055736
 20
674.3316762179
 30
0.0
  0
VERTEX
  5
722
  8
0
  6
CONTINUOUS
 62
     7
 10
1589.4762299316
 20
674.3710091661
 30
0.0
  0
VERTEX
  5
723
  8
0
  6
CONTINUOUS
 62
     7
 10
1589.62998361
 20
674.4116339067
 30
0.0
  0
VERTEX
  5
724
  8
0
  6
CONTINUOUS
 62
     7
 10
1589.7834660585
 20
674.4535509453
 30
0.0
  0
VERTEX
  5
725
  8
0
  6
CONTINUOUS
 62
     7
 10
1589.9367148246
 20
674.4967833275
 30
0.0
  0
VERTEX
  5
726
  8
0
  6
CONTINUOUS
 62
     7
 10
1590.0897869339
 20
674.5413656228
 30
0.0
  0
VERTEX
  5
727
  8
0
  6
CONTINUOUS
 62
     7
 10
1590.2427395688
 20
674.5873324936
 30
0.0
  0
VERTEX
  5
728
  8
0
  6
CONTINUOUS
 62
     7
 10
1590.3956299118
 20
674.6347186022
 30
0.0
  0
VERTEX
  5
729
  8
0
  6
CONTINUOUS
 62
     7
 10
1590.5485151454
 20
674.683558611
 30
0.0
  0
VERTEX
  5
72A
  8
0
  6
CONTINUOUS
 62
     7
 10
1590.7014524335
 20
674.7338871762
 30
0.0
  0
VERTEX
  5
72B
  8
0
  6
CONTINUOUS
 62
     7
 10
1590.8544870246
 20
674.7857350096
 30
0.0
  0
VERTEX
  5
72C
  8
0
  6
CONTINUOUS
 62
     7
 10
1591.0076317976
 20
674.8391221074
 30
0.0
  0
VERTEX
  5
72D
  8
0
  6
CONTINUOUS
 62
     7
 10
1591.160894187
 20
674.8940666635
 30
0.0
  0
VERTEX
  5
72E
  8
0
  6
CONTINUOUS
 62
     7
 10
1591.3142816274
 20
674.950586872
 30
0.0
  0
VERTEX
  5
72F
  8
0
  6
CONTINUOUS
 62
     7
 10
1591.4678015532
 20
675.0087009267
 30
0.0
  0
VERTEX
  5
730
  8
0
  6
CONTINUOUS
 62
     7
 10
1591.6214613989
 20
675.0684270215
 30
0.0
  0
VERTEX
  5
731
  8
0
  6
CONTINUOUS
 62
     7
 10
1591.7752685991
 20
675.1297833506
 30
0.0
  0
VERTEX
  5
732
  8
0
  6
CONTINUOUS
 62
     7
 10
1591.9292305882
 20
675.1927881076
 30
0.0
  0
VERTEX
  5
733
  8
0
  6
CONTINUOUS
 62
     7
 10
1592.0833548008
 20
675.2574594867
 30
0.0
  0
VERTEX
  5
734
  8
0
  6
CONTINUOUS
 62
     7
 10
1592.2376486712
 20
675.3238156817
 30
0.0
  0
VERTEX
  5
735
  8
0
  6
CONTINUOUS
 62
     7
 10
1592.3920115322
 20
675.3917840781
 30
0.0
  0
VERTEX
  5
736
  8
0
  6
CONTINUOUS
 62
     7
 10
1592.5458537955
 20
675.4608407535
 30
0.0
  0
VERTEX
  5
737
  8
0
  6
CONTINUOUS
 62
     7
 10
1592.6993152737
 20
675.531012045
 30
0.0
  0
VERTEX
  5
738
  8
0
  6
CONTINUOUS
 62
     7
 10
1592.8526365344
 20
675.6024451706
 30
0.0
  0
VERTEX
  5
739
  8
0
  6
CONTINUOUS
 62
     7
 10
1593.0060574667
 20
675.6752872972
 30
0.0
  0
VERTEX
  5
73A
  8
0
  6
CONTINUOUS
 62
     7
 10
1593.1598179599
 20
675.7496855917
 30
0.0
  0
VERTEX
  5
73B
  8
0
  6
CONTINUOUS
 62
     7
 10
1593.3141579032
 20
675.825787221
 30
0.0
  0
VERTEX
  5
73C
  8
0
  6
CONTINUOUS
 62
     7
 10
1593.4693171857
 20
675.903739352
 30
0.0
  0
VERTEX
  5
73D
  8
0
  6
CONTINUOUS
 62
     7
 10
1593.6255356968
 20
675.9836891516
 30
0.0
  0
VERTEX
  5
73E
  8
0
  6
CONTINUOUS
 62
     7
 10
1593.7830533255
 20
676.0657837868
 30
0.0
  0
VERTEX
  5
73F
  8
0
  6
CONTINUOUS
 62
     7
 10
1593.9421099611
 20
676.1501704244
 30
0.0
  0
VERTEX
  5
740
  8
0
  6
CONTINUOUS
 62
     7
 10
1594.1029454929
 20
676.2369962313
 30
0.0
  0
VERTEX
  5
741
  8
0
  6
CONTINUOUS
 62
     7
 10
1594.2657998099
 20
676.3264083745
 30
0.0
  0
VERTEX
  5
742
  8
0
  6
CONTINUOUS
 62
     7
 10
1594.4309128015
 20
676.4185540209
 30
0.0
  0
VERTEX
  5
743
  8
0
  6
CONTINUOUS
 62
     7
 10
1594.5985243568
 20
676.5135803374
 30
0.0
  0
VERTEX
  5
744
  8
0
  6
CONTINUOUS
 62
     7
 10
1594.768874365
 20
676.6116344908
 30
0.0
  0
VERTEX
  5
745
  8
0
  6
CONTINUOUS
 62
     7
 10
1594.9422027153
 20
676.7128636481
 30
0.0
  0
VERTEX
  5
746
  8
0
  6
CONTINUOUS
 62
     7
 10
1595.118749297
 20
676.8174149763
 30
0.0
  0
VERTEX
  5
747
  8
0
  6
CONTINUOUS
 62
     7
 10
1595.2987539993
 20
676.9254356421
 30
0.0
  0
VERTEX
  5
748
  8
0
  6
CONTINUOUS
 62
     7
 10
1595.4824567113
 20
677.0370728126
 30
0.0
  0
VERTEX
  5
749
  8
0
  6
CONTINUOUS
 62
     7
 10
1595.6699867368
 20
677.1523698829
 30
0.0
  0
VERTEX
  5
74A
  8
0
  6
CONTINUOUS
 62
     7
 10
1595.8587165851
 20
677.2688029989
 30
0.0
  0
VERTEX
  5
74B
  8
0
  6
CONTINUOUS
 62
     7
 10
1596.0474455447
 20
677.3852377388
 30
0.0
  0
VERTEX
  5
74C
  8
0
  6
CONTINUOUS
 62
     7
 10
1596.236173621
 20
677.5016740931
 30
0.0
  0
VERTEX
  5
74D
  8
0
  6
CONTINUOUS
 62
     7
 10
1596.4249008192
 20
677.6181120526
 30
0.0
  0
VERTEX
  5
74E
  8
0
  6
CONTINUOUS
 62
     7
 10
1596.6136271445
 20
677.7345516081
 30
0.0
  0
VERTEX
  5
74F
  8
0
  6
CONTINUOUS
 62
     7
 10
1596.8023526022
 20
677.8509927503
 30
0.0
  0
VERTEX
  5
750
  8
0
  6
CONTINUOUS
 62
     7
 10
1596.9910771976
 20
677.9674354699
 30
0.0
  0
VERTEX
  5
751
  8
0
  6
CONTINUOUS
 62
     7
 10
1597.1798009359
 20
678.0838797576
 30
0.0
  0
VERTEX
  5
752
  8
0
  6
CONTINUOUS
 62
     7
 10
1597.3685238223
 20
678.2003256042
 30
0.0
  0
VERTEX
  5
753
  8
0
  6
CONTINUOUS
 62
     7
 10
1597.5572458622
 20
678.3167730004
 30
0.0
  0
VERTEX
  5
754
  8
0
  6
CONTINUOUS
 62
     7
 10
1597.7459670607
 20
678.4332219369
 30
0.0
  0
VERTEX
  5
755
  8
0
  6
CONTINUOUS
 62
     7
 10
1597.9346874231
 20
678.5496724045
 30
0.0
  0
VERTEX
  5
756
  8
0
  6
CONTINUOUS
 62
     7
 10
1598.1234069548
 20
678.6661243938
 30
0.0
  0
VERTEX
  5
757
  8
0
  6
CONTINUOUS
 62
     7
 10
1598.3121256608
 20
678.7825778957
 30
0.0
  0
VERTEX
  5
758
  8
0
  6
CONTINUOUS
 62
     7
 10
1598.5008435465
 20
678.8990329008
 30
0.0
  0
VERTEX
  5
759
  8
0
  6
CONTINUOUS
 62
     7
 10
1598.6895606172
 20
679.0154893999
 30
0.0
  0
VERTEX
  5
75A
  8
0
  6
CONTINUOUS
 62
     7
 10
1598.8782768781
 20
679.1319473836
 30
0.0
  0
VERTEX
  5
75B
  8
0
  6
CONTINUOUS
 62
     7
 10
1599.0669923344
 20
679.2484068428
 30
0.0
  0
VERTEX
  5
75C
  8
0
  6
CONTINUOUS
 62
     7
 10
1599.2557069914
 20
679.3648677682
 30
0.0
  0
VERTEX
  5
75D
  8
0
  6
CONTINUOUS
 62
     7
 10
1599.4444208543
 20
679.4813301504
 30
0.0
  0
VERTEX
  5
75E
  8
0
  6
CONTINUOUS
 62
     7
 10
1599.6331339285
 20
679.5977939803
 30
0.0
  0
VERTEX
  5
75F
  8
0
  6
CONTINUOUS
 62
     7
 10
1599.8218462191
 20
679.7142592485
 30
0.0
  0
VERTEX
  5
760
  8
0
  6
CONTINUOUS
 62
     7
 10
1600.0105577315
 20
679.8307259457
 30
0.0
  0
VERTEX
  5
761
  8
0
  6
CONTINUOUS
 62
     7
 10
1600.1992684708
 20
679.9471940628
 30
0.0
  0
VERTEX
  5
762
  8
0
  6
CONTINUOUS
 62
     7
 10
1600.3879784423
 20
680.0636635904
 30
0.0
  0
VERTEX
  5
763
  8
0
  6
CONTINUOUS
 62
     7
 10
1600.5766876513
 20
680.1801345193
 30
0.0
  0
VERTEX
  5
764
  8
0
  6
CONTINUOUS
 62
     7
 10
1600.765396103
 20
680.2966068401
 30
0.0
  0
VERTEX
  5
765
  8
0
  6
CONTINUOUS
 62
     7
 10
1600.9541038028
 20
680.4130805437
 30
0.0
  0
VERTEX
  5
766
  8
0
  6
CONTINUOUS
 62
     7
 10
1601.1428107557
 20
680.5295556207
 30
0.0
  0
VERTEX
  5
767
  8
0
  6
CONTINUOUS
 62
     7
 10
1601.3315169671
 20
680.6460320618
 30
0.0
  0
VERTEX
  5
768
  8
0
  6
CONTINUOUS
 62
     7
 10
1601.5202224423
 20
680.7625098579
 30
0.0
  0
VERTEX
  5
769
  8
0
  6
CONTINUOUS
 62
     7
 10
1601.7089271865
 20
680.8789889996
 30
0.0
  0
VERTEX
  5
76A
  8
0
  6
CONTINUOUS
 62
     7
 10
1601.8976312049
 20
680.9954694777
 30
0.0
  0
VERTEX
  5
76B
  8
0
  6
CONTINUOUS
 62
     7
 10
1602.0863345029
 20
681.1119512828
 30
0.0
  0
SEQEND
  5
D2B
  8
0
  6
CONTINUOUS
 62
     7
  0
POLYLINE
  5
219
  8
0
  6
CONTINUOUS
 62
     7
 66
     1
 10
0.0
 20
0.0
 30
0.0
  0
VERTEX
  5
76C
  8
0
  6
CONTINUOUS
 62
     7
 10
1572.3013887106
 20
710.8968970752
 30
0.0
  0
VERTEX
  5
76D
  8
0
  6
CONTINUOUS
 62
     7
 10
1572.1849069054
 20
710.7081937772
 30
0.0
  0
VERTEX
  5
76E
  8
0
  6
CONTINUOUS
 62
     7
 10
1572.0684264274
 20
710.5194897588
 30
0.0
  0
VERTEX
  5
76F
  8
0
  6
CONTINUOUS
 62
     7
 10
1571.9519472857
 20
710.3307850146
 30
0.0
  0
VERTEX
  5
770
  8
0
  6
CONTINUOUS
 62
     7
 10
1571.8354694896
 20
710.1420795394
 30
0.0
  0
VERTEX
  5
771
  8
0
  6
CONTINUOUS
 62
     7
 10
1571.7189930484
 20
709.953373328
 30
0.0
  0
VERTEX
  5
772
  8
0
  6
CONTINUOUS
 62
     7
 10
1571.6025179714
 20
709.7646663751
 30
0.0
  0
VERTEX
  5
773
  8
0
  6
CONTINUOUS
 62
     7
 10
1571.4860442679
 20
709.5759586753
 30
0.0
  0
VERTEX
  5
774
  8
0
  6
CONTINUOUS
 62
     7
 10
1571.369571947
 20
709.3872502236
 30
0.0
  0
VERTEX
  5
775
  8
0
  6
CONTINUOUS
 62
     7
 10
1571.2531010182
 20
709.1985410146
 30
0.0
  0
VERTEX
  5
776
  8
0
  6
CONTINUOUS
 62
     7
 10
1571.1366314906
 20
709.0098310431
 30
0.0
  0
VERTEX
  5
777
  8
0
  6
CONTINUOUS
 62
     7
 10
1571.0201633735
 20
708.8211203038
 30
0.0
  0
VERTEX
  5
778
  8
0
  6
CONTINUOUS
 62
     7
 10
1570.9036966763
 20
708.6324087915
 30
0.0
  0
VERTEX
  5
779
  8
0
  6
CONTINUOUS
 62
     7
 10
1570.7872314081
 20
708.4436965008
 30
0.0
  0
VERTEX
  5
77A
  8
0
  6
CONTINUOUS
 62
     7
 10
1570.6707675782
 20
708.2549834267
 30
0.0
  0
VERTEX
  5
77B
  8
0
  6
CONTINUOUS
 62
     7
 10
1570.554305196
 20
708.0662695637
 30
0.0
  0
VERTEX
  5
77C
  8
0
  6
CONTINUOUS
 62
     7
 10
1570.4378442706
 20
707.8775549067
 30
0.0
  0
VERTEX
  5
77D
  8
0
  6
CONTINUOUS
 62
     7
 10
1570.3213848115
 20
707.6888394504
 30
0.0
  0
VERTEX
  5
77E
  8
0
  6
CONTINUOUS
 62
     7
 10
1570.2049268277
 20
707.5001231896
 30
0.0
  0
VERTEX
  5
77F
  8
0
  6
CONTINUOUS
 62
     7
 10
1570.0884703286
 20
707.3114061189
 30
0.0
  0
VERTEX
  5
780
  8
0
  6
CONTINUOUS
 62
     7
 10
1569.9720153235
 20
707.1226882332
 30
0.0
  0
VERTEX
  5
781
  8
0
  6
CONTINUOUS
 62
     7
 10
1569.8555618217
 20
706.9339695271
 30
0.0
  0
VERTEX
  5
782
  8
0
  6
CONTINUOUS
 62
     7
 10
1569.7391098323
 20
706.7452499955
 30
0.0
  0
VERTEX
  5
783
  8
0
  6
CONTINUOUS
 62
     7
 10
1569.6226593647
 20
706.5565296331
 30
0.0
  0
VERTEX
  5
784
  8
0
  6
CONTINUOUS
 62
     7
 10
1569.5062104282
 20
706.3678084346
 30
0.0
  0
VERTEX
  5
785
  8
0
  6
CONTINUOUS
 62
     7
 10
1569.389763032
 20
706.1790863947
 30
0.0
  0
VERTEX
  5
786
  8
0
  6
CONTINUOUS
 62
     7
 10
1569.2733171855
 20
705.9903635083
 30
0.0
  0
VERTEX
  5
787
  8
0
  6
CONTINUOUS
 62
     7
 10
1569.1568728977
 20
705.80163977
 30
0.0
  0
VERTEX
  5
788
  8
0
  6
CONTINUOUS
 62
     7
 10
1569.0404301781
 20
705.6129151746
 30
0.0
  0
VERTEX
  5
789
  8
0
  6
CONTINUOUS
 62
     7
 10
1568.923989036
 20
705.4241897169
 30
0.0
  0
VERTEX
  5
78A
  8
0
  6
CONTINUOUS
 62
     7
 10
1568.8075494805
 20
705.2354633916
 30
0.0
  0
VERTEX
  5
78B
  8
0
  6
CONTINUOUS
 62
     7
 10
1568.6911115209
 20
705.0467361934
 30
0.0
  0
VERTEX
  5
78C
  8
0
  6
CONTINUOUS
 62
     7
 10
1568.5746751666
 20
704.8580081172
 30
0.0
  0
VERTEX
  5
78D
  8
0
  6
CONTINUOUS
 62
     7
 10
1568.4582404268
 20
704.6692791575
 30
0.0
  0
VERTEX
  5
78E
  8
0
  6
CONTINUOUS
 62
     7
 10
1568.3418073108
 20
704.4805493093
 30
0.0
  0
VERTEX
  5
78F
  8
0
  6
CONTINUOUS
 62
     7
 10
1568.2265102404
 20
704.2930192838
 30
0.0
  0
VERTEX
  5
790
  8
0
  6
CONTINUOUS
 62
     7
 10
1568.11487307
 20
704.1093165718
 30
0.0
  0
VERTEX
  5
791
  8
0
  6
CONTINUOUS
 62
     7
 10
1568.0068524041
 20
703.9293118695
 30
0.0
  0
VERTEX
  5
792
  8
0
  6
CONTINUOUS
 62
     7
 10
1567.902301076
 20
703.7527652878
 30
0.0
  0
VERTEX
  5
793
  8
0
  6
CONTINUOUS
 62
     7
 10
1567.8010719187
 20
703.5794369374
 30
0.0
  0
VERTEX
  5
794
  8
0
  6
CONTINUOUS
 62
     7
 10
1567.7030177652
 20
703.4090869292
 30
0.0
  0
VERTEX
  5
795
  8
0
  6
CONTINUOUS
 62
     7
 10
1567.6079914488
 20
703.2414753739
 30
0.0
  0
VERTEX
  5
796
  8
0
  6
CONTINUOUS
 62
     7
 10
1567.5158458024
 20
703.0763623824
 30
0.0
  0
VERTEX
  5
797
  8
0
  6
CONTINUOUS
 62
     7
 10
1567.4264336592
 20
702.9135080653
 30
0.0
  0
VERTEX
  5
798
  8
0
  6
CONTINUOUS
 62
     7
 10
1567.3396078522
 20
702.7526725336
 30
0.0
  0
VERTEX
  5
799
  8
0
  6
CONTINUOUS
 62
     7
 10
1567.2552212146
 20
702.593615898
 30
0.0
  0
VERTEX
  5
79A
  8
0
  6
CONTINUOUS
 62
     7
 10
1567.1731265795
 20
702.4360982692
 30
0.0
  0
VERTEX
  5
79B
  8
0
  6
CONTINUOUS
 62
     7
 10
1567.0931767798
 20
702.2798797582
 30
0.0
  0
VERTEX
  5
79C
  8
0
  6
CONTINUOUS
 62
     7
 10
1567.0152246488
 20
702.1247204756
 30
0.0
  0
VERTEX
  5
79D
  8
0
  6
CONTINUOUS
 62
     7
 10
1566.9391230195
 20
701.9703805324
 30
0.0
  0
VERTEX
  5
79E
  8
0
  6
CONTINUOUS
 62
     7
 10
1566.8647247251
 20
701.8166200392
 30
0.0
  0
VERTEX
  5
79F
  8
0
  6
CONTINUOUS
 62
     7
 10
1566.7918825985
 20
701.6631991069
 30
0.0
  0
VERTEX
  5
7A0
  8
0
  6
CONTINUOUS
 62
     7
 10
1566.7204494729
 20
701.5098778462
 30
0.0
  0
VERTEX
  5
7A1
  8
0
  6
CONTINUOUS
 62
     7
 10
1566.6502781814
 20
701.356416368
 30
0.0
  0
VERTEX
  5
7A2
  8
0
  6
CONTINUOUS
 62
     7
 10
1566.5812215059
 20
701.2025741047
 30
0.0
  0
VERTEX
  5
7A3
  8
0
  6
CONTINUOUS
 62
     7
 10
1566.5132531096
 20
701.0482112437
 30
0.0
  0
VERTEX
  5
7A4
  8
0
  6
CONTINUOUS
 62
     7
 10
1566.4468969145
 20
700.8939173733
 30
0.0
  0
VERTEX
  5
7A5
  8
0
  6
CONTINUOUS
 62
     7
 10
1566.3822255355
 20
700.7397931607
 30
0.0
  0
VERTEX
  5
7A6
  8
0
  6
CONTINUOUS
 62
     7
 10
1566.3192207784
 20
700.5858311716
 30
0.0
  0
VERTEX
  5
7A7
  8
0
  6
CONTINUOUS
 62
     7
 10
1566.2578644494
 20
700.4320239715
 30
0.0
  0
VERTEX
  5
7A8
  8
0
  6
CONTINUOUS
 62
     7
 10
1566.1981383545
 20
700.2783641257
 30
0.0
  0
VERTEX
  5
7A9
  8
0
  6
CONTINUOUS
 62
     7
 10
1566.1400242998
 20
700.1248441999
 30
0.0
  0
VERTEX
  5
7AA
  8
0
  6
CONTINUOUS
 62
     7
 10
1566.0835040914
 20
699.9714567596
 30
0.0
  0
VERTEX
  5
7AB
  8
0
  6
CONTINUOUS
 62
     7
 10
1566.0285595352
 20
699.8181943701
 30
0.0
  0
VERTEX
  5
7AC
  8
0
  6
CONTINUOUS
 62
     7
 10
1565.9751724374
 20
699.6650495971
 30
0.0
  0
VERTEX
  5
7AD
  8
0
  6
CONTINUOUS
 62
     7
 10
1565.923324604
 20
699.512015006
 30
0.0
  0
VERTEX
  5
7AE
  8
0
  6
CONTINUOUS
 62
     7
 10
1565.8729960388
 20
699.3590777179
 30
0.0
  0
VERTEX
  5
7AF
  8
0
  6
CONTINUOUS
 62
     7
 10
1565.8241560301
 20
699.2061924844
 30
0.0
  0
VERTEX
  5
7B0
  8
0
  6
CONTINUOUS
 62
     7
 10
1565.7767699215
 20
699.0533021413
 30
0.0
  0
VERTEX
  5
7B1
  8
0
  6
CONTINUOUS
 62
     7
 10
1565.7308030507
 20
698.9003495064
 30
0.0
  0
VERTEX
  5
7B2
  8
0
  6
CONTINUOUS
 62
     7
 10
1565.6862207554
 20
698.7472773972
 30
0.0
  0
VERTEX
  5
7B3
  8
0
  6
CONTINUOUS
 62
     7
 10
1565.6429883732
 20
698.5940286311
 30
0.0
  0
VERTEX
  5
7B4
  8
0
  6
CONTINUOUS
 62
     7
 10
1565.6010713345
 20
698.4405461826
 30
0.0
  0
VERTEX
  5
7B5
  8
0
  6
CONTINUOUS
 62
     7
 10
1565.5604465939
 20
698.2867925042
 30
0.0
  0
VERTEX
  5
7B6
  8
0
  6
CONTINUOUS
 62
     7
 10
1565.5211136458
 20
698.1327681462
 30
0.0
  0
VERTEX
  5
7B7
  8
0
  6
CONTINUOUS
 62
     7
 10
1565.4830745968
 20
697.9784780739
 30
0.0
  0
VERTEX
  5
7B8
  8
0
  6
CONTINUOUS
 62
     7
 10
1565.4463315536
 20
697.8239272527
 30
0.0
  0
VERTEX
  5
7B9
  8
0
  6
CONTINUOUS
 62
     7
 10
1565.4108866226
 20
697.6691206479
 30
0.0
  0
VERTEX
  5
7BA
  8
0
  6
CONTINUOUS
 62
     7
 10
1565.3767419107
 20
697.5140632248
 30
0.0
  0
VERTEX
  5
7BB
  8
0
  6
CONTINUOUS
 62
     7
 10
1565.3438995243
 20
697.3587599487
 30
0.0
  0
VERTEX
  5
7BC
  8
0
  6
CONTINUOUS
 62
     7
 10
1565.31236157
 20
697.2032157849
 30
0.0
  0
VERTEX
  5
7BD
  8
0
  6
CONTINUOUS
 62
     7
 10
1565.2821301544
 20
697.0474356988
 30
0.0
  0
VERTEX
  5
7BE
  8
0
  6
CONTINUOUS
 62
     7
 10
1565.2532073596
 20
696.8914245956
 30
0.0
  0
VERTEX
  5
7BF
  8
0
  6
CONTINUOUS
 62
     7
 10
1565.2255941979
 20
696.7351847807
 30
0.0
  0
VERTEX
  5
7C0
  8
0
  6
CONTINUOUS
 62
     7
 10
1565.1992902248
 20
696.5787150159
 30
0.0
  0
VERTEX
  5
7C1
  8
0
  6
CONTINUOUS
 62
     7
 10
1565.1742948909
 20
696.4220138088
 30
0.0
  0
VERTEX
  5
7C2
  8
0
  6
CONTINUOUS
 62
     7
 10
1565.1506076469
 20
696.2650796671
 30
0.0
  0
VERTEX
  5
7C3
  8
0
  6
CONTINUOUS
 62
     7
 10
1565.1282279436
 20
696.1079110984
 30
0.0
  0
VERTEX
  5
7C4
  8
0
  6
CONTINUOUS
 62
     7
 10
1565.1071552315
 20
695.9505066104
 30
0.0
  0
VERTEX
  5
7C5
  8
0
  6
CONTINUOUS
 62
     7
 10
1565.0873889615
 20
695.7928647107
 30
0.0
  0
VERTEX
  5
7C6
  8
0
  6
CONTINUOUS
 62
     7
 10
1565.0689285842
 20
695.6349839071
 30
0.0
  0
VERTEX
  5
7C7
  8
0
  6
CONTINUOUS
 62
     7
 10
1565.0517735504
 20
695.476862707
 30
0.0
  0
VERTEX
  5
7C8
  8
0
  6
CONTINUOUS
 62
     7
 10
1565.0359233107
 20
695.3184996183
 30
0.0
  0
VERTEX
  5
7C9
  8
0
  6
CONTINUOUS
 62
     7
 10
1565.0213773158
 20
695.1598931484
 30
0.0
  0
VERTEX
  5
7CA
  8
0
  6
CONTINUOUS
 62
     7
 10
1565.0081350165
 20
695.0010418052
 30
0.0
  0
VERTEX
  5
7CB
  8
0
  6
CONTINUOUS
 62
     7
 10
1564.9961958635
 20
694.8419440962
 30
0.0
  0
VERTEX
  5
7CC
  8
0
  6
CONTINUOUS
 62
     7
 10
1564.9855593074
 20
694.6825985291
 30
0.0
  0
VERTEX
  5
7CD
  8
0
  6
CONTINUOUS
 62
     7
 10
1564.976224799
 20
694.5230036115
 30
0.0
  0
VERTEX
  5
7CE
  8
0
  6
CONTINUOUS
 62
     7
 10
1564.9681917889
 20
694.3631578511
 30
0.0
  0
VERTEX
  5
7CF
  8
0
  6
CONTINUOUS
 62
     7
 10
1564.961459729
 20
694.2030597854
 30
0.0
  0
VERTEX
  5
7D0
  8
0
  6
CONTINUOUS
 62
     7
 10
1564.9560285432
 20
694.0427211532
 30
0.0
  0
VERTEX
  5
7D1
  8
0
  6
CONTINUOUS
 62
     7
 10
1564.9518993667
 20
693.8821875714
 30
0.0
  0
VERTEX
  5
7D2
  8
0
  6
CONTINUOUS
 62
     7
 10
1564.9490735266
 20
693.7215100156
 30
0.0
  0
VERTEX
  5
7D3
  8
0
  6
CONTINUOUS
 62
     7
 10
1564.9475523501
 20
693.5607394614
 30
0.0
  0
VERTEX
  5
7D4
  8
0
  6
CONTINUOUS
 62
     7
 10
1564.947337164
 20
693.3999268845
 30
0.0
  0
VERTEX
  5
7D5
  8
0
  6
CONTINUOUS
 62
     7
 10
1564.9484292954
 20
693.2391232605
 30
0.0
  0
VERTEX
  5
7D6
  8
0
  6
CONTINUOUS
 62
     7
 10
1564.9508300713
 20
693.078379565
 30
0.0
  0
VERTEX
  5
7D7
  8
0
  6
CONTINUOUS
 62
     7
 10
1564.9545408188
 20
692.9177467735
 30
0.0
  0
VERTEX
  5
7D8
  8
0
  6
CONTINUOUS
 62
     7
 10
1564.9595628649
 20
692.7572758618
 30
0.0
  0
VERTEX
  5
7D9
  8
0
  6
CONTINUOUS
 62
     7
 10
1564.9658975366
 20
692.5970178054
 30
0.0
  0
VERTEX
  5
7DA
  8
0
  6
CONTINUOUS
 62
     7
 10
1564.973546161
 20
692.43702358
 30
0.0
  0
VERTEX
  5
7DB
  8
0
  6
CONTINUOUS
 62
     7
 10
1564.982496808
 20
692.2772669875
 30
0.0
  0
VERTEX
  5
7DC
  8
0
  6
CONTINUOUS
 62
     7
 10
1564.9927317682
 20
692.1176606212
 30
0.0
  0
VERTEX
  5
7DD
  8
0
  6
CONTINUOUS
 62
     7
 10
1565.00425149
 20
691.9582091391
 30
0.0
  0
VERTEX
  5
7DE
  8
0
  6
CONTINUOUS
 62
     7
 10
1565.0170565637
 20
691.7989200113
 30
0.0
  0
VERTEX
  5
7DF
  8
0
  6
CONTINUOUS
 62
     7
 10
1565.0311475796
 20
691.6398007201
 30
0.0
  0
VERTEX
  5
7E0
  8
0
  6
CONTINUOUS
 62
     7
 10
1565.0465251282
 20
691.480858748
 30
0.0
  0
VERTEX
  5
7E1
  8
0
  6
CONTINUOUS
 62
     7
 10
1565.0631897997
 20
691.3221015772
 30
0.0
  0
VERTEX
  5
7E2
  8
0
  6
CONTINUOUS
 62
     7
 10
1565.0811421845
 20
691.1635366899
 30
0.0
  0
VERTEX
  5
7E3
  8
0
  6
CONTINUOUS
 62
     7
 10
1565.100382873
 20
691.0051715686
 30
0.0
  0
VERTEX
  5
7E4
  8
0
  6
CONTINUOUS
 62
     7
 10
1565.1209124556
 20
690.8470136956
 30
0.0
  0
VERTEX
  5
7E5
  8
0
  6
CONTINUOUS
 62
     7
 10
1565.1427315226
 20
690.6890705531
 30
0.0
  0
VERTEX
  5
7E6
  8
0
  6
CONTINUOUS
 62
     7
 10
1565.1658406657
 20
690.5313486114
 30
0.0
  0
VERTEX
  5
7E7
  8
0
  6
CONTINUOUS
 62
     7
 10
1565.1902404835
 20
690.3738491826
 30
0.0
  0
VERTEX
  5
7E8
  8
0
  6
CONTINUOUS
 62
     7
 10
1565.2159315765
 20
690.2165719396
 30
0.0
  0
VERTEX
  5
7E9
  8
0
  6
CONTINUOUS
 62
     7
 10
1565.2429145455
 20
690.0595165545
 30
0.0
  0
VERTEX
  5
7EA
  8
0
  6
CONTINUOUS
 62
     7
 10
1565.2711899911
 20
689.9026826995
 30
0.0
  0
VERTEX
  5
7EB
  8
0
  6
CONTINUOUS
 62
     7
 10
1565.3007585141
 20
689.7460700469
 30
0.0
  0
VERTEX
  5
7EC
  8
0
  6
CONTINUOUS
 62
     7
 10
1565.331620715
 20
689.5896782687
 30
0.0
  0
VERTEX
  5
7ED
  8
0
  6
CONTINUOUS
 62
     7
 10
1565.3637771945
 20
689.4335070371
 30
0.0
  0
VERTEX
  5
7EE
  8
0
  6
CONTINUOUS
 62
     7
 10
1565.3972285534
 20
689.2775560245
 30
0.0
  0
VERTEX
  5
7EF
  8
0
  6
CONTINUOUS
 62
     7
 10
1565.4319753922
 20
689.1218249028
 30
0.0
  0
VERTEX
  5
7F0
  8
0
  6
CONTINUOUS
 62
     7
 10
1565.4680183117
 20
688.9663133443
 30
0.0
  0
VERTEX
  5
7F1
  8
0
  6
CONTINUOUS
 62
     7
 10
1565.5053579126
 20
688.8110210212
 30
0.0
  0
VERTEX
  5
7F2
  8
0
  6
CONTINUOUS
 62
     7
 10
1565.5439947954
 20
688.6559476057
 30
0.0
  0
VERTEX
  5
7F3
  8
0
  6
CONTINUOUS
 62
     7
 10
1565.5839295609
 20
688.5010927699
 30
0.0
  0
VERTEX
  5
7F4
  8
0
  6
CONTINUOUS
 62
     7
 10
1565.6251628097
 20
688.3464561861
 30
0.0
  0
VERTEX
  5
7F5
  8
0
  6
CONTINUOUS
 62
     7
 10
1565.6676951425
 20
688.1920375263
 30
0.0
  0
VERTEX
  5
7F6
  8
0
  6
CONTINUOUS
 62
     7
 10
1565.71152716
 20
688.0378364628
 30
0.0
  0
VERTEX
  5
7F7
  8
0
  6
CONTINUOUS
 62
     7
 10
1565.7566594629
 20
687.8838526678
 30
0.0
  0
VERTEX
  5
7F8
  8
0
  6
CONTINUOUS
 62
     7
 10
1565.8030926518
 20
687.7300858134
 30
0.0
  0
VERTEX
  5
7F9
  8
0
  6
CONTINUOUS
 62
     7
 10
1565.8508273273
 20
687.5765355718
 30
0.0
  0
VERTEX
  5
7FA
  8
0
  6
CONTINUOUS
 62
     7
 10
1565.8998640903
 20
687.4232016153
 30
0.0
  0
VERTEX
  5
7FB
  8
0
  6
CONTINUOUS
 62
     7
 10
1565.9502035412
 20
687.2700836159
 30
0.0
  0
VERTEX
  5
7FC
  8
0
  6
CONTINUOUS
 62
     7
 10
1566.0018441443
 20
687.1171875608
 30
0.0
  0
VERTEX
  5
7FD
  8
0
  6
CONTINUOUS
 62
     7
 10
1566.0547105065
 20
686.9647365142
 30
0.0
  0
VERTEX
  5
7FE
  8
0
  6
CONTINUOUS
 62
     7
 10
1566.1087640302
 20
686.8128414088
 30
0.0
  0
VERTEX
  5
7FF
  8
0
  6
CONTINUOUS
 62
     7
 10
1566.1640035053
 20
686.6615021113
 30
0.0
  0
VERTEX
  5
800
  8
0
  6
CONTINUOUS
 62
     7
 10
1566.2204277217
 20
686.5107184886
 30
0.0
  0
VERTEX
  5
801
  8
0
  6
CONTINUOUS
 62
     7
 10
1566.2780354693
 20
686.3604904076
 30
0.0
  0
VERTEX
  5
802
  8
0
  6
CONTINUOUS
 62
     7
 10
1566.3368255378
 20
686.2108177351
 30
0.0
  0
VERTEX
  5
803
  8
0
  6
CONTINUOUS
 62
     7
 10
1566.3967958985
 20
686.0617033121
 30
0.0
  0
VERTEX
  5
804
  8
0
  6
CONTINUOUS
 62
     7
 10
1566.4579339872
 20
685.9131882328
 30
0.0
  0
VERTEX
  5
805
  8
0
  6
CONTINUOUS
 62
     7
 10
1566.5202347971
 20
685.7652860923
 30
0.0
  0
VERTEX
  5
806
  8
0
  6
CONTINUOUS
 62
     7
 10
1566.5836969094
 20
685.6179974468
 30
0.0
  0
VERTEX
  5
807
  8
0
  6
CONTINUOUS
 62
     7
 10
1566.6483189052
 20
685.4713228523
 30
0.0
  0
VERTEX
  5
808
  8
0
  6
CONTINUOUS
 62
     7
 10
1566.7140993655
 20
685.3252628647
 30
0.0
  0
VERTEX
  5
809
  8
0
  6
CONTINUOUS
 62
     7
 10
1566.7810368714
 20
685.1798180402
 30
0.0
  0
VERTEX
  5
80A
  8
0
  6
CONTINUOUS
 62
     7
 10
1566.8491300041
 20
685.0349889348
 30
0.0
  0
VERTEX
  5
80B
  8
0
  6
CONTINUOUS
 62
     7
 10
1566.9183773446
 20
684.8907761044
 30
0.0
  0
VERTEX
  5
80C
  8
0
  6
CONTINUOUS
 62
     7
 10
1566.988777474
 20
684.7471801052
 30
0.0
  0
VERTEX
  5
80D
  8
0
  6
CONTINUOUS
 62
     7
 10
1567.0603289734
 20
684.6042014932
 30
0.0
  0
VERTEX
  5
80E
  8
0
  6
CONTINUOUS
 62
     7
 10
1567.1330304239
 20
684.4618408243
 30
0.0
  0
VERTEX
  5
80F
  8
0
  6
CONTINUOUS
 62
     7
 10
1567.2068804065
 20
684.3200986548
 30
0.0
  0
VERTEX
  5
810
  8
0
  6
CONTINUOUS
 62
     7
 10
1567.2818775025
 20
684.1789755405
 30
0.0
  0
VERTEX
  5
811
  8
0
  6
CONTINUOUS
 62
     7
 10
1567.3580202928
 20
684.0384720375
 30
0.0
  0
VERTEX
  5
812
  8
0
  6
CONTINUOUS
 62
     7
 10
1567.4353073586
 20
683.8985887018
 30
0.0
  0
VERTEX
  5
813
  8
0
  6
CONTINUOUS
 62
     7
 10
1567.5137372809
 20
683.7593260896
 30
0.0
  0
VERTEX
  5
814
  8
0
  6
CONTINUOUS
 62
     7
 10
1567.5933086408
 20
683.6206847568
 30
0.0
  0
VERTEX
  5
815
  8
0
  6
CONTINUOUS
 62
     7
 10
1567.6740200195
 20
683.4826652594
 30
0.0
  0
VERTEX
  5
816
  8
0
  6
CONTINUOUS
 62
     7
 10
1567.755869998
 20
683.3452681535
 30
0.0
  0
VERTEX
  5
817
  8
0
  6
CONTINUOUS
 62
     7
 10
1567.8388571574
 20
683.2084939952
 30
0.0
  0
VERTEX
  5
818
  8
0
  6
CONTINUOUS
 62
     7
 10
1567.9229800788
 20
683.0723433404
 30
0.0
  0
VERTEX
  5
819
  8
0
  6
CONTINUOUS
 62
     7
 10
1568.0082373434
 20
682.9368167452
 30
0.0
  0
VERTEX
  5
81A
  8
0
  6
CONTINUOUS
 62
     7
 10
1568.0946275321
 20
682.8019147656
 30
0.0
  0
VERTEX
  5
81B
  8
0
  6
CONTINUOUS
 62
     7
 10
1568.182149226
 20
682.6676379577
 30
0.0
  0
VERTEX
  5
81C
  8
0
  6
CONTINUOUS
 62
     7
 10
1568.2708010064
 20
682.5339868775
 30
0.0
  0
VERTEX
  5
81D
  8
0
  6
CONTINUOUS
 62
     7
 10
1568.3605814542
 20
682.4009620811
 30
0.0
  0
VERTEX
  5
81E
  8
0
  6
CONTINUOUS
 62
     7
 10
1568.4514938664
 20
682.2685634476
 30
0.0
  0
VERTEX
  5
81F
  8
0
  6
CONTINUOUS
 62
     7
 10
1568.5435654142
 20
682.136791605
 30
0.0
  0
VERTEX
  5
820
  8
0
  6
CONTINUOUS
 62
     7
 10
1568.6367929245
 20
682.0056583593
 30
0.0
  0
VERTEX
  5
821
  8
0
  6
CONTINUOUS
 62
     7
 10
1568.7311692132
 20
681.875176505
 30
0.0
  0
VERTEX
  5
822
  8
0
  6
CONTINUOUS
 62
     7
 10
1568.8266898672
 20
681.7453592235
 30
0.0
  0
VERTEX
  5
823
  8
0
  6
CONTINUOUS
 62
     7
 10
1568.9233442498
 20
681.6162218576
 30
0.0
  0
VERTEX
  5
824
  8
0
  6
CONTINUOUS
 62
     7
 10
1569.0211213959
 20
681.4877798385
 30
0.0
  0
VERTEX
  5
825
  8
0
  6
CONTINUOUS
 62
     7
 10
1569.1200103404
 20
681.3600485975
 30
0.0
  0
VERTEX
  5
826
  8
0
  6
CONTINUOUS
 62
     7
 10
1569.2200001185
 20
681.2330435661
 30
0.0
  0
VERTEX
  5
827
  8
0
  6
CONTINUOUS
 62
     7
 10
1569.321079765
 20
681.1067801755
 30
0.0
  0
VERTEX
  5
828
  8
0
  6
CONTINUOUS
 62
     7
 10
1569.4232383149
 20
680.9812738572
 30
0.0
  0
VERTEX
  5
829
  8
0
  6
CONTINUOUS
 62
     7
 10
1569.5264648032
 20
680.8565400424
 30
0.0
  0
VERTEX
  5
82A
  8
0
  6
CONTINUOUS
 62
     7
 10
1569.6307482649
 20
680.7325941626
 30
0.0
  0
VERTEX
  5
82B
  8
0
  6
CONTINUOUS
 62
     7
 10
1569.7360777349
 20
680.609451649
 30
0.0
  0
VERTEX
  5
82C
  8
0
  6
CONTINUOUS
 62
     7
 10
1569.8424422482
 20
680.4871279331
 30
0.0
  0
VERTEX
  5
82D
  8
0
  6
CONTINUOUS
 62
     7
 10
1569.9498308397
 20
680.3656384461
 30
0.0
  0
VERTEX
  5
82E
  8
0
  6
CONTINUOUS
 62
     7
 10
1570.0582325445
 20
680.2449986195
 30
0.0
  0
VERTEX
  5
82F
  8
0
  6
CONTINUOUS
 62
     7
 10
1570.1676363975
 20
680.1252238846
 30
0.0
  0
VERTEX
  5
830
  8
0
  6
CONTINUOUS
 62
     7
 10
1570.2780314337
 20
680.0063296727
 30
0.0
  0
VERTEX
  5
831
  8
0
  6
CONTINUOUS
 62
     7
 10
1570.389406688
 20
679.8883314152
 30
0.0
  0
VERTEX
  5
832
  8
0
  6
CONTINUOUS
 62
     7
 10
1570.5017511954
 20
679.7712445434
 30
0.0
  0
VERTEX
  5
833
  8
0
  6
CONTINUOUS
 62
     7
 10
1570.615053991
 20
679.6550844887
 30
0.0
  0
VERTEX
  5
834
  8
0
  6
CONTINUOUS
 62
     7
 10
1570.7293041095
 20
679.5398666824
 30
0.0
  0
SEQEND
  5
D2C
  8
0
  6
CONTINUOUS
 62
     7
  0
POLYLINE
  5
21A
  8
0
  6
CONTINUOUS
 62
     7
 66
     1
 10
0.0
 20
0.0
 30
0.0
  0
VERTEX
  5
835
  8
0
  6
CONTINUOUS
 62
     7
 10
1305.8194903799
 20
679.5398666824
 30
0.0
  0
VERTEX
  5
836
  8
0
  6
CONTINUOUS
 62
     7
 10
1305.9337404985
 20
679.6550844887
 30
0.0
  0
VERTEX
  5
837
  8
0
  6
CONTINUOUS
 62
     7
 10
1306.047043294
 20
679.7712445434
 30
0.0
  0
VERTEX
  5
838
  8
0
  6
CONTINUOUS
 62
     7
 10
1306.1593878014
 20
679.8883314152
 30
0.0
  0
VERTEX
  5
839
  8
0
  6
CONTINUOUS
 62
     7
 10
1306.2707630557
 20
680.0063296727
 30
0.0
  0
VERTEX
  5
83A
  8
0
  6
CONTINUOUS
 62
     7
 10
1306.3811580919
 20
680.1252238846
 30
0.0
  0
VERTEX
  5
83B
  8
0
  6
CONTINUOUS
 62
     7
 10
1306.4905619449
 20
680.2449986195
 30
0.0
  0
VERTEX
  5
83C
  8
0
  6
CONTINUOUS
 62
     7
 10
1306.5989636497
 20
680.3656384461
 30
0.0
  0
VERTEX
  5
83D
  8
0
  6
CONTINUOUS
 62
     7
 10
1306.7063522412
 20
680.4871279331
 30
0.0
  0
VERTEX
  5
83E
  8
0
  6
CONTINUOUS
 62
     7
 10
1306.8127167545
 20
680.609451649
 30
0.0
  0
VERTEX
  5
83F
  8
0
  6
CONTINUOUS
 62
     7
 10
1306.9180462245
 20
680.7325941626
 30
0.0
  0
VERTEX
  5
840
  8
0
  6
CONTINUOUS
 62
     7
 10
1307.0223296862
 20
680.8565400424
 30
0.0
  0
VERTEX
  5
841
  8
0
  6
CONTINUOUS
 62
     7
 10
1307.1255561745
 20
680.9812738572
 30
0.0
  0
VERTEX
  5
842
  8
0
  6
CONTINUOUS
 62
     7
 10
1307.2277147244
 20
681.1067801755
 30
0.0
  0
VERTEX
  5
843
  8
0
  6
CONTINUOUS
 62
     7
 10
1307.3287943709
 20
681.2330435661
 30
0.0
  0
VERTEX
  5
844
  8
0
  6
CONTINUOUS
 62
     7
 10
1307.428784149
 20
681.3600485975
 30
0.0
  0
VERTEX
  5
845
  8
0
  6
CONTINUOUS
 62
     7
 10
1307.5276730936
 20
681.4877798385
 30
0.0
  0
VERTEX
  5
846
  8
0
  6
CONTINUOUS
 62
     7
 10
1307.6254502397
 20
681.6162218576
 30
0.0
  0
VERTEX
  5
847
  8
0
  6
CONTINUOUS
 62
     7
 10
1307.7221046222
 20
681.7453592236
 30
0.0
  0
VERTEX
  5
848
  8
0
  6
CONTINUOUS
 62
     7
 10
1307.8176252762
 20
681.875176505
 30
0.0
  0
VERTEX
  5
849
  8
0
  6
CONTINUOUS
 62
     7
 10
1307.9120015649
 20
682.0056583593
 30
0.0
  0
VERTEX
  5
84A
  8
0
  6
CONTINUOUS
 62
     7
 10
1308.0052290753
 20
682.136791605
 30
0.0
  0
VERTEX
  5
84B
  8
0
  6
CONTINUOUS
 62
     7
 10
1308.0973006231
 20
682.2685634476
 30
0.0
  0
VERTEX
  5
84C
  8
0
  6
CONTINUOUS
 62
     7
 10
1308.1882130352
 20
682.4009620811
 30
0.0
  0
VERTEX
  5
84D
  8
0
  6
CONTINUOUS
 62
     7
 10
1308.277993483
 20
682.5339868775
 30
0.0
  0
VERTEX
  5
84E
  8
0
  6
CONTINUOUS
 62
     7
 10
1308.3666452634
 20
682.6676379577
 30
0.0
  0
VERTEX
  5
84F
  8
0
  6
CONTINUOUS
 62
     7
 10
1308.4541669574
 20
682.8019147656
 30
0.0
  0
VERTEX
  5
850
  8
0
  6
CONTINUOUS
 62
     7
 10
1308.5405571461
 20
682.9368167452
 30
0.0
  0
VERTEX
  5
851
  8
0
  6
CONTINUOUS
 62
     7
 10
1308.6258144106
 20
683.0723433404
 30
0.0
  0
VERTEX
  5
852
  8
0
  6
CONTINUOUS
 62
     7
 10
1308.709937332
 20
683.2084939952
 30
0.0
  0
VERTEX
  5
853
  8
0
  6
CONTINUOUS
 62
     7
 10
1308.7929244914
 20
683.3452681535
 30
0.0
  0
VERTEX
  5
854
  8
0
  6
CONTINUOUS
 62
     7
 10
1308.8747744699
 20
683.4826652594
 30
0.0
  0
VERTEX
  5
855
  8
0
  6
CONTINUOUS
 62
     7
 10
1308.9554858486
 20
683.6206847568
 30
0.0
  0
VERTEX
  5
856
  8
0
  6
CONTINUOUS
 62
     7
 10
1309.0350572086
 20
683.7593260896
 30
0.0
  0
VERTEX
  5
857
  8
0
  6
CONTINUOUS
 62
     7
 10
1309.1134871309
 20
683.8985887018
 30
0.0
  0
VERTEX
  5
858
  8
0
  6
CONTINUOUS
 62
     7
 10
1309.1907741966
 20
684.0384720375
 30
0.0
  0
VERTEX
  5
859
  8
0
  6
CONTINUOUS
 62
     7
 10
1309.266916987
 20
684.1789755405
 30
0.0
  0
VERTEX
  5
85A
  8
0
  6
CONTINUOUS
 62
     7
 10
1309.3419140829
 20
684.3200986548
 30
0.0
  0
VERTEX
  5
85B
  8
0
  6
CONTINUOUS
 62
     7
 10
1309.4157640656
 20
684.4618408243
 30
0.0
  0
VERTEX
  5
85C
  8
0
  6
CONTINUOUS
 62
     7
 10
1309.4884655161
 20
684.6042014932
 30
0.0
  0
VERTEX
  5
85D
  8
0
  6
CONTINUOUS
 62
     7
 10
1309.5600170154
 20
684.7471801052
 30
0.0
  0
VERTEX
  5
85E
  8
0
  6
CONTINUOUS
 62
     7
 10
1309.6304171448
 20
684.8907761044
 30
0.0
  0
VERTEX
  5
85F
  8
0
  6
CONTINUOUS
 62
     7
 10
1309.6996644853
 20
685.0349889348
 30
0.0
  0
VERTEX
  5
860
  8
0
  6
CONTINUOUS
 62
     7
 10
1309.767757618
 20
685.1798180402
 30
0.0
  0
VERTEX
  5
861
  8
0
  6
CONTINUOUS
 62
     7
 10
1309.8346951239
 20
685.3252628647
 30
0.0
  0
VERTEX
  5
862
  8
0
  6
CONTINUOUS
 62
     7
 10
1309.9004755842
 20
685.4713228523
 30
0.0
  0
VERTEX
  5
863
  8
0
  6
CONTINUOUS
 62
     7
 10
1309.96509758
 20
685.6179974468
 30
0.0
  0
VERTEX
  5
864
  8
0
  6
CONTINUOUS
 62
     7
 10
1310.0285596923
 20
685.7652860923
 30
0.0
  0
VERTEX
  5
865
  8
0
  6
CONTINUOUS
 62
     7
 10
1310.0908605022
 20
685.9131882328
 30
0.0
  0
VERTEX
  5
866
  8
0
  6
CONTINUOUS
 62
     7
 10
1310.1519985909
 20
686.0617033121
 30
0.0
  0
VERTEX
  5
867
  8
0
  6
CONTINUOUS
 62
     7
 10
1310.2119689516
 20
686.2108177351
 30
0.0
  0
VERTEX
  5
868
  8
0
  6
CONTINUOUS
 62
     7
 10
1310.2707590201
 20
686.3604904076
 30
0.0
  0
VERTEX
  5
869
  8
0
  6
CONTINUOUS
 62
     7
 10
1310.3283667677
 20
686.5107184886
 30
0.0
  0
VERTEX
  5
86A
  8
0
  6
CONTINUOUS
 62
     7
 10
1310.3847909841
 20
686.6615021113
 30
0.0
  0
VERTEX
  5
86B
  8
0
  6
CONTINUOUS
 62
     7
 10
1310.4400304593
 20
686.8128414088
 30
0.0
  0
VERTEX
  5
86C
  8
0
  6
CONTINUOUS
 62
     7
 10
1310.494083983
 20
686.9647365142
 30
0.0
  0
VERTEX
  5
86D
  8
0
  6
CONTINUOUS
 62
     7
 10
1310.5469503451
 20
687.1171875608
 30
0.0
  0
VERTEX
  5
86E
  8
0
  6
CONTINUOUS
 62
     7
 10
1310.5985909482
 20
687.2700836159
 30
0.0
  0
VERTEX
  5
86F
  8
0
  6
CONTINUOUS
 62
     7
 10
1310.6489303992
 20
687.4232016153
 30
0.0
  0
VERTEX
  5
870
  8
0
  6
CONTINUOUS
 62
     7
 10
1310.6979671621
 20
687.5765355718
 30
0.0
  0
VERTEX
  5
871
  8
0
  6
CONTINUOUS
 62
     7
 10
1310.7457018377
 20
687.7300858134
 30
0.0
  0
VERTEX
  5
872
  8
0
  6
CONTINUOUS
 62
     7
 10
1310.7921350265
 20
687.8838526678
 30
0.0
  0
VERTEX
  5
873
  8
0
  6
CONTINUOUS
 62
     7
 10
1310.8372673294
 20
688.0378364628
 30
0.0
  0
VERTEX
  5
874
  8
0
  6
CONTINUOUS
 62
     7
 10
1310.8810993469
 20
688.1920375263
 30
0.0
  0
VERTEX
  5
875
  8
0
  6
CONTINUOUS
 62
     7
 10
1310.9236316797
 20
688.3464561861
 30
0.0
  0
VERTEX
  5
876
  8
0
  6
CONTINUOUS
 62
     7
 10
1310.9648649286
 20
688.5010927699
 30
0.0
  0
VERTEX
  5
877
  8
0
  6
CONTINUOUS
 62
     7
 10
1311.0047996941
 20
688.6559476057
 30
0.0
  0
VERTEX
  5
878
  8
0
  6
CONTINUOUS
 62
     7
 10
1311.0434365769
 20
688.8110210212
 30
0.0
  0
VERTEX
  5
879
  8
0
  6
CONTINUOUS
 62
     7
 10
1311.0807761777
 20
688.9663133443
 30
0.0
  0
VERTEX
  5
87A
  8
0
  6
CONTINUOUS
 62
     7
 10
1311.1168190972
 20
689.1218249028
 30
0.0
  0
VERTEX
  5
87B
  8
0
  6
CONTINUOUS
 62
     7
 10
1311.1515659361
 20
689.2775560245
 30
0.0
  0
VERTEX
  5
87C
  8
0
  6
CONTINUOUS
 62
     7
 10
1311.1850172949
 20
689.4335070371
 30
0.0
  0
VERTEX
  5
87D
  8
0
  6
CONTINUOUS
 62
     7
 10
1311.2171737745
 20
689.5896782687
 30
0.0
  0
VERTEX
  5
87E
  8
0
  6
CONTINUOUS
 62
     7
 10
1311.2480359754
 20
689.7460700469
 30
0.0
  0
VERTEX
  5
87F
  8
0
  6
CONTINUOUS
 62
     7
 10
1311.2776044983
 20
689.9026826995
 30
0.0
  0
VERTEX
  5
880
  8
0
  6
CONTINUOUS
 62
     7
 10
1311.3058799439
 20
690.0595165545
 30
0.0
  0
VERTEX
  5
881
  8
0
  6
CONTINUOUS
 62
     7
 10
1311.3328629129
 20
690.2165719396
 30
0.0
  0
VERTEX
  5
882
  8
0
  6
CONTINUOUS
 62
     7
 10
1311.3585540059
 20
690.3738491826
 30
0.0
  0
VERTEX
  5
883
  8
0
  6
CONTINUOUS
 62
     7
 10
1311.3829538237
 20
690.5313486114
 30
0.0
  0
VERTEX
  5
884
  8
0
  6
CONTINUOUS
 62
     7
 10
1311.4060629668
 20
690.6890705531
 30
0.0
  0
VERTEX
  5
885
  8
0
  6
CONTINUOUS
 62
     7
 10
1311.4278820338
 20
690.8470136956
 30
0.0
  0
VERTEX
  5
886
  8
0
  6
CONTINUOUS
 62
     7
 10
1311.4484116164
 20
691.0051715686
 30
0.0
  0
VERTEX
  5
887
  8
0
  6
CONTINUOUS
 62
     7
 10
1311.4676523049
 20
691.1635366899
 30
0.0
  0
VERTEX
  5
888
  8
0
  6
CONTINUOUS
 62
     7
 10
1311.4856046897
 20
691.3221015772
 30
0.0
  0
VERTEX
  5
889
  8
0
  6
CONTINUOUS
 62
     7
 10
1311.5022693613
 20
691.480858748
 30
0.0
  0
VERTEX
  5
88A
  8
0
  6
CONTINUOUS
 62
     7
 10
1311.5176469098
 20
691.6398007201
 30
0.0
  0
VERTEX
  5
88B
  8
0
  6
CONTINUOUS
 62
     7
 10
1311.5317379257
 20
691.7989200113
 30
0.0
  0
VERTEX
  5
88C
  8
0
  6
CONTINUOUS
 62
     7
 10
1311.5445429994
 20
691.9582091391
 30
0.0
  0
VERTEX
  5
88D
  8
0
  6
CONTINUOUS
 62
     7
 10
1311.5560627212
 20
692.1176606212
 30
0.0
  0
VERTEX
  5
88E
  8
0
  6
CONTINUOUS
 62
     7
 10
1311.5662976814
 20
692.2772669875
 30
0.0
  0
VERTEX
  5
88F
  8
0
  6
CONTINUOUS
 62
     7
 10
1311.5752483284
 20
692.43702358
 30
0.0
  0
VERTEX
  5
890
  8
0
  6
CONTINUOUS
 62
     7
 10
1311.5828969528
 20
692.5970178054
 30
0.0
  0
VERTEX
  5
891
  8
0
  6
CONTINUOUS
 62
     7
 10
1311.5892316245
 20
692.7572758618
 30
0.0
  0
VERTEX
  5
892
  8
0
  6
CONTINUOUS
 62
     7
 10
1311.5942536706
 20
692.9177467735
 30
0.0
  0
VERTEX
  5
893
  8
0
  6
CONTINUOUS
 62
     7
 10
1311.5979644181
 20
693.078379565
 30
0.0
  0
VERTEX
  5
894
  8
0
  6
CONTINUOUS
 62
     7
 10
1311.6003651941
 20
693.2391232605
 30
0.0
  0
VERTEX
  5
895
  8
0
  6
CONTINUOUS
 62
     7
 10
1311.6014573255
 20
693.3999268845
 30
0.0
  0
VERTEX
  5
896
  8
0
  6
CONTINUOUS
 62
     7
 10
1311.6012421394
 20
693.5607394614
 30
0.0
  0
VERTEX
  5
897
  8
0
  6
CONTINUOUS
 62
     7
 10
1311.5997209628
 20
693.7215100156
 30
0.0
  0
VERTEX
  5
898
  8
0
  6
CONTINUOUS
 62
     7
 10
1311.5968951227
 20
693.8821875714
 30
0.0
  0
VERTEX
  5
899
  8
0
  6
CONTINUOUS
 62
     7
 10
1311.5927659463
 20
694.0427211532
 30
0.0
  0
VERTEX
  5
89A
  8
0
  6
CONTINUOUS
 62
     7
 10
1311.5873347604
 20
694.2030597854
 30
0.0
  0
VERTEX
  5
89B
  8
0
  6
CONTINUOUS
 62
     7
 10
1311.5806027005
 20
694.3631578511
 30
0.0
  0
VERTEX
  5
89C
  8
0
  6
CONTINUOUS
 62
     7
 10
1311.5725696905
 20
694.5230036115
 30
0.0
  0
VERTEX
  5
89D
  8
0
  6
CONTINUOUS
 62
     7
 10
1311.563235182
 20
694.6825985291
 30
0.0
  0
VERTEX
  5
89E
  8
0
  6
CONTINUOUS
 62
     7
 10
1311.552598626
 20
694.8419440962
 30
0.0
  0
VERTEX
  5
89F
  8
0
  6
CONTINUOUS
 62
     7
 10
1311.5406594729
 20
695.0010418052
 30
0.0
  0
VERTEX
  5
8A0
  8
0
  6
CONTINUOUS
 62
     7
 10
1311.5274171736
 20
695.1598931484
 30
0.0
  0
VERTEX
  5
8A1
  8
0
  6
CONTINUOUS
 62
     7
 10
1311.5128711788
 20
695.3184996183
 30
0.0
  0
VERTEX
  5
8A2
  8
0
  6
CONTINUOUS
 62
     7
 10
1311.4970209391
 20
695.476862707
 30
0.0
  0
VERTEX
  5
8A3
  8
0
  6
CONTINUOUS
 62
     7
 10
1311.4798659052
 20
695.6349839071
 30
0.0
  0
VERTEX
  5
8A4
  8
0
  6
CONTINUOUS
 62
     7
 10
1311.4614055279
 20
695.7928647107
 30
0.0
  0
VERTEX
  5
8A5
  8
0
  6
CONTINUOUS
 62
     7
 10
1311.4416392579
 20
695.9505066104
 30
0.0
  0
VERTEX
  5
8A6
  8
0
  6
CONTINUOUS
 62
     7
 10
1311.4205665459
 20
696.1079110984
 30
0.0
  0
VERTEX
  5
8A7
  8
0
  6
CONTINUOUS
 62
     7
 10
1311.3981868425
 20
696.2650796671
 30
0.0
  0
VERTEX
  5
8A8
  8
0
  6
CONTINUOUS
 62
     7
 10
1311.3744995985
 20
696.4220138088
 30
0.0
  0
VERTEX
  5
8A9
  8
0
  6
CONTINUOUS
 62
     7
 10
1311.3495042646
 20
696.5787150159
 30
0.0
  0
VERTEX
  5
8AA
  8
0
  6
CONTINUOUS
 62
     7
 10
1311.3232002915
 20
696.7351847807
 30
0.0
  0
VERTEX
  5
8AB
  8
0
  6
CONTINUOUS
 62
     7
 10
1311.2955871299
 20
696.8914245956
 30
0.0
  0
VERTEX
  5
8AC
  8
0
  6
CONTINUOUS
 62
     7
 10
1311.266664335
 20
697.0474356988
 30
0.0
  0
VERTEX
  5
8AD
  8
0
  6
CONTINUOUS
 62
     7
 10
1311.2364329195
 20
697.2032157849
 30
0.0
  0
VERTEX
  5
8AE
  8
0
  6
CONTINUOUS
 62
     7
 10
1311.2048949652
 20
697.3587599487
 30
0.0
  0
VERTEX
  5
8AF
  8
0
  6
CONTINUOUS
 62
     7
 10
1311.1720525788
 20
697.5140632248
 30
0.0
  0
VERTEX
  5
8B0
  8
0
  6
CONTINUOUS
 62
     7
 10
1311.1379078668
 20
697.6691206479
 30
0.0
  0
VERTEX
  5
8B1
  8
0
  6
CONTINUOUS
 62
     7
 10
1311.1024629359
 20
697.8239272527
 30
0.0
  0
VERTEX
  5
8B2
  8
0
  6
CONTINUOUS
 62
     7
 10
1311.0657198926
 20
697.9784780739
 30
0.0
  0
VERTEX
  5
8B3
  8
0
  6
CONTINUOUS
 62
     7
 10
1311.0276808437
 20
698.1327681462
 30
0.0
  0
VERTEX
  5
8B4
  8
0
  6
CONTINUOUS
 62
     7
 10
1310.9883478955
 20
698.2867925042
 30
0.0
  0
VERTEX
  5
8B5
  8
0
  6
CONTINUOUS
 62
     7
 10
1310.9477231549
 20
698.4405461826
 30
0.0
  0
VERTEX
  5
8B6
  8
0
  6
CONTINUOUS
 62
     7
 10
1310.9058061163
 20
698.5940286311
 30
0.0
  0
VERTEX
  5
8B7
  8
0
  6
CONTINUOUS
 62
     7
 10
1310.8625737341
 20
698.7472773972
 30
0.0
  0
VERTEX
  5
8B8
  8
0
  6
CONTINUOUS
 62
     7
 10
1310.8179914388
 20
698.9003495064
 30
0.0
  0
VERTEX
  5
8B9
  8
0
  6
CONTINUOUS
 62
     7
 10
1310.772024568
 20
699.0533021413
 30
0.0
  0
VERTEX
  5
8BA
  8
0
  6
CONTINUOUS
 62
     7
 10
1310.7246384594
 20
699.2061924844
 30
0.0
  0
VERTEX
  5
8BB
  8
0
  6
CONTINUOUS
 62
     7
 10
1310.6757984506
 20
699.3590777179
 30
0.0
  0
VERTEX
  5
8BC
  8
0
  6
CONTINUOUS
 62
     7
 10
1310.6254698854
 20
699.512015006
 30
0.0
  0
VERTEX
  5
8BD
  8
0
  6
CONTINUOUS
 62
     7
 10
1310.573622052
 20
699.6650495971
 30
0.0
  0
VERTEX
  5
8BE
  8
0
  6
CONTINUOUS
 62
     7
 10
1310.5202349542
 20
699.8181943701
 30
0.0
  0
VERTEX
  5
8BF
  8
0
  6
CONTINUOUS
 62
     7
 10
1310.4652903981
 20
699.9714567596
 30
0.0
  0
VERTEX
  5
8C0
  8
0
  6
CONTINUOUS
 62
     7
 10
1310.4087701896
 20
700.1248441999
 30
0.0
  0
VERTEX
  5
8C1
  8
0
  6
CONTINUOUS
 62
     7
 10
1310.3506561349
 20
700.2783641257
 30
0.0
  0
VERTEX
  5
8C2
  8
0
  6
CONTINUOUS
 62
     7
 10
1310.29093004
 20
700.4320239715
 30
0.0
  0
VERTEX
  5
8C3
  8
0
  6
CONTINUOUS
 62
     7
 10
1310.229573711
 20
700.5858311716
 30
0.0
  0
VERTEX
  5
8C4
  8
0
  6
CONTINUOUS
 62
     7
 10
1310.166568954
 20
700.7397931607
 30
0.0
  0
VERTEX
  5
8C5
  8
0
  6
CONTINUOUS
 62
     7
 10
1310.1018975749
 20
700.8939173733
 30
0.0
  0
VERTEX
  5
8C6
  8
0
  6
CONTINUOUS
 62
     7
 10
1310.0355413799
 20
701.0482112437
 30
0.0
  0
VERTEX
  5
8C7
  8
0
  6
CONTINUOUS
 62
     7
 10
1309.9675729835
 20
701.2025741047
 30
0.0
  0
VERTEX
  5
8C8
  8
0
  6
CONTINUOUS
 62
     7
 10
1309.8985163081
 20
701.356416368
 30
0.0
  0
VERTEX
  5
8C9
  8
0
  6
CONTINUOUS
 62
     7
 10
1309.8283450166
 20
701.5098778462
 30
0.0
  0
VERTEX
  5
8CA
  8
0
  6
CONTINUOUS
 62
     7
 10
1309.756911891
 20
701.6631991069
 30
0.0
  0
VERTEX
  5
8CB
  8
0
  6
CONTINUOUS
 62
     7
 10
1309.6840697644
 20
701.8166200392
 30
0.0
  0
VERTEX
  5
8CC
  8
0
  6
CONTINUOUS
 62
     7
 10
1309.6096714699
 20
701.9703805324
 30
0.0
  0
VERTEX
  5
8CD
  8
0
  6
CONTINUOUS
 62
     7
 10
1309.5335698406
 20
702.1247204756
 30
0.0
  0
VERTEX
  5
8CE
  8
0
  6
CONTINUOUS
 62
     7
 10
1309.4556177096
 20
702.2798797582
 30
0.0
  0
VERTEX
  5
8CF
  8
0
  6
CONTINUOUS
 62
     7
 10
1309.37566791
 20
702.4360982692
 30
0.0
  0
VERTEX
  5
8D0
  8
0
  6
CONTINUOUS
 62
     7
 10
1309.2935732748
 20
702.593615898
 30
0.0
  0
VERTEX
  5
8D1
  8
0
  6
CONTINUOUS
 62
     7
 10
1309.2091866372
 20
702.7526725336
 30
0.0
  0
VERTEX
  5
8D2
  8
0
  6
CONTINUOUS
 62
     7
 10
1309.1223608303
 20
702.9135080653
 30
0.0
  0
VERTEX
  5
8D3
  8
0
  6
CONTINUOUS
 62
     7
 10
1309.032948687
 20
703.0763623824
 30
0.0
  0
VERTEX
  5
8D4
  8
0
  6
CONTINUOUS
 62
     7
 10
1308.9408030407
 20
703.2414753739
 30
0.0
  0
VERTEX
  5
8D5
  8
0
  6
CONTINUOUS
 62
     7
 10
1308.8457767242
 20
703.4090869292
 30
0.0
  0
VERTEX
  5
8D6
  8
0
  6
CONTINUOUS
 62
     7
 10
1308.7477225708
 20
703.5794369374
 30
0.0
  0
VERTEX
  5
8D7
  8
0
  6
CONTINUOUS
 62
     7
 10
1308.6464934134
 20
703.7527652878
 30
0.0
  0
VERTEX
  5
8D8
  8
0
  6
CONTINUOUS
 62
     7
 10
1308.5419420853
 20
703.9293118695
 30
0.0
  0
VERTEX
  5
8D9
  8
0
  6
CONTINUOUS
 62
     7
 10
1308.4339214195
 20
704.1093165718
 30
0.0
  0
VERTEX
  5
8DA
  8
0
  6
CONTINUOUS
 62
     7
 10
1308.322284249
 20
704.2930192838
 30
0.0
  0
VERTEX
  5
8DB
  8
0
  6
CONTINUOUS
 62
     7
 10
1308.2069871787
 20
704.4805493093
 30
0.0
  0
VERTEX
  5
8DC
  8
0
  6
CONTINUOUS
 62
     7
 10
1308.0905540626
 20
704.6692791575
 30
0.0
  0
VERTEX
  5
8DD
  8
0
  6
CONTINUOUS
 62
     7
 10
1307.9741193228
 20
704.8580081172
 30
0.0
  0
VERTEX
  5
8DE
  8
0
  6
CONTINUOUS
 62
     7
 10
1307.8576829685
 20
705.0467361934
 30
0.0
  0
VERTEX
  5
8DF
  8
0
  6
CONTINUOUS
 62
     7
 10
1307.741245009
 20
705.2354633916
 30
0.0
  0
VERTEX
  5
8E0
  8
0
  6
CONTINUOUS
 62
     7
 10
1307.6248054535
 20
705.4241897169
 30
0.0
  0
VERTEX
  5
8E1
  8
0
  6
CONTINUOUS
 62
     7
 10
1307.5083643113
 20
705.6129151746
 30
0.0
  0
VERTEX
  5
8E2
  8
0
  6
CONTINUOUS
 62
     7
 10
1307.3919215917
 20
705.80163977
 30
0.0
  0
VERTEX
  5
8E3
  8
0
  6
CONTINUOUS
 62
     7
 10
1307.275477304
 20
705.9903635083
 30
0.0
  0
VERTEX
  5
8E4
  8
0
  6
CONTINUOUS
 62
     7
 10
1307.1590314574
 20
706.1790863947
 30
0.0
  0
VERTEX
  5
8E5
  8
0
  6
CONTINUOUS
 62
     7
 10
1307.0425840612
 20
706.3678084346
 30
0.0
  0
VERTEX
  5
8E6
  8
0
  6
CONTINUOUS
 62
     7
 10
1306.9261351247
 20
706.5565296331
 30
0.0
  0
VERTEX
  5
8E7
  8
0
  6
CONTINUOUS
 62
     7
 10
1306.8096846571
 20
706.7452499955
 30
0.0
  0
VERTEX
  5
8E8
  8
0
  6
CONTINUOUS
 62
     7
 10
1306.6932326678
 20
706.9339695271
 30
0.0
  0
VERTEX
  5
8E9
  8
0
  6
CONTINUOUS
 62
     7
 10
1306.5767791659
 20
707.1226882332
 30
0.0
  0
VERTEX
  5
8EA
  8
0
  6
CONTINUOUS
 62
     7
 10
1306.4603241608
 20
707.3114061189
 30
0.0
  0
VERTEX
  5
8EB
  8
0
  6
CONTINUOUS
 62
     7
 10
1306.3438676618
 20
707.5001231896
 30
0.0
  0
VERTEX
  5
8EC
  8
0
  6
CONTINUOUS
 62
     7
 10
1306.227409678
 20
707.6888394504
 30
0.0
  0
VERTEX
  5
8ED
  8
0
  6
CONTINUOUS
 62
     7
 10
1306.1109502188
 20
707.8775549067
 30
0.0
  0
VERTEX
  5
8EE
  8
0
  6
CONTINUOUS
 62
     7
 10
1305.9944892934
 20
708.0662695637
 30
0.0
  0
VERTEX
  5
8EF
  8
0
  6
CONTINUOUS
 62
     7
 10
1305.8780269112
 20
708.2549834267
 30
0.0
  0
VERTEX
  5
8F0
  8
0
  6
CONTINUOUS
 62
     7
 10
1305.7615630814
 20
708.4436965008
 30
0.0
  0
VERTEX
  5
8F1
  8
0
  6
CONTINUOUS
 62
     7
 10
1305.6450978132
 20
708.6324087915
 30
0.0
  0
VERTEX
  5
8F2
  8
0
  6
CONTINUOUS
 62
     7
 10
1305.5286311159
 20
708.8211203038
 30
0.0
  0
VERTEX
  5
8F3
  8
0
  6
CONTINUOUS
 62
     7
 10
1305.4121629988
 20
709.0098310431
 30
0.0
  0
VERTEX
  5
8F4
  8
0
  6
CONTINUOUS
 62
     7
 10
1305.2956934712
 20
709.1985410146
 30
0.0
  0
VERTEX
  5
8F5
  8
0
  6
CONTINUOUS
 62
     7
 10
1305.1792225424
 20
709.3872502236
 30
0.0
  0
VERTEX
  5
8F6
  8
0
  6
CONTINUOUS
 62
     7
 10
1305.0627502216
 20
709.5759586753
 30
0.0
  0
VERTEX
  5
8F7
  8
0
  6
CONTINUOUS
 62
     7
 10
1304.946276518
 20
709.7646663751
 30
0.0
  0
VERTEX
  5
8F8
  8
0
  6
CONTINUOUS
 62
     7
 10
1304.829801441
 20
709.953373328
 30
0.0
  0
VERTEX
  5
8F9
  8
0
  6
CONTINUOUS
 62
     7
 10
1304.7133249998
 20
710.1420795394
 30
0.0
  0
VERTEX
  5
8FA
  8
0
  6
CONTINUOUS
 62
     7
 10
1304.5968472038
 20
710.3307850146
 30
0.0
  0
VERTEX
  5
8FB
  8
0
  6
CONTINUOUS
 62
     7
 10
1304.4803680621
 20
710.5194897588
 30
0.0
  0
VERTEX
  5
8FC
  8
0
  6
CONTINUOUS
 62
     7
 10
1304.363887584
 20
710.7081937772
 30
0.0
  0
VERTEX
  5
8FD
  8
0
  6
CONTINUOUS
 62
     7
 10
1304.2474057789
 20
710.8968970752
 30
0.0
  0
SEQEND
  5
D2D
  8
0
  6
CONTINUOUS
 62
     7
  0
POLYLINE
  5
21B
  8
0
  6
CONTINUOUS
 62
     7
 66
     1
 10
0.0
 20
0.0
 30
0.0
  0
VERTEX
  5
8FE
  8
0
  6
CONTINUOUS
 62
     7
 10
1274.4624599865
 20
681.1119512828
 30
0.0
  0
VERTEX
  5
8FF
  8
0
  6
CONTINUOUS
 62
     7
 10
1274.6511632845
 20
680.9954694777
 30
0.0
  0
VERTEX
  5
900
  8
0
  6
CONTINUOUS
 62
     7
 10
1274.8398673029
 20
680.8789889996
 30
0.0
  0
VERTEX
  5
901
  8
0
  6
CONTINUOUS
 62
     7
 10
1275.0285720471
 20
680.7625098579
 30
0.0
  0
VERTEX
  5
902
  8
0
  6
CONTINUOUS
 62
     7
 10
1275.2172775223
 20
680.6460320618
 30
0.0
  0
VERTEX
  5
903
  8
0
  6
CONTINUOUS
 62
     7
 10
1275.4059837337
 20
680.5295556207
 30
0.0
  0
VERTEX
  5
904
  8
0
  6
CONTINUOUS
 62
     7
 10
1275.5946906867
 20
680.4130805437
 30
0.0
  0
VERTEX
  5
905
  8
0
  6
CONTINUOUS
 62
     7
 10
1275.7833983864
 20
680.2966068401
 30
0.0
  0
VERTEX
  5
906
  8
0
  6
CONTINUOUS
 62
     7
 10
1275.9721068381
 20
680.1801345193
 30
0.0
  0
VERTEX
  5
907
  8
0
  6
CONTINUOUS
 62
     7
 10
1276.1608160471
 20
680.0636635904
 30
0.0
  0
VERTEX
  5
908
  8
0
  6
CONTINUOUS
 62
     7
 10
1276.3495260187
 20
679.9471940628
 30
0.0
  0
VERTEX
  5
909
  8
0
  6
CONTINUOUS
 62
     7
 10
1276.538236758
 20
679.8307259458
 30
0.0
  0
VERTEX
  5
90A
  8
0
  6
CONTINUOUS
 62
     7
 10
1276.7269482703
 20
679.7142592485
 30
0.0
  0
VERTEX
  5
90B
  8
0
  6
CONTINUOUS
 62
     7
 10
1276.9156605609
 20
679.5977939803
 30
0.0
  0
VERTEX
  5
90C
  8
0
  6
CONTINUOUS
 62
     7
 10
1277.1043736351
 20
679.4813301505
 30
0.0
  0
VERTEX
  5
90D
  8
0
  6
CONTINUOUS
 62
     7
 10
1277.293087498
 20
679.3648677682
 30
0.0
  0
VERTEX
  5
90E
  8
0
  6
CONTINUOUS
 62
     7
 10
1277.4818021551
 20
679.2484068429
 30
0.0
  0
VERTEX
  5
90F
  8
0
  6
CONTINUOUS
 62
     7
 10
1277.6705176114
 20
679.1319473837
 30
0.0
  0
VERTEX
  5
910
  8
0
  6
CONTINUOUS
 62
     7
 10
1277.8592338722
 20
679.0154893999
 30
0.0
  0
VERTEX
  5
911
  8
0
  6
CONTINUOUS
 62
     7
 10
1278.0479509429
 20
678.8990329008
 30
0.0
  0
VERTEX
  5
912
  8
0
  6
CONTINUOUS
 62
     7
 10
1278.2366688286
 20
678.7825778957
 30
0.0
  0
VERTEX
  5
913
  8
0
  6
CONTINUOUS
 62
     7
 10
1278.4253875347
 20
678.6661243938
 30
0.0
  0
VERTEX
  5
914
  8
0
  6
CONTINUOUS
 62
     7
 10
1278.6141070663
 20
678.5496724045
 30
0.0
  0
VERTEX
  5
915
  8
0
  6
CONTINUOUS
 62
     7
 10
1278.8028274287
 20
678.4332219369
 30
0.0
  0
VERTEX
  5
916
  8
0
  6
CONTINUOUS
 62
     7
 10
1278.9915486273
 20
678.3167730004
 30
0.0
  0
VERTEX
  5
917
  8
0
  6
CONTINUOUS
 62
     7
 10
1279.1802706671
 20
678.2003256042
 30
0.0
  0
VERTEX
  5
918
  8
0
  6
CONTINUOUS
 62
     7
 10
1279.3689935536
 20
678.0838797576
 30
0.0
  0
VERTEX
  5
919
  8
0
  6
CONTINUOUS
 62
     7
 10
1279.5577172918
 20
677.9674354699
 30
0.0
  0
VERTEX
  5
91A
  8
0
  6
CONTINUOUS
 62
     7
 10
1279.7464418872
 20
677.8509927503
 30
0.0
  0
VERTEX
  5
91B
  8
0
  6
CONTINUOUS
 62
     7
 10
1279.9351673449
 20
677.7345516081
 30
0.0
  0
VERTEX
  5
91C
  8
0
  6
CONTINUOUS
 62
     7
 10
1280.1238936702
 20
677.6181120527
 30
0.0
  0
VERTEX
  5
91D
  8
0
  6
CONTINUOUS
 62
     7
 10
1280.3126208684
 20
677.5016740931
 30
0.0
  0
VERTEX
  5
91E
  8
0
  6
CONTINUOUS
 62
     7
 10
1280.5013489447
 20
677.3852377388
 30
0.0
  0
VERTEX
  5
91F
  8
0
  6
CONTINUOUS
 62
     7
 10
1280.6900779043
 20
677.268802999
 30
0.0
  0
VERTEX
  5
920
  8
0
  6
CONTINUOUS
 62
     7
 10
1280.8788077526
 20
677.1523698829
 30
0.0
  0
VERTEX
  5
921
  8
0
  6
CONTINUOUS
 62
     7
 10
1281.0663377781
 20
677.0370728126
 30
0.0
  0
VERTEX
  5
922
  8
0
  6
CONTINUOUS
 62
     7
 10
1281.2500404901
 20
676.9254356421
 30
0.0
  0
VERTEX
  5
923
  8
0
  6
CONTINUOUS
 62
     7
 10
1281.4300451924
 20
676.8174149763
 30
0.0
  0
VERTEX
  5
924
  8
0
  6
CONTINUOUS
 62
     7
 10
1281.6065917741
 20
676.7128636482
 30
0.0
  0
VERTEX
  5
925
  8
0
  6
CONTINUOUS
 62
     7
 10
1281.7799201244
 20
676.6116344908
 30
0.0
  0
VERTEX
  5
926
  8
0
  6
CONTINUOUS
 62
     7
 10
1281.9502701327
 20
676.5135803374
 30
0.0
  0
VERTEX
  5
927
  8
0
  6
CONTINUOUS
 62
     7
 10
1282.117881688
 20
676.4185540209
 30
0.0
  0
VERTEX
  5
928
  8
0
  6
CONTINUOUS
 62
     7
 10
1282.2829946795
 20
676.3264083746
 30
0.0
  0
VERTEX
  5
929
  8
0
  6
CONTINUOUS
 62
     7
 10
1282.4458489966
 20
676.2369962313
 30
0.0
  0
VERTEX
  5
92A
  8
0
  6
CONTINUOUS
 62
     7
 10
1282.6066845283
 20
676.1501704244
 30
0.0
  0
VERTEX
  5
92B
  8
0
  6
CONTINUOUS
 62
     7
 10
1282.7657411639
 20
676.0657837868
 30
0.0
  0
VERTEX
  5
92C
  8
0
  6
CONTINUOUS
 62
     7
 10
1282.9232587927
 20
675.9836891516
 30
0.0
  0
VERTEX
  5
92D
  8
0
  6
CONTINUOUS
 62
     7
 10
1283.0794773037
 20
675.903739352
 30
0.0
  0
VERTEX
  5
92E
  8
0
  6
CONTINUOUS
 62
     7
 10
1283.2346365863
 20
675.825787221
 30
0.0
  0
VERTEX
  5
92F
  8
0
  6
CONTINUOUS
 62
     7
 10
1283.3889765295
 20
675.7496855917
 30
0.0
  0
VERTEX
  5
930
  8
0
  6
CONTINUOUS
 62
     7
 10
1283.5427370227
 20
675.6752872972
 30
0.0
  0
VERTEX
  5
931
  8
0
  6
CONTINUOUS
 62
     7
 10
1283.6961579551
 20
675.6024451706
 30
0.0
  0
VERTEX
  5
932
  8
0
  6
CONTINUOUS
 62
     7
 10
1283.8494792157
 20
675.531012045
 30
0.0
  0
VERTEX
  5
933
  8
0
  6
CONTINUOUS
 62
     7
 10
1284.0029406939
 20
675.4608407535
 30
0.0
  0
VERTEX
  5
934
  8
0
  6
CONTINUOUS
 62
     7
 10
1284.1567829572
 20
675.3917840781
 30
0.0
  0
VERTEX
  5
935
  8
0
  6
CONTINUOUS
 62
     7
 10
1284.3111458182
 20
675.3238156817
 30
0.0
  0
VERTEX
  5
936
  8
0
  6
CONTINUOUS
 62
     7
 10
1284.4654396887
 20
675.2574594867
 30
0.0
  0
VERTEX
  5
937
  8
0
  6
CONTINUOUS
 62
     7
 10
1284.6195639012
 20
675.1927881076
 30
0.0
  0
VERTEX
  5
938
  8
0
  6
CONTINUOUS
 62
     7
 10
1284.7735258903
 20
675.1297833506
 30
0.0
  0
VERTEX
  5
939
  8
0
  6
CONTINUOUS
 62
     7
 10
1284.9273330905
 20
675.0684270216
 30
0.0
  0
VERTEX
  5
93A
  8
0
  6
CONTINUOUS
 62
     7
 10
1285.0809929362
 20
675.0087009267
 30
0.0
  0
VERTEX
  5
93B
  8
0
  6
CONTINUOUS
 62
     7
 10
1285.234512862
 20
674.950586872
 30
0.0
  0
VERTEX
  5
93C
  8
0
  6
CONTINUOUS
 62
     7
 10
1285.3879003024
 20
674.8940666635
 30
0.0
  0
VERTEX
  5
93D
  8
0
  6
CONTINUOUS
 62
     7
 10
1285.5411626918
 20
674.8391221074
 30
0.0
  0
VERTEX
  5
93E
  8
0
  6
CONTINUOUS
 62
     7
 10
1285.6943074648
 20
674.7857350096
 30
0.0
  0
VERTEX
  5
93F
  8
0
  6
CONTINUOUS
 62
     7
 10
1285.8473420559
 20
674.7338871762
 30
0.0
  0
VERTEX
  5
940
  8
0
  6
CONTINUOUS
 62
     7
 10
1286.000279344
 20
674.683558611
 30
0.0
  0
VERTEX
  5
941
  8
0
  6
CONTINUOUS
 62
     7
 10
1286.1531645776
 20
674.6347186022
 30
0.0
  0
VERTEX
  5
942
  8
0
  6
CONTINUOUS
 62
     7
 10
1286.3060549206
 20
674.5873324936
 30
0.0
  0
VERTEX
  5
943
  8
0
  6
CONTINUOUS
 62
     7
 10
1286.4590075555
 20
674.5413656229
 30
0.0
  0
VERTEX
  5
944
  8
0
  6
CONTINUOUS
 62
     7
 10
1286.6120796648
 20
674.4967833276
 30
0.0
  0
VERTEX
  5
945
  8
0
  6
CONTINUOUS
 62
     7
 10
1286.7653284309
 20
674.4535509454
 30
0.0
  0
VERTEX
  5
946
  8
0
  6
CONTINUOUS
 62
     7
 10
1286.9188108794
 20
674.4116339067
 30
0.0
  0
VERTEX
  5
947
  8
0
  6
CONTINUOUS
 62
     7
 10
1287.0725645578
 20
674.3710091661
 30
0.0
  0
VERTEX
  5
948
  8
0
  6
CONTINUOUS
 62
     7
 10
1287.2265889158
 20
674.331676218
 30
0.0
  0
VERTEX
  5
949
  8
0
  6
CONTINUOUS
 62
     7
 10
1287.3808789881
 20
674.293637169
 30
0.0
  0
VERTEX
  5
94A
  8
0
  6
CONTINUOUS
 62
     7
 10
1287.5354298093
 20
674.2568941257
 30
0.0
  0
VERTEX
  5
94B
  8
0
  6
CONTINUOUS
 62
     7
 10
1287.6902364141
 20
674.2214491948
 30
0.0
  0
VERTEX
  5
94C
  8
0
  6
CONTINUOUS
 62
     7
 10
1287.8452938372
 20
674.1873044829
 30
0.0
  0
VERTEX
  5
94D
  8
0
  6
CONTINUOUS
 62
     7
 10
1288.0005971133
 20
674.1544620965
 30
0.0
  0
VERTEX
  5
94E
  8
0
  6
CONTINUOUS
 62
     7
 10
1288.1561412771
 20
674.1229241422
 30
0.0
  0
VERTEX
  5
94F
  8
0
  6
CONTINUOUS
 62
     7
 10
1288.3119213633
 20
674.0926927266
 30
0.0
  0
VERTEX
  5
950
  8
0
  6
CONTINUOUS
 62
     7
 10
1288.4679324664
 20
674.0637699318
 30
0.0
  0
VERTEX
  5
951
  8
0
  6
CONTINUOUS
 62
     7
 10
1288.6241722813
 20
674.0361567701
 30
0.0
  0
VERTEX
  5
952
  8
0
  6
CONTINUOUS
 62
     7
 10
1288.7806420462
 20
674.009852797
 30
0.0
  0
VERTEX
  5
953
  8
0
  6
CONTINUOUS
 62
     7
 10
1288.9373432533
 20
673.9848574631
 30
0.0
  0
VERTEX
  5
954
  8
0
  6
CONTINUOUS
 62
     7
 10
1289.094277395
 20
673.9611702192
 30
0.0
  0
VERTEX
  5
955
  8
0
  6
CONTINUOUS
 62
     7
 10
1289.2514459637
 20
673.9387905158
 30
0.0
  0
VERTEX
  5
956
  8
0
  6
CONTINUOUS
 62
     7
 10
1289.4088504517
 20
673.9177178037
 30
0.0
  0
VERTEX
  5
957
  8
0
  6
CONTINUOUS
 62
     7
 10
1289.5664923514
 20
673.8979515337
 30
0.0
  0
VERTEX
  5
958
  8
0
  6
CONTINUOUS
 62
     7
 10
1289.724373155
 20
673.8794911564
 30
0.0
  0
VERTEX
  5
959
  8
0
  6
CONTINUOUS
 62
     7
 10
1289.8824943551
 20
673.8623361226
 30
0.0
  0
VERTEX
  5
95A
  8
0
  6
CONTINUOUS
 62
     7
 10
1290.0408574438
 20
673.8464858829
 30
0.0
  0
VERTEX
  5
95B
  8
0
  6
CONTINUOUS
 62
     7
 10
1290.1994639137
 20
673.8319398881
 30
0.0
  0
VERTEX
  5
95C
  8
0
  6
CONTINUOUS
 62
     7
 10
1290.3583152569
 20
673.8186975888
 30
0.0
  0
VERTEX
  5
95D
  8
0
  6
CONTINUOUS
 62
     7
 10
1290.5174129659
 20
673.8067584357
 30
0.0
  0
VERTEX
  5
95E
  8
0
  6
CONTINUOUS
 62
     7
 10
1290.6767585331
 20
673.7961218796
 30
0.0
  0
VERTEX
  5
95F
  8
0
  6
CONTINUOUS
 62
     7
 10
1290.8363534507
 20
673.7867873712
 30
0.0
  0
VERTEX
  5
960
  8
0
  6
CONTINUOUS
 62
     7
 10
1290.9961992111
 20
673.7787543612
 30
0.0
  0
VERTEX
  5
961
  8
0
  6
CONTINUOUS
 62
     7
 10
1291.1562972768
 20
673.7720223013
 30
0.0
  0
VERTEX
  5
962
  8
0
  6
CONTINUOUS
 62
     7
 10
1291.316635909
 20
673.7665911154
 30
0.0
  0
VERTEX
  5
963
  8
0
  6
CONTINUOUS
 62
     7
 10
1291.4771694908
 20
673.762461939
 30
0.0
  0
VERTEX
  5
964
  8
0
  6
CONTINUOUS
 62
     7
 10
1291.6378470466
 20
673.7596360989
 30
0.0
  0
VERTEX
  5
965
  8
0
  6
CONTINUOUS
 62
     7
 10
1291.7986176007
 20
673.7581149223
 30
0.0
  0
VERTEX
  5
966
  8
0
  6
CONTINUOUS
 62
     7
 10
1291.9594301776
 20
673.7578997362
 30
0.0
  0
VERTEX
  5
967
  8
0
  6
CONTINUOUS
 62
     7
 10
1292.1202338017
 20
673.7589918676
 30
0.0
  0
VERTEX
  5
968
  8
0
  6
CONTINUOUS
 62
     7
 10
1292.2809774972
 20
673.7613926436
 30
0.0
  0
VERTEX
  5
969
  8
0
  6
CONTINUOUS
 62
     7
 10
1292.4416102886
 20
673.7651033911
 30
0.0
  0
VERTEX
  5
96A
  8
0
  6
CONTINUOUS
 62
     7
 10
1292.6020812004
 20
673.7701254372
 30
0.0
  0
VERTEX
  5
96B
  8
0
  6
CONTINUOUS
 62
     7
 10
1292.7623392567
 20
673.7764601089
 30
0.0
  0
VERTEX
  5
96C
  8
0
  6
CONTINUOUS
 62
     7
 10
1292.9223334822
 20
673.7841087333
 30
0.0
  0
VERTEX
  5
96D
  8
0
  6
CONTINUOUS
 62
     7
 10
1293.0820900747
 20
673.7930593803
 30
0.0
  0
VERTEX
  5
96E
  8
0
  6
CONTINUOUS
 62
     7
 10
1293.241696441
 20
673.8032943405
 30
0.0
  0
VERTEX
  5
96F
  8
0
  6
CONTINUOUS
 62
     7
 10
1293.4011479231
 20
673.8148140623
 30
0.0
  0
VERTEX
  5
970
  8
0
  6
CONTINUOUS
 62
     7
 10
1293.5604370509
 20
673.827619136
 30
0.0
  0
VERTEX
  5
971
  8
0
  6
CONTINUOUS
 62
     7
 10
1293.7195563421
 20
673.841710152
 30
0.0
  0
VERTEX
  5
972
  8
0
  6
CONTINUOUS
 62
     7
 10
1293.8784983142
 20
673.8570877005
 30
0.0
  0
VERTEX
  5
973
  8
0
  6
CONTINUOUS
 62
     7
 10
1294.037255485
 20
673.873752372
 30
0.0
  0
VERTEX
  5
974
  8
0
  6
CONTINUOUS
 62
     7
 10
1294.1958203723
 20
673.8917047568
 30
0.0
  0
VERTEX
  5
975
  8
0
  6
CONTINUOUS
 62
     7
 10
1294.3541854936
 20
673.9109454454
 30
0.0
  0
VERTEX
  5
976
  8
0
  6
CONTINUOUS
 62
     7
 10
1294.5123433667
 20
673.931475028
 30
0.0
  0
VERTEX
  5
977
  8
0
  6
CONTINUOUS
 62
     7
 10
1294.6702865092
 20
673.953294095
 30
0.0
  0
VERTEX
  5
978
  8
0
  6
CONTINUOUS
 62
     7
 10
1294.8280084509
 20
673.9764032381
 30
0.0
  0
VERTEX
  5
979
  8
0
  6
CONTINUOUS
 62
     7
 10
1294.9855078796
 20
674.0008030558
 30
0.0
  0
VERTEX
  5
97A
  8
0
  6
CONTINUOUS
 62
     7
 10
1295.1427851227
 20
674.0264941489
 30
0.0
  0
VERTEX
  5
97B
  8
0
  6
CONTINUOUS
 62
     7
 10
1295.2998405078
 20
674.0534771179
 30
0.0
  0
VERTEX
  5
97C
  8
0
  6
CONTINUOUS
 62
     7
 10
1295.4566743627
 20
674.0817525635
 30
0.0
  0
VERTEX
  5
97D
  8
0
  6
CONTINUOUS
 62
     7
 10
1295.6132870154
 20
674.1113210864
 30
0.0
  0
VERTEX
  5
97E
  8
0
  6
CONTINUOUS
 62
     7
 10
1295.7696787936
 20
674.1421832874
 30
0.0
  0
VERTEX
  5
97F
  8
0
  6
CONTINUOUS
 62
     7
 10
1295.9258500251
 20
674.1743397669
 30
0.0
  0
VERTEX
  5
980
  8
0
  6
CONTINUOUS
 62
     7
 10
1296.0818010378
 20
674.2077911258
 30
0.0
  0
VERTEX
  5
981
  8
0
  6
CONTINUOUS
 62
     7
 10
1296.2375321595
 20
674.2425379646
 30
0.0
  0
VERTEX
  5
982
  8
0
  6
CONTINUOUS
 62
     7
 10
1296.3930437179
 20
674.2785808841
 30
0.0
  0
VERTEX
  5
983
  8
0
  6
CONTINUOUS
 62
     7
 10
1296.548336041
 20
674.315920485
 30
0.0
  0
VERTEX
  5
984
  8
0
  6
CONTINUOUS
 62
     7
 10
1296.7034094566
 20
674.3545573678
 30
0.0
  0
VERTEX
  5
985
  8
0
  6
CONTINUOUS
 62
     7
 10
1296.8582642924
 20
674.3944921333
 30
0.0
  0
VERTEX
  5
986
  8
0
  6
CONTINUOUS
 62
     7
 10
1297.0129008762
 20
674.4357253821
 30
0.0
  0
VERTEX
  5
987
  8
0
  6
CONTINUOUS
 62
     7
 10
1297.167319536
 20
674.478257715
 30
0.0
  0
VERTEX
  5
988
  8
0
  6
CONTINUOUS
 62
     7
 10
1297.3215205995
 20
674.5220897325
 30
0.0
  0
VERTEX
  5
989
  8
0
  6
CONTINUOUS
 62
     7
 10
1297.4755043945
 20
674.5672220353
 30
0.0
  0
VERTEX
  5
98A
  8
0
  6
CONTINUOUS
 62
     7
 10
1297.6292712489
 20
674.6136552242
 30
0.0
  0
VERTEX
  5
98B
  8
0
  6
CONTINUOUS
 62
     7
 10
1297.7828214904
 20
674.6613898998
 30
0.0
  0
VERTEX
  5
98C
  8
0
  6
CONTINUOUS
 62
     7
 10
1297.936155447
 20
674.7104266627
 30
0.0
  0
VERTEX
  5
98D
  8
0
  6
CONTINUOUS
 62
     7
 10
1298.0892734464
 20
674.7607661137
 30
0.0
  0
VERTEX
  5
98E
  8
0
  6
CONTINUOUS
 62
     7
 10
1298.2421695015
 20
674.8124067168
 30
0.0
  0
VERTEX
  5
98F
  8
0
  6
CONTINUOUS
 62
     7
 10
1298.3946205481
 20
674.8652730789
 30
0.0
  0
VERTEX
  5
990
  8
0
  6
CONTINUOUS
 62
     7
 10
1298.5465156535
 20
674.9193266027
 30
0.0
  0
VERTEX
  5
991
  8
0
  6
CONTINUOUS
 62
     7
 10
1298.697854951
 20
674.9745660778
 30
0.0
  0
VERTEX
  5
992
  8
0
  6
CONTINUOUS
 62
     7
 10
1298.8486385737
 20
675.0309902942
 30
0.0
  0
VERTEX
  5
993
  8
0
  6
CONTINUOUS
 62
     7
 10
1298.9988666547
 20
675.0885980418
 30
0.0
  0
VERTEX
  5
994
  8
0
  6
CONTINUOUS
 62
     7
 10
1299.1485393272
 20
675.1473881104
 30
0.0
  0
VERTEX
  5
995
  8
0
  6
CONTINUOUS
 62
     7
 10
1299.2976537502
 20
675.2073584711
 30
0.0
  0
VERTEX
  5
996
  8
0
  6
CONTINUOUS
 62
     7
 10
1299.4461688295
 20
675.2684965597
 30
0.0
  0
VERTEX
  5
997
  8
0
  6
CONTINUOUS
 62
     7
 10
1299.59407097
 20
675.3307973697
 30
0.0
  0
VERTEX
  5
998
  8
0
  6
CONTINUOUS
 62
     7
 10
1299.7413596155
 20
675.394259482
 30
0.0
  0
VERTEX
  5
999
  8
0
  6
CONTINUOUS
 62
     7
 10
1299.88803421
 20
675.4588814778
 30
0.0
  0
VERTEX
  5
99A
  8
0
  6
CONTINUOUS
 62
     7
 10
1300.0340941976
 20
675.5246619381
 30
0.0
  0
VERTEX
  5
99B
  8
0
  6
CONTINUOUS
 62
     7
 10
1300.1795390221
 20
675.591599444
 30
0.0
  0
VERTEX
  5
99C
  8
0
  6
CONTINUOUS
 62
     7
 10
1300.3243681276
 20
675.6596925767
 30
0.0
  0
VERTEX
  5
99D
  8
0
  6
CONTINUOUS
 62
     7
 10
1300.4685809579
 20
675.7289399172
 30
0.0
  0
VERTEX
  5
99E
  8
0
  6
CONTINUOUS
 62
     7
 10
1300.6121769571
 20
675.7993400466
 30
0.0
  0
VERTEX
  5
99F
  8
0
  6
CONTINUOUS
 62
     7
 10
1300.7551555692
 20
675.870891546
 30
0.0
  0
VERTEX
  5
9A0
  8
0
  6
CONTINUOUS
 62
     7
 10
1300.897516238
 20
675.9435929965
 30
0.0
  0
VERTEX
  5
9A1
  8
0
  6
CONTINUOUS
 62
     7
 10
1301.0392584076
 20
676.0174429791
 30
0.0
  0
VERTEX
  5
9A2
  8
0
  6
CONTINUOUS
 62
     7
 10
1301.1803815219
 20
676.0924400751
 30
0.0
  0
VERTEX
  5
9A3
  8
0
  6
CONTINUOUS
 62
     7
 10
1301.3208850249
 20
676.1685828654
 30
0.0
  0
VERTEX
  5
9A4
  8
0
  6
CONTINUOUS
 62
     7
 10
1301.4607683605
 20
676.2458699312
 30
0.0
  0
VERTEX
  5
9A5
  8
0
  6
CONTINUOUS
 62
     7
 10
1301.6000309727
 20
676.3242998535
 30
0.0
  0
VERTEX
  5
9A6
  8
0
  6
CONTINUOUS
 62
     7
 10
1301.7386723056
 20
676.4038712135
 30
0.0
  0
VERTEX
  5
9A7
  8
0
  6
CONTINUOUS
 62
     7
 10
1301.8766918029
 20
676.4845825921
 30
0.0
  0
VERTEX
  5
9A8
  8
0
  6
CONTINUOUS
 62
     7
 10
1302.0140889088
 20
676.5664325707
 30
0.0
  0
VERTEX
  5
9A9
  8
0
  6
CONTINUOUS
 62
     7
 10
1302.1508630672
 20
676.6494197301
 30
0.0
  0
VERTEX
  5
9AA
  8
0
  6
CONTINUOUS
 62
     7
 10
1302.287013722
 20
676.7335426515
 30
0.0
  0
VERTEX
  5
9AB
  8
0
  6
CONTINUOUS
 62
     7
 10
1302.4225403172
 20
676.818799916
 30
0.0
  0
VERTEX
  5
9AC
  8
0
  6
CONTINUOUS
 62
     7
 10
1302.5574422967
 20
676.9051901047
 30
0.0
  0
VERTEX
  5
9AD
  8
0
  6
CONTINUOUS
 62
     7
 10
1302.6917191046
 20
676.9927117987
 30
0.0
  0
VERTEX
  5
9AE
  8
0
  6
CONTINUOUS
 62
     7
 10
1302.8253701848
 20
677.0813635791
 30
0.0
  0
VERTEX
  5
9AF
  8
0
  6
CONTINUOUS
 62
     7
 10
1302.9583949813
 20
677.1711440269
 30
0.0
  0
VERTEX
  5
9B0
  8
0
  6
CONTINUOUS
 62
     7
 10
1303.0907936147
 20
677.2620564391
 30
0.0
  0
VERTEX
  5
9B1
  8
0
  6
CONTINUOUS
 62
     7
 10
1303.2225654573
 20
677.3541279869
 30
0.0
  0
VERTEX
  5
9B2
  8
0
  6
CONTINUOUS
 62
     7
 10
1303.3536987031
 20
677.4473554973
 30
0.0
  0
VERTEX
  5
9B3
  8
0
  6
CONTINUOUS
 62
     7
 10
1303.4841805574
 20
677.541731786
 30
0.0
  0
VERTEX
  5
9B4
  8
0
  6
CONTINUOUS
 62
     7
 10
1303.6139978388
 20
677.63725244
 30
0.0
  0
VERTEX
  5
9B5
  8
0
  6
CONTINUOUS
 62
     7
 10
1303.7431352048
 20
677.7339068225
 30
0.0
  0
VERTEX
  5
9B6
  8
0
  6
CONTINUOUS
 62
     7
 10
1303.8715772239
 20
677.8316839686
 30
0.0
  0
VERTEX
  5
9B7
  8
0
  6
CONTINUOUS
 62
     7
 10
1303.9993084648
 20
677.9305729132
 30
0.0
  0
VERTEX
  5
9B8
  8
0
  6
CONTINUOUS
 62
     7
 10
1304.1263134963
 20
678.0305626913
 30
0.0
  0
VERTEX
  5
9B9
  8
0
  6
CONTINUOUS
 62
     7
 10
1304.2525768868
 20
678.1316423378
 30
0.0
  0
VERTEX
  5
9BA
  8
0
  6
CONTINUOUS
 62
     7
 10
1304.3780832052
 20
678.2338008877
 30
0.0
  0
VERTEX
  5
9BB
  8
0
  6
CONTINUOUS
 62
     7
 10
1304.5028170199
 20
678.3370273761
 30
0.0
  0
VERTEX
  5
9BC
  8
0
  6
CONTINUOUS
 62
     7
 10
1304.6267628998
 20
678.4413108377
 30
0.0
  0
VERTEX
  5
9BD
  8
0
  6
CONTINUOUS
 62
     7
 10
1304.7499054133
 20
678.5466403077
 30
0.0
  0
VERTEX
  5
9BE
  8
0
  6
CONTINUOUS
 62
     7
 10
1304.8722291293
 20
678.653004821
 30
0.0
  0
VERTEX
  5
9BF
  8
0
  6
CONTINUOUS
 62
     7
 10
1304.9937186162
 20
678.7603934126
 30
0.0
  0
VERTEX
  5
9C0
  8
0
  6
CONTINUOUS
 62
     7
 10
1305.1143584428
 20
678.8687951174
 30
0.0
  0
VERTEX
  5
9C1
  8
0
  6
CONTINUOUS
 62
     7
 10
1305.2341331777
 20
678.9781989704
 30
0.0
  0
VERTEX
  5
9C2
  8
0
  6
CONTINUOUS
 62
     7
 10
1305.3530273896
 20
679.0885940066
 30
0.0
  0
VERTEX
  5
9C3
  8
0
  6
CONTINUOUS
 62
     7
 10
1305.4710256472
 20
679.1999692609
 30
0.0
  0
VERTEX
  5
9C4
  8
0
  6
CONTINUOUS
 62
     7
 10
1305.5881125189
 20
679.3123137683
 30
0.0
  0
VERTEX
  5
9C5
  8
0
  6
CONTINUOUS
 62
     7
 10
1305.7042725736
 20
679.4256165638
 30
0.0
  0
VERTEX
  5
9C6
  8
0
  6
CONTINUOUS
 62
     7
 10
1305.8194903799
 20
679.5398666824
 30
0.0
  0
SEQEND
  5
D2E
  8
0
  6
CONTINUOUS
 62
     7
  0
POLYLINE
  5
21C
  8
0
  6
CONTINUOUS
 62
     7
 66
     1
 10
0.0
 20
0.0
 30
0.0
  0
VERTEX
  5
9C7
  8
0
  6
CONTINUOUS
 62
     7
 10
1305.8194903799
 20
414.6300529515
 30
0.0
  0
VERTEX
  5
9C8
  8
0
  6
CONTINUOUS
 62
     7
 10
1305.7042725736
 20
414.7443030701
 30
0.0
  0
VERTEX
  5
9C9
  8
0
  6
CONTINUOUS
 62
     7
 10
1305.5881125189
 20
414.8576058656
 30
0.0
  0
VERTEX
  5
9CA
  8
0
  6
CONTINUOUS
 62
     7
 10
1305.4710256472
 20
414.9699503731
 30
0.0
  0
VERTEX
  5
9CB
  8
0
  6
CONTINUOUS
 62
     7
 10
1305.3530273896
 20
415.0813256274
 30
0.0
  0
VERTEX
  5
9CC
  8
0
  6
CONTINUOUS
 62
     7
 10
1305.2341331777
 20
415.1917206636
 30
0.0
  0
VERTEX
  5
9CD
  8
0
  6
CONTINUOUS
 62
     7
 10
1305.1143584428
 20
415.3011245166
 30
0.0
  0
VERTEX
  5
9CE
  8
0
  6
CONTINUOUS
 62
     7
 10
1304.9937186162
 20
415.4095262214
 30
0.0
  0
VERTEX
  5
9CF
  8
0
  6
CONTINUOUS
 62
     7
 10
1304.8722291293
 20
415.5169148129
 30
0.0
  0
VERTEX
  5
9D0
  8
0
  6
CONTINUOUS
 62
     7
 10
1304.7499054133
 20
415.6232793262
 30
0.0
  0
VERTEX
  5
9D1
  8
0
  6
CONTINUOUS
 62
     7
 10
1304.6267628998
 20
415.7286087962
 30
0.0
  0
VERTEX
  5
9D2
  8
0
  6
CONTINUOUS
 62
     7
 10
1304.5028170199
 20
415.8328922579
 30
0.0
  0
VERTEX
  5
9D3
  8
0
  6
CONTINUOUS
 62
     7
 10
1304.3780832052
 20
415.9361187462
 30
0.0
  0
VERTEX
  5
9D4
  8
0
  6
CONTINUOUS
 62
     7
 10
1304.2525768868
 20
416.0382772962
 30
0.0
  0
VERTEX
  5
9D5
  8
0
  6
CONTINUOUS
 62
     7
 10
1304.1263134963
 20
416.1393569427
 30
0.0
  0
VERTEX
  5
9D6
  8
0
  6
CONTINUOUS
 62
     7
 10
1303.9993084648
 20
416.2393467208
 30
0.0
  0
VERTEX
  5
9D7
  8
0
  6
CONTINUOUS
 62
     7
 10
1303.8715772239
 20
416.3382356653
 30
0.0
  0
VERTEX
  5
9D8
  8
0
  6
CONTINUOUS
 62
     7
 10
1303.7431352048
 20
416.4360128114
 30
0.0
  0
VERTEX
  5
9D9
  8
0
  6
CONTINUOUS
 62
     7
 10
1303.6139978388
 20
416.532667194
 30
0.0
  0
VERTEX
  5
9DA
  8
0
  6
CONTINUOUS
 62
     7
 10
1303.4841805574
 20
416.628187848
 30
0.0
  0
VERTEX
  5
9DB
  8
0
  6
CONTINUOUS
 62
     7
 10
1303.3536987031
 20
416.7225641367
 30
0.0
  0
VERTEX
  5
9DC
  8
0
  6
CONTINUOUS
 62
     7
 10
1303.2225654573
 20
416.8157916471
 30
0.0
  0
VERTEX
  5
9DD
  8
0
  6
CONTINUOUS
 62
     7
 10
1303.0907936147
 20
416.9078631949
 30
0.0
  0
VERTEX
  5
9DE
  8
0
  6
CONTINUOUS
 62
     7
 10
1302.9583949813
 20
416.9987756071
 30
0.0
  0
VERTEX
  5
9DF
  8
0
  6
CONTINUOUS
 62
     7
 10
1302.8253701848
 20
417.0885560549
 30
0.0
  0
VERTEX
  5
9E0
  8
0
  6
CONTINUOUS
 62
     7
 10
1302.6917191046
 20
417.1772078352
 30
0.0
  0
VERTEX
  5
9E1
  8
0
  6
CONTINUOUS
 62
     7
 10
1302.5574422967
 20
417.2647295292
 30
0.0
  0
VERTEX
  5
9E2
  8
0
  6
CONTINUOUS
 62
     7
 10
1302.4225403172
 20
417.3511197179
 30
0.0
  0
VERTEX
  5
9E3
  8
0
  6
CONTINUOUS
 62
     7
 10
1302.287013722
 20
417.4363769825
 30
0.0
  0
VERTEX
  5
9E4
  8
0
  6
CONTINUOUS
 62
     7
 10
1302.1508630672
 20
417.5204999039
 30
0.0
  0
VERTEX
  5
9E5
  8
0
  6
CONTINUOUS
 62
     7
 10
1302.0140889088
 20
417.6034870633
 30
0.0
  0
VERTEX
  5
9E6
  8
0
  6
CONTINUOUS
 62
     7
 10
1301.8766918029
 20
417.6853370418
 30
0.0
  0
VERTEX
  5
9E7
  8
0
  6
CONTINUOUS
 62
     7
 10
1301.7386723056
 20
417.7660484205
 30
0.0
  0
VERTEX
  5
9E8
  8
0
  6
CONTINUOUS
 62
     7
 10
1301.6000309727
 20
417.8456197805
 30
0.0
  0
VERTEX
  5
9E9
  8
0
  6
CONTINUOUS
 62
     7
 10
1301.4607683605
 20
417.9240497028
 30
0.0
  0
VERTEX
  5
9EA
  8
0
  6
CONTINUOUS
 62
     7
 10
1301.3208850249
 20
418.0013367686
 30
0.0
  0
VERTEX
  5
9EB
  8
0
  6
CONTINUOUS
 62
     7
 10
1301.1803815219
 20
418.0774795589
 30
0.0
  0
VERTEX
  5
9EC
  8
0
  6
CONTINUOUS
 62
     7
 10
1301.0392584076
 20
418.1524766548
 30
0.0
  0
VERTEX
  5
9ED
  8
0
  6
CONTINUOUS
 62
     7
 10
1300.897516238
 20
418.2263266375
 30
0.0
  0
VERTEX
  5
9EE
  8
0
  6
CONTINUOUS
 62
     7
 10
1300.7551555692
 20
418.299028088
 30
0.0
  0
VERTEX
  5
9EF
  8
0
  6
CONTINUOUS
 62
     7
 10
1300.6121769571
 20
418.3705795874
 30
0.0
  0
VERTEX
  5
9F0
  8
0
  6
CONTINUOUS
 62
     7
 10
1300.4685809579
 20
418.4409797168
 30
0.0
  0
VERTEX
  5
9F1
  8
0
  6
CONTINUOUS
 62
     7
 10
1300.3243681276
 20
418.5102270573
 30
0.0
  0
VERTEX
  5
9F2
  8
0
  6
CONTINUOUS
 62
     7
 10
1300.1795390221
 20
418.57832019
 30
0.0
  0
VERTEX
  5
9F3
  8
0
  6
CONTINUOUS
 62
     7
 10
1300.0340941976
 20
418.6452576959
 30
0.0
  0
VERTEX
  5
9F4
  8
0
  6
CONTINUOUS
 62
     7
 10
1299.88803421
 20
418.7110381562
 30
0.0
  0
VERTEX
  5
9F5
  8
0
  6
CONTINUOUS
 62
     7
 10
1299.7413596155
 20
418.775660152
 30
0.0
  0
VERTEX
  5
9F6
  8
0
  6
CONTINUOUS
 62
     7
 10
1299.59407097
 20
418.8391222643
 30
0.0
  0
VERTEX
  5
9F7
  8
0
  6
CONTINUOUS
 62
     7
 10
1299.4461688295
 20
418.9014230742
 30
0.0
  0
VERTEX
  5
9F8
  8
0
  6
CONTINUOUS
 62
     7
 10
1299.2976537502
 20
418.9625611629
 30
0.0
  0
VERTEX
  5
9F9
  8
0
  6
CONTINUOUS
 62
     7
 10
1299.1485393272
 20
419.0225315236
 30
0.0
  0
VERTEX
  5
9FA
  8
0
  6
CONTINUOUS
 62
     7
 10
1298.9988666547
 20
419.0813215922
 30
0.0
  0
VERTEX
  5
9FB
  8
0
  6
CONTINUOUS
 62
     7
 10
1298.8486385737
 20
419.1389293397
 30
0.0
  0
VERTEX
  5
9FC
  8
0
  6
CONTINUOUS
 62
     7
 10
1298.697854951
 20
419.1953535562
 30
0.0
  0
VERTEX
  5
9FD
  8
0
  6
CONTINUOUS
 62
     7
 10
1298.5465156535
 20
419.2505930313
 30
0.0
  0
VERTEX
  5
9FE
  8
0
  6
CONTINUOUS
 62
     7
 10
1298.3946205481
 20
419.304646555
 30
0.0
  0
VERTEX
  5
9FF
  8
0
  6
CONTINUOUS
 62
     7
 10
1298.2421695015
 20
419.3575129172
 30
0.0
  0
VERTEX
  5
A00
  8
0
  6
CONTINUOUS
 62
     7
 10
1298.0892734464
 20
419.4091535203
 30
0.0
  0
VERTEX
  5
A01
  8
0
  6
CONTINUOUS
 62
     7
 10
1297.936155447
 20
419.4594929713
 30
0.0
  0
VERTEX
  5
A02
  8
0
  6
CONTINUOUS
 62
     7
 10
1297.7828214904
 20
419.5085297342
 30
0.0
  0
VERTEX
  5
A03
  8
0
  6
CONTINUOUS
 62
     7
 10
1297.6292712489
 20
419.5562644098
 30
0.0
  0
VERTEX
  5
A04
  8
0
  6
CONTINUOUS
 62
     7
 10
1297.4755043945
 20
419.6026975986
 30
0.0
  0
VERTEX
  5
A05
  8
0
  6
CONTINUOUS
 62
     7
 10
1297.3215205995
 20
419.6478299015
 30
0.0
  0
VERTEX
  5
A06
  8
0
  6
CONTINUOUS
 62
     7
 10
1297.167319536
 20
419.691661919
 30
0.0
  0
VERTEX
  5
A07
  8
0
  6
CONTINUOUS
 62
     7
 10
1297.0129008762
 20
419.7341942518
 30
0.0
  0
VERTEX
  5
A08
  8
0
  6
CONTINUOUS
 62
     7
 10
1296.8582642924
 20
419.7754275007
 30
0.0
  0
VERTEX
  5
A09
  8
0
  6
CONTINUOUS
 62
     7
 10
1296.7034094566
 20
419.8153622662
 30
0.0
  0
VERTEX
  5
A0A
  8
0
  6
CONTINUOUS
 62
     7
 10
1296.548336041
 20
419.853999149
 30
0.0
  0
VERTEX
  5
A0B
  8
0
  6
CONTINUOUS
 62
     7
 10
1296.3930437179
 20
419.8913387498
 30
0.0
  0
VERTEX
  5
A0C
  8
0
  6
CONTINUOUS
 62
     7
 10
1296.2375321595
 20
419.9273816693
 30
0.0
  0
VERTEX
  5
A0D
  8
0
  6
CONTINUOUS
 62
     7
 10
1296.0818010378
 20
419.9621285082
 30
0.0
  0
VERTEX
  5
A0E
  8
0
  6
CONTINUOUS
 62
     7
 10
1295.9258500251
 20
419.9955798671
 30
0.0
  0
VERTEX
  5
A0F
  8
0
  6
CONTINUOUS
 62
     7
 10
1295.7696787936
 20
420.0277363466
 30
0.0
  0
VERTEX
  5
A10
  8
0
  6
CONTINUOUS
 62
     7
 10
1295.6132870154
 20
420.0585985475
 30
0.0
  0
VERTEX
  5
A11
  8
0
  6
CONTINUOUS
 62
     7
 10
1295.4566743627
 20
420.0881670705
 30
0.0
  0
VERTEX
  5
A12
  8
0
  6
CONTINUOUS
 62
     7
 10
1295.2998405078
 20
420.1164425161
 30
0.0
  0
VERTEX
  5
A13
  8
0
  6
CONTINUOUS
 62
     7
 10
1295.1427851227
 20
420.1434254851
 30
0.0
  0
VERTEX
  5
A14
  8
0
  6
CONTINUOUS
 62
     7
 10
1294.9855078796
 20
420.1691165781
 30
0.0
  0
VERTEX
  5
A15
  8
0
  6
CONTINUOUS
 62
     7
 10
1294.8280084509
 20
420.1935163959
 30
0.0
  0
VERTEX
  5
A16
  8
0
  6
CONTINUOUS
 62
     7
 10
1294.6702865092
 20
420.216625539
 30
0.0
  0
VERTEX
  5
A17
  8
0
  6
CONTINUOUS
 62
     7
 10
1294.5123433667
 20
420.238444606
 30
0.0
  0
VERTEX
  5
A18
  8
0
  6
CONTINUOUS
 62
     7
 10
1294.3541854936
 20
420.2589741886
 30
0.0
  0
VERTEX
  5
A19
  8
0
  6
CONTINUOUS
 62
     7
 10
1294.1958203723
 20
420.2782148771
 30
0.0
  0
VERTEX
  5
A1A
  8
0
  6
CONTINUOUS
 62
     7
 10
1294.037255485
 20
420.296167262
 30
0.0
  0
VERTEX
  5
A1B
  8
0
  6
CONTINUOUS
 62
     7
 10
1293.8784983142
 20
420.3128319335
 30
0.0
  0
VERTEX
  5
A1C
  8
0
  6
CONTINUOUS
 62
     7
 10
1293.7195563421
 20
420.328209482
 30
0.0
  0
VERTEX
  5
A1D
  8
0
  6
CONTINUOUS
 62
     7
 10
1293.5604370509
 20
420.3423004979
 30
0.0
  0
VERTEX
  5
A1E
  8
0
  6
CONTINUOUS
 62
     7
 10
1293.4011479231
 20
420.3551055716
 30
0.0
  0
VERTEX
  5
A1F
  8
0
  6
CONTINUOUS
 62
     7
 10
1293.241696441
 20
420.3666252934
 30
0.0
  0
VERTEX
  5
A20
  8
0
  6
CONTINUOUS
 62
     7
 10
1293.0820900747
 20
420.3768602536
 30
0.0
  0
VERTEX
  5
A21
  8
0
  6
CONTINUOUS
 62
     7
 10
1292.9223334822
 20
420.3858109007
 30
0.0
  0
VERTEX
  5
A22
  8
0
  6
CONTINUOUS
 62
     7
 10
1292.7623392567
 20
420.393459525
 30
0.0
  0
VERTEX
  5
A23
  8
0
  6
CONTINUOUS
 62
     7
 10
1292.6020812004
 20
420.3997941968
 30
0.0
  0
VERTEX
  5
A24
  8
0
  6
CONTINUOUS
 62
     7
 10
1292.4416102886
 20
420.4048162429
 30
0.0
  0
VERTEX
  5
A25
  8
0
  6
CONTINUOUS
 62
     7
 10
1292.2809774972
 20
420.4085269904
 30
0.0
  0
VERTEX
  5
A26
  8
0
  6
CONTINUOUS
 62
     7
 10
1292.1202338017
 20
420.4109277663
 30
0.0
  0
VERTEX
  5
A27
  8
0
  6
CONTINUOUS
 62
     7
 10
1291.9594301776
 20
420.4120198977
 30
0.0
  0
VERTEX
  5
A28
  8
0
  6
CONTINUOUS
 62
     7
 10
1291.7986176007
 20
420.4118047116
 30
0.0
  0
VERTEX
  5
A29
  8
0
  6
CONTINUOUS
 62
     7
 10
1291.6378470466
 20
420.4102835351
 30
0.0
  0
VERTEX
  5
A2A
  8
0
  6
CONTINUOUS
 62
     7
 10
1291.4771694908
 20
420.407457695
 30
0.0
  0
VERTEX
  5
A2B
  8
0
  6
CONTINUOUS
 62
     7
 10
1291.316635909
 20
420.4033285185
 30
0.0
  0
VERTEX
  5
A2C
  8
0
  6
CONTINUOUS
 62
     7
 10
1291.1562972768
 20
420.3978973327
 30
0.0
  0
VERTEX
  5
A2D
  8
0
  6
CONTINUOUS
 62
     7
 10
1290.9961992111
 20
420.3911652728
 30
0.0
  0
VERTEX
  5
A2E
  8
0
  6
CONTINUOUS
 62
     7
 10
1290.8363534507
 20
420.3831322627
 30
0.0
  0
VERTEX
  5
A2F
  8
0
  6
CONTINUOUS
 62
     7
 10
1290.6767585331
 20
420.3737977543
 30
0.0
  0
VERTEX
  5
A30
  8
0
  6
CONTINUOUS
 62
     7
 10
1290.5174129659
 20
420.3631611983
 30
0.0
  0
VERTEX
  5
A31
  8
0
  6
CONTINUOUS
 62
     7
 10
1290.3583152569
 20
420.3512220452
 30
0.0
  0
VERTEX
  5
A32
  8
0
  6
CONTINUOUS
 62
     7
 10
1290.1994639137
 20
420.3379797459
 30
0.0
  0
VERTEX
  5
A33
  8
0
  6
CONTINUOUS
 62
     7
 10
1290.0408574438
 20
420.3234337511
 30
0.0
  0
VERTEX
  5
A34
  8
0
  6
CONTINUOUS
 62
     7
 10
1289.8824943551
 20
420.3075835114
 30
0.0
  0
VERTEX
  5
A35
  8
0
  6
CONTINUOUS
 62
     7
 10
1289.724373155
 20
420.2904284775
 30
0.0
  0
VERTEX
  5
A36
  8
0
  6
CONTINUOUS
 62
     7
 10
1289.5664923514
 20
420.2719681002
 30
0.0
  0
VERTEX
  5
A37
  8
0
  6
CONTINUOUS
 62
     7
 10
1289.4088504517
 20
420.2522018302
 30
0.0
  0
VERTEX
  5
A38
  8
0
  6
CONTINUOUS
 62
     7
 10
1289.2514459637
 20
420.2311291182
 30
0.0
  0
VERTEX
  5
A39
  8
0
  6
CONTINUOUS
 62
     7
 10
1289.094277395
 20
420.2087494148
 30
0.0
  0
VERTEX
  5
A3A
  8
0
  6
CONTINUOUS
 62
     7
 10
1288.9373432533
 20
420.1850621708
 30
0.0
  0
VERTEX
  5
A3B
  8
0
  6
CONTINUOUS
 62
     7
 10
1288.7806420462
 20
420.1600668369
 30
0.0
  0
VERTEX
  5
A3C
  8
0
  6
CONTINUOUS
 62
     7
 10
1288.6241722813
 20
420.1337628638
 30
0.0
  0
VERTEX
  5
A3D
  8
0
  6
CONTINUOUS
 62
     7
 10
1288.4679324664
 20
420.1061497022
 30
0.0
  0
VERTEX
  5
A3E
  8
0
  6
CONTINUOUS
 62
     7
 10
1288.3119213633
 20
420.0772269073
 30
0.0
  0
VERTEX
  5
A3F
  8
0
  6
CONTINUOUS
 62
     7
 10
1288.1561412771
 20
420.0469954918
 30
0.0
  0
VERTEX
  5
A40
  8
0
  6
CONTINUOUS
 62
     7
 10
1288.0005971133
 20
420.0154575375
 30
0.0
  0
VERTEX
  5
A41
  8
0
  6
CONTINUOUS
 62
     7
 10
1287.8452938372
 20
419.9826151511
 30
0.0
  0
VERTEX
  5
A42
  8
0
  6
CONTINUOUS
 62
     7
 10
1287.6902364141
 20
419.9484704391
 30
0.0
  0
VERTEX
  5
A43
  8
0
  6
CONTINUOUS
 62
     7
 10
1287.5354298093
 20
419.9130255082
 30
0.0
  0
VERTEX
  5
A44
  8
0
  6
CONTINUOUS
 62
     7
 10
1287.3808789881
 20
419.876282465
 30
0.0
  0
VERTEX
  5
A45
  8
0
  6
CONTINUOUS
 62
     7
 10
1287.2265889158
 20
419.838243416
 30
0.0
  0
VERTEX
  5
A46
  8
0
  6
CONTINUOUS
 62
     7
 10
1287.0725645578
 20
419.7989104679
 30
0.0
  0
VERTEX
  5
A47
  8
0
  6
CONTINUOUS
 62
     7
 10
1286.9188108794
 20
419.7582857272
 30
0.0
  0
VERTEX
  5
A48
  8
0
  6
CONTINUOUS
 62
     7
 10
1286.7653284309
 20
419.7163686886
 30
0.0
  0
VERTEX
  5
A49
  8
0
  6
CONTINUOUS
 62
     7
 10
1286.6120796648
 20
419.6731363064
 30
0.0
  0
VERTEX
  5
A4A
  8
0
  6
CONTINUOUS
 62
     7
 10
1286.4590075555
 20
419.6285540111
 30
0.0
  0
VERTEX
  5
A4B
  8
0
  6
CONTINUOUS
 62
     7
 10
1286.3060549206
 20
419.5825871403
 30
0.0
  0
VERTEX
  5
A4C
  8
0
  6
CONTINUOUS
 62
     7
 10
1286.1531645776
 20
419.5352010317
 30
0.0
  0
VERTEX
  5
A4D
  8
0
  6
CONTINUOUS
 62
     7
 10
1286.000279344
 20
419.4863610229
 30
0.0
  0
VERTEX
  5
A4E
  8
0
  6
CONTINUOUS
 62
     7
 10
1285.8473420559
 20
419.4360324578
 30
0.0
  0
VERTEX
  5
A4F
  8
0
  6
CONTINUOUS
 62
     7
 10
1285.6943074648
 20
419.3841846244
 30
0.0
  0
VERTEX
  5
A50
  8
0
  6
CONTINUOUS
 62
     7
 10
1285.5411626918
 20
419.3307975266
 30
0.0
  0
VERTEX
  5
A51
  8
0
  6
CONTINUOUS
 62
     7
 10
1285.3879003024
 20
419.2758529704
 30
0.0
  0
VERTEX
  5
A52
  8
0
  6
CONTINUOUS
 62
     7
 10
1285.234512862
 20
419.219332762
 30
0.0
  0
VERTEX
  5
A53
  8
0
  6
CONTINUOUS
 62
     7
 10
1285.0809929362
 20
419.1612187073
 30
0.0
  0
VERTEX
  5
A54
  8
0
  6
CONTINUOUS
 62
     7
 10
1284.9273330905
 20
419.1014926124
 30
0.0
  0
VERTEX
  5
A55
  8
0
  6
CONTINUOUS
 62
     7
 10
1284.7735258903
 20
419.0401362834
 30
0.0
  0
VERTEX
  5
A56
  8
0
  6
CONTINUOUS
 62
     7
 10
1284.6195639012
 20
418.9771315263
 30
0.0
  0
VERTEX
  5
A57
  8
0
  6
CONTINUOUS
 62
     7
 10
1284.4654396887
 20
418.9124601473
 30
0.0
  0
VERTEX
  5
A58
  8
0
  6
CONTINUOUS
 62
     7
 10
1284.3111458182
 20
418.8461039522
 30
0.0
  0
VERTEX
  5
A59
  8
0
  6
CONTINUOUS
 62
     7
 10
1284.1567829572
 20
418.7781355559
 30
0.0
  0
VERTEX
  5
A5A
  8
0
  6
CONTINUOUS
 62
     7
 10
1284.0029406939
 20
418.7090788804
 30
0.0
  0
VERTEX
  5
A5B
  8
0
  6
CONTINUOUS
 62
     7
 10
1283.8494792157
 20
418.6389075889
 30
0.0
  0
VERTEX
  5
A5C
  8
0
  6
CONTINUOUS
 62
     7
 10
1283.6961579551
 20
418.5674744633
 30
0.0
  0
VERTEX
  5
A5D
  8
0
  6
CONTINUOUS
 62
     7
 10
1283.5427370227
 20
418.4946323367
 30
0.0
  0
VERTEX
  5
A5E
  8
0
  6
CONTINUOUS
 62
     7
 10
1283.3889765295
 20
418.4202340423
 30
0.0
  0
VERTEX
  5
A5F
  8
0
  6
CONTINUOUS
 62
     7
 10
1283.2346365863
 20
418.344132413
 30
0.0
  0
VERTEX
  5
A60
  8
0
  6
CONTINUOUS
 62
     7
 10
1283.0794773037
 20
418.266180282
 30
0.0
  0
VERTEX
  5
A61
  8
0
  6
CONTINUOUS
 62
     7
 10
1282.9232587927
 20
418.1862304823
 30
0.0
  0
VERTEX
  5
A62
  8
0
  6
CONTINUOUS
 62
     7
 10
1282.7657411639
 20
418.1041358472
 30
0.0
  0
VERTEX
  5
A63
  8
0
  6
CONTINUOUS
 62
     7
 10
1282.6066845283
 20
418.0197492096
 30
0.0
  0
VERTEX
  5
A64
  8
0
  6
CONTINUOUS
 62
     7
 10
1282.4458489966
 20
417.9329234026
 30
0.0
  0
VERTEX
  5
A65
  8
0
  6
CONTINUOUS
 62
     7
 10
1282.2829946795
 20
417.8435112594
 30
0.0
  0
VERTEX
  5
A66
  8
0
  6
CONTINUOUS
 62
     7
 10
1282.117881688
 20
417.751365613
 30
0.0
  0
VERTEX
  5
A67
  8
0
  6
CONTINUOUS
 62
     7
 10
1281.9502701327
 20
417.6563392966
 30
0.0
  0
VERTEX
  5
A68
  8
0
  6
CONTINUOUS
 62
     7
 10
1281.7799201245
 20
417.5582851431
 30
0.0
  0
VERTEX
  5
A69
  8
0
  6
CONTINUOUS
 62
     7
 10
1281.6065917741
 20
417.4570559858
 30
0.0
  0
VERTEX
  5
A6A
  8
0
  6
CONTINUOUS
 62
     7
 10
1281.4300451924
 20
417.3525046577
 30
0.0
  0
VERTEX
  5
A6B
  8
0
  6
CONTINUOUS
 62
     7
 10
1281.2500404901
 20
417.2444839918
 30
0.0
  0
VERTEX
  5
A6C
  8
0
  6
CONTINUOUS
 62
     7
 10
1281.0663377781
 20
417.1328468214
 30
0.0
  0
VERTEX
  5
A6D
  8
0
  6
CONTINUOUS
 62
     7
 10
1280.8788077526
 20
417.0175497511
 30
0.0
  0
VERTEX
  5
A6E
  8
0
  6
CONTINUOUS
 62
     7
 10
1280.6900779043
 20
416.901116635
 30
0.0
  0
VERTEX
  5
A6F
  8
0
  6
CONTINUOUS
 62
     7
 10
1280.5013489447
 20
416.7846818952
 30
0.0
  0
VERTEX
  5
A70
  8
0
  6
CONTINUOUS
 62
     7
 10
1280.3126208684
 20
416.6682455409
 30
0.0
  0
VERTEX
  5
A71
  8
0
  6
CONTINUOUS
 62
     7
 10
1280.1238936702
 20
416.5518075813
 30
0.0
  0
VERTEX
  5
A72
  8
0
  6
CONTINUOUS
 62
     7
 10
1279.9351673449
 20
416.4353680258
 30
0.0
  0
VERTEX
  5
A73
  8
0
  6
CONTINUOUS
 62
     7
 10
1279.7464418872
 20
416.3189268836
 30
0.0
  0
VERTEX
  5
A74
  8
0
  6
CONTINUOUS
 62
     7
 10
1279.5577172918
 20
416.2024841641
 30
0.0
  0
VERTEX
  5
A75
  8
0
  6
CONTINUOUS
 62
     7
 10
1279.3689935536
 20
416.0860398763
 30
0.0
  0
VERTEX
  5
A76
  8
0
  6
CONTINUOUS
 62
     7
 10
1279.1802706671
 20
415.9695940297
 30
0.0
  0
VERTEX
  5
A77
  8
0
  6
CONTINUOUS
 62
     7
 10
1278.9915486273
 20
415.8531466336
 30
0.0
  0
VERTEX
  5
A78
  8
0
  6
CONTINUOUS
 62
     7
 10
1278.8028274287
 20
415.736697697
 30
0.0
  0
VERTEX
  5
A79
  8
0
  6
CONTINUOUS
 62
     7
 10
1278.6141070663
 20
415.6202472295
 30
0.0
  0
VERTEX
  5
A7A
  8
0
  6
CONTINUOUS
 62
     7
 10
1278.4253875347
 20
415.5037952401
 30
0.0
  0
VERTEX
  5
A7B
  8
0
  6
CONTINUOUS
 62
     7
 10
1278.2366688286
 20
415.3873417383
 30
0.0
  0
VERTEX
  5
A7C
  8
0
  6
CONTINUOUS
 62
     7
 10
1278.0479509429
 20
415.2708867332
 30
0.0
  0
VERTEX
  5
A7D
  8
0
  6
CONTINUOUS
 62
     7
 10
1277.8592338722
 20
415.1544302341
 30
0.0
  0
VERTEX
  5
A7E
  8
0
  6
CONTINUOUS
 62
     7
 10
1277.6705176114
 20
415.0379722503
 30
0.0
  0
VERTEX
  5
A7F
  8
0
  6
CONTINUOUS
 62
     7
 10
1277.4818021551
 20
414.9215127911
 30
0.0
  0
VERTEX
  5
A80
  8
0
  6
CONTINUOUS
 62
     7
 10
1277.2930874981
 20
414.8050518658
 30
0.0
  0
VERTEX
  5
A81
  8
0
  6
CONTINUOUS
 62
     7
 10
1277.1043736351
 20
414.6885894835
 30
0.0
  0
VERTEX
  5
A82
  8
0
  6
CONTINUOUS
 62
     7
 10
1276.9156605609
 20
414.5721256537
 30
0.0
  0
VERTEX
  5
A83
  8
0
  6
CONTINUOUS
 62
     7
 10
1276.7269482703
 20
414.4556603855
 30
0.0
  0
VERTEX
  5
A84
  8
0
  6
CONTINUOUS
 62
     7
 10
1276.538236758
 20
414.3391936882
 30
0.0
  0
VERTEX
  5
A85
  8
0
  6
CONTINUOUS
 62
     7
 10
1276.3495260187
 20
414.2227255711
 30
0.0
  0
VERTEX
  5
A86
  8
0
  6
CONTINUOUS
 62
     7
 10
1276.1608160471
 20
414.1062560435
 30
0.0
  0
VERTEX
  5
A87
  8
0
  6
CONTINUOUS
 62
     7
 10
1275.9721068381
 20
413.9897851147
 30
0.0
  0
VERTEX
  5
A88
  8
0
  6
CONTINUOUS
 62
     7
 10
1275.7833983864
 20
413.8733127938
 30
0.0
  0
VERTEX
  5
A89
  8
0
  6
CONTINUOUS
 62
     7
 10
1275.5946906867
 20
413.7568390903
 30
0.0
  0
VERTEX
  5
A8A
  8
0
  6
CONTINUOUS
 62
     7
 10
1275.4059837337
 20
413.6403640133
 30
0.0
  0
VERTEX
  5
A8B
  8
0
  6
CONTINUOUS
 62
     7
 10
1275.2172775223
 20
413.5238875721
 30
0.0
  0
VERTEX
  5
A8C
  8
0
  6
CONTINUOUS
 62
     7
 10
1275.0285720471
 20
413.407409776
 30
0.0
  0
VERTEX
  5
A8D
  8
0
  6
CONTINUOUS
 62
     7
 10
1274.8398673029
 20
413.2909306343
 30
0.0
  0
VERTEX
  5
A8E
  8
0
  6
CONTINUOUS
 62
     7
 10
1274.6511632845
 20
413.1744501563
 30
0.0
  0
VERTEX
  5
A8F
  8
0
  6
CONTINUOUS
 62
     7
 10
1274.4624599865
 20
413.0579683511
 30
0.0
  0
SEQEND
  5
D2F
  8
0
  6
CONTINUOUS
 62
     7
  0
POLYLINE
  5
21D
  8
0
  6
CONTINUOUS
 62
     7
 66
     1
 10
0.0
 20
0.0
 30
0.0
  0
VERTEX
  5
A90
  8
0
  6
CONTINUOUS
 62
     7
 10
1304.2474057789
 20
383.2730225588
 30
0.0
  0
VERTEX
  5
A91
  8
0
  6
CONTINUOUS
 62
     7
 10
1304.363887584
 20
383.4617258567
 30
0.0
  0
VERTEX
  5
A92
  8
0
  6
CONTINUOUS
 62
     7
 10
1304.4803680621
 20
383.6504298752
 30
0.0
  0
VERTEX
  5
A93
  8
0
  6
CONTINUOUS
 62
     7
 10
1304.5968472038
 20
383.8391346194
 30
0.0
  0
VERTEX
  5
A94
  8
0
  6
CONTINUOUS
 62
     7
 10
1304.7133249998
 20
384.0278400945
 30
0.0
  0
VERTEX
  5
A95
  8
0
  6
CONTINUOUS
 62
     7
 10
1304.829801441
 20
384.216546306
 30
0.0
  0
VERTEX
  5
A96
  8
0
  6
CONTINUOUS
 62
     7
 10
1304.946276518
 20
384.4052532589
 30
0.0
  0
VERTEX
  5
A97
  8
0
  6
CONTINUOUS
 62
     7
 10
1305.0627502216
 20
384.5939609586
 30
0.0
  0
VERTEX
  5
A98
  8
0
  6
CONTINUOUS
 62
     7
 10
1305.1792225424
 20
384.7826694103
 30
0.0
  0
VERTEX
  5
A99
  8
0
  6
CONTINUOUS
 62
     7
 10
1305.2956934712
 20
384.9713786193
 30
0.0
  0
VERTEX
  5
A9A
  8
0
  6
CONTINUOUS
 62
     7
 10
1305.4121629988
 20
385.1600885909
 30
0.0
  0
VERTEX
  5
A9B
  8
0
  6
CONTINUOUS
 62
     7
 10
1305.5286311159
 20
385.3487993302
 30
0.0
  0
VERTEX
  5
A9C
  8
0
  6
CONTINUOUS
 62
     7
 10
1305.6450978132
 20
385.5375108425
 30
0.0
  0
VERTEX
  5
A9D
  8
0
  6
CONTINUOUS
 62
     7
 10
1305.7615630814
 20
385.7262231331
 30
0.0
  0
VERTEX
  5
A9E
  8
0
  6
CONTINUOUS
 62
     7
 10
1305.8780269112
 20
385.9149362073
 30
0.0
  0
VERTEX
  5
A9F
  8
0
  6
CONTINUOUS
 62
     7
 10
1305.9944892934
 20
386.1036500702
 30
0.0
  0
VERTEX
  5
AA0
  8
0
  6
CONTINUOUS
 62
     7
 10
1306.1109502188
 20
386.2923647272
 30
0.0
  0
VERTEX
  5
AA1
  8
0
  6
CONTINUOUS
 62
     7
 10
1306.227409678
 20
386.4810801835
 30
0.0
  0
VERTEX
  5
AA2
  8
0
  6
CONTINUOUS
 62
     7
 10
1306.3438676618
 20
386.6697964444
 30
0.0
  0
VERTEX
  5
AA3
  8
0
  6
CONTINUOUS
 62
     7
 10
1306.4603241608
 20
386.8585135151
 30
0.0
  0
VERTEX
  5
AA4
  8
0
  6
CONTINUOUS
 62
     7
 10
1306.5767791659
 20
387.0472314008
 30
0.0
  0
VERTEX
  5
AA5
  8
0
  6
CONTINUOUS
 62
     7
 10
1306.6932326678
 20
387.2359501068
 30
0.0
  0
VERTEX
  5
AA6
  8
0
  6
CONTINUOUS
 62
     7
 10
1306.8096846571
 20
387.4246696385
 30
0.0
  0
VERTEX
  5
AA7
  8
0
  6
CONTINUOUS
 62
     7
 10
1306.9261351247
 20
387.6133900009
 30
0.0
  0
VERTEX
  5
AA8
  8
0
  6
CONTINUOUS
 62
     7
 10
1307.0425840612
 20
387.8021111994
 30
0.0
  0
VERTEX
  5
AA9
  8
0
  6
CONTINUOUS
 62
     7
 10
1307.1590314574
 20
387.9908332393
 30
0.0
  0
VERTEX
  5
AAA
  8
0
  6
CONTINUOUS
 62
     7
 10
1307.275477304
 20
388.1795561257
 30
0.0
  0
VERTEX
  5
AAB
  8
0
  6
CONTINUOUS
 62
     7
 10
1307.3919215917
 20
388.368279864
 30
0.0
  0
VERTEX
  5
AAC
  8
0
  6
CONTINUOUS
 62
     7
 10
1307.5083643113
 20
388.5570044593
 30
0.0
  0
VERTEX
  5
AAD
  8
0
  6
CONTINUOUS
 62
     7
 10
1307.6248054535
 20
388.745729917
 30
0.0
  0
VERTEX
  5
AAE
  8
0
  6
CONTINUOUS
 62
     7
 10
1307.741245009
 20
388.9344562424
 30
0.0
  0
VERTEX
  5
AAF
  8
0
  6
CONTINUOUS
 62
     7
 10
1307.8576829685
 20
389.1231834405
 30
0.0
  0
VERTEX
  5
AB0
  8
0
  6
CONTINUOUS
 62
     7
 10
1307.9741193228
 20
389.3119115168
 30
0.0
  0
VERTEX
  5
AB1
  8
0
  6
CONTINUOUS
 62
     7
 10
1308.0905540626
 20
389.5006404764
 30
0.0
  0
VERTEX
  5
AB2
  8
0
  6
CONTINUOUS
 62
     7
 10
1308.2069871787
 20
389.6893703247
 30
0.0
  0
VERTEX
  5
AB3
  8
0
  6
CONTINUOUS
 62
     7
 10
1308.322284249
 20
389.8769003502
 30
0.0
  0
VERTEX
  5
AB4
  8
0
  6
CONTINUOUS
 62
     7
 10
1308.4339214195
 20
390.0606030622
 30
0.0
  0
VERTEX
  5
AB5
  8
0
  6
CONTINUOUS
 62
     7
 10
1308.5419420853
 20
390.2406077645
 30
0.0
  0
VERTEX
  5
AB6
  8
0
  6
CONTINUOUS
 62
     7
 10
1308.6464934134
 20
390.4171543462
 30
0.0
  0
VERTEX
  5
AB7
  8
0
  6
CONTINUOUS
 62
     7
 10
1308.7477225708
 20
390.5904826965
 30
0.0
  0
VERTEX
  5
AB8
  8
0
  6
CONTINUOUS
 62
     7
 10
1308.8457767242
 20
390.7608327048
 30
0.0
  0
VERTEX
  5
AB9
  8
0
  6
CONTINUOUS
 62
     7
 10
1308.9408030407
 20
390.92844426
 30
0.0
  0
VERTEX
  5
ABA
  8
0
  6
CONTINUOUS
 62
     7
 10
1309.032948687
 20
391.0935572516
 30
0.0
  0
VERTEX
  5
ABB
  8
0
  6
CONTINUOUS
 62
     7
 10
1309.1223608303
 20
391.2564115686
 30
0.0
  0
VERTEX
  5
ABC
  8
0
  6
CONTINUOUS
 62
     7
 10
1309.2091866372
 20
391.4172471004
 30
0.0
  0
VERTEX
  5
ABD
  8
0
  6
CONTINUOUS
 62
     7
 10
1309.2935732748
 20
391.576303736
 30
0.0
  0
VERTEX
  5
ABE
  8
0
  6
CONTINUOUS
 62
     7
 10
1309.37566791
 20
391.7338213647
 30
0.0
  0
VERTEX
  5
ABF
  8
0
  6
CONTINUOUS
 62
     7
 10
1309.4556177096
 20
391.8900398758
 30
0.0
  0
VERTEX
  5
AC0
  8
0
  6
CONTINUOUS
 62
     7
 10
1309.5335698406
 20
392.0451991583
 30
0.0
  0
VERTEX
  5
AC1
  8
0
  6
CONTINUOUS
 62
     7
 10
1309.6096714699
 20
392.1995391016
 30
0.0
  0
VERTEX
  5
AC2
  8
0
  6
CONTINUOUS
 62
     7
 10
1309.6840697644
 20
392.3532995948
 30
0.0
  0
VERTEX
  5
AC3
  8
0
  6
CONTINUOUS
 62
     7
 10
1309.756911891
 20
392.5067205271
 30
0.0
  0
VERTEX
  5
AC4
  8
0
  6
CONTINUOUS
 62
     7
 10
1309.8283450166
 20
392.6600417878
 30
0.0
  0
VERTEX
  5
AC5
  8
0
  6
CONTINUOUS
 62
     7
 10
1309.8985163081
 20
392.813503266
 30
0.0
  0
VERTEX
  5
AC6
  8
0
  6
CONTINUOUS
 62
     7
 10
1309.9675729835
 20
392.9673455292
 30
0.0
  0
VERTEX
  5
AC7
  8
0
  6
CONTINUOUS
 62
     7
 10
1310.0355413799
 20
393.1217083902
 30
0.0
  0
VERTEX
  5
AC8
  8
0
  6
CONTINUOUS
 62
     7
 10
1310.1018975749
 20
393.2760022607
 30
0.0
  0
VERTEX
  5
AC9
  8
0
  6
CONTINUOUS
 62
     7
 10
1310.166568954
 20
393.4301264733
 30
0.0
  0
VERTEX
  5
ACA
  8
0
  6
CONTINUOUS
 62
     7
 10
1310.229573711
 20
393.5840884624
 30
0.0
  0
VERTEX
  5
ACB
  8
0
  6
CONTINUOUS
 62
     7
 10
1310.29093004
 20
393.7378956625
 30
0.0
  0
VERTEX
  5
ACC
  8
0
  6
CONTINUOUS
 62
     7
 10
1310.3506561349
 20
393.8915555082
 30
0.0
  0
VERTEX
  5
ACD
  8
0
  6
CONTINUOUS
 62
     7
 10
1310.4087701896
 20
394.045075434
 30
0.0
  0
VERTEX
  5
ACE
  8
0
  6
CONTINUOUS
 62
     7
 10
1310.4652903981
 20
394.1984628744
 30
0.0
  0
VERTEX
  5
ACF
  8
0
  6
CONTINUOUS
 62
     7
 10
1310.5202349542
 20
394.3517252638
 30
0.0
  0
VERTEX
  5
AD0
  8
0
  6
CONTINUOUS
 62
     7
 10
1310.573622052
 20
394.5048700368
 30
0.0
  0
VERTEX
  5
AD1
  8
0
  6
CONTINUOUS
 62
     7
 10
1310.6254698854
 20
394.6579046279
 30
0.0
  0
VERTEX
  5
AD2
  8
0
  6
CONTINUOUS
 62
     7
 10
1310.6757984506
 20
394.810841916
 30
0.0
  0
VERTEX
  5
AD3
  8
0
  6
CONTINUOUS
 62
     7
 10
1310.7246384594
 20
394.9637271496
 30
0.0
  0
VERTEX
  5
AD4
  8
0
  6
CONTINUOUS
 62
     7
 10
1310.772024568
 20
395.1166174926
 30
0.0
  0
VERTEX
  5
AD5
  8
0
  6
CONTINUOUS
 62
     7
 10
1310.8179914388
 20
395.2695701275
 30
0.0
  0
VERTEX
  5
AD6
  8
0
  6
CONTINUOUS
 62
     7
 10
1310.8625737341
 20
395.4226422368
 30
0.0
  0
VERTEX
  5
AD7
  8
0
  6
CONTINUOUS
 62
     7
 10
1310.9058061163
 20
395.5758910029
 30
0.0
  0
VERTEX
  5
AD8
  8
0
  6
CONTINUOUS
 62
     7
 10
1310.9477231549
 20
395.7293734514
 30
0.0
  0
VERTEX
  5
AD9
  8
0
  6
CONTINUOUS
 62
     7
 10
1310.9883478955
 20
395.8831271298
 30
0.0
  0
VERTEX
  5
ADA
  8
0
  6
CONTINUOUS
 62
     7
 10
1311.0276808437
 20
396.0371514878
 30
0.0
  0
VERTEX
  5
ADB
  8
0
  6
CONTINUOUS
 62
     7
 10
1311.0657198926
 20
396.19144156
 30
0.0
  0
VERTEX
  5
ADC
  8
0
  6
CONTINUOUS
 62
     7
 10
1311.1024629359
 20
396.3459923812
 30
0.0
  0
VERTEX
  5
ADD
  8
0
  6
CONTINUOUS
 62
     7
 10
1311.1379078668
 20
396.500798986
 30
0.0
  0
VERTEX
  5
ADE
  8
0
  6
CONTINUOUS
 62
     7
 10
1311.1720525788
 20
396.6558564091
 30
0.0
  0
VERTEX
  5
ADF
  8
0
  6
CONTINUOUS
 62
     7
 10
1311.2048949652
 20
396.8111596852
 30
0.0
  0
VERTEX
  5
AE0
  8
0
  6
CONTINUOUS
 62
     7
 10
1311.2364329195
 20
396.966703849
 30
0.0
  0
VERTEX
  5
AE1
  8
0
  6
CONTINUOUS
 62
     7
 10
1311.266664335
 20
397.1224839352
 30
0.0
  0
VERTEX
  5
AE2
  8
0
  6
CONTINUOUS
 62
     7
 10
1311.2955871299
 20
397.2784950383
 30
0.0
  0
VERTEX
  5
AE3
  8
0
  6
CONTINUOUS
 62
     7
 10
1311.3232002915
 20
397.4347348532
 30
0.0
  0
VERTEX
  5
AE4
  8
0
  6
CONTINUOUS
 62
     7
 10
1311.3495042646
 20
397.5912046181
 30
0.0
  0
VERTEX
  5
AE5
  8
0
  6
CONTINUOUS
 62
     7
 10
1311.3744995985
 20
397.7479058252
 30
0.0
  0
VERTEX
  5
AE6
  8
0
  6
CONTINUOUS
 62
     7
 10
1311.3981868425
 20
397.9048399669
 30
0.0
  0
VERTEX
  5
AE7
  8
0
  6
CONTINUOUS
 62
     7
 10
1311.4205665459
 20
398.0620085356
 30
0.0
  0
VERTEX
  5
AE8
  8
0
  6
CONTINUOUS
 62
     7
 10
1311.4416392579
 20
398.2194130236
 30
0.0
  0
VERTEX
  5
AE9
  8
0
  6
CONTINUOUS
 62
     7
 10
1311.4614055279
 20
398.3770549232
 30
0.0
  0
VERTEX
  5
AEA
  8
0
  6
CONTINUOUS
 62
     7
 10
1311.4798659052
 20
398.5349357269
 30
0.0
  0
VERTEX
  5
AEB
  8
0
  6
CONTINUOUS
 62
     7
 10
1311.4970209391
 20
398.693056927
 30
0.0
  0
VERTEX
  5
AEC
  8
0
  6
CONTINUOUS
 62
     7
 10
1311.5128711788
 20
398.8514200157
 30
0.0
  0
VERTEX
  5
AED
  8
0
  6
CONTINUOUS
 62
     7
 10
1311.5274171736
 20
399.0100264855
 30
0.0
  0
VERTEX
  5
AEE
  8
0
  6
CONTINUOUS
 62
     7
 10
1311.5406594729
 20
399.1688778288
 30
0.0
  0
VERTEX
  5
AEF
  8
0
  6
CONTINUOUS
 62
     7
 10
1311.552598626
 20
399.3279755378
 30
0.0
  0
VERTEX
  5
AF0
  8
0
  6
CONTINUOUS
 62
     7
 10
1311.563235182
 20
399.4873211049
 30
0.0
  0
VERTEX
  5
AF1
  8
0
  6
CONTINUOUS
 62
     7
 10
1311.5725696905
 20
399.6469160225
 30
0.0
  0
VERTEX
  5
AF2
  8
0
  6
CONTINUOUS
 62
     7
 10
1311.5806027005
 20
399.8067617829
 30
0.0
  0
VERTEX
  5
AF3
  8
0
  6
CONTINUOUS
 62
     7
 10
1311.5873347604
 20
399.9668598486
 30
0.0
  0
VERTEX
  5
AF4
  8
0
  6
CONTINUOUS
 62
     7
 10
1311.5927659463
 20
400.1271984808
 30
0.0
  0
VERTEX
  5
AF5
  8
0
  6
CONTINUOUS
 62
     7
 10
1311.5968951227
 20
400.2877320626
 30
0.0
  0
VERTEX
  5
AF6
  8
0
  6
CONTINUOUS
 62
     7
 10
1311.5997209628
 20
400.4484096184
 30
0.0
  0
VERTEX
  5
AF7
  8
0
  6
CONTINUOUS
 62
     7
 10
1311.6012421394
 20
400.6091801725
 30
0.0
  0
VERTEX
  5
AF8
  8
0
  6
CONTINUOUS
 62
     7
 10
1311.6014573255
 20
400.7699927494
 30
0.0
  0
VERTEX
  5
AF9
  8
0
  6
CONTINUOUS
 62
     7
 10
1311.6003651941
 20
400.9307963735
 30
0.0
  0
VERTEX
  5
AFA
  8
0
  6
CONTINUOUS
 62
     7
 10
1311.5979644181
 20
401.091540069
 30
0.0
  0
VERTEX
  5
AFB
  8
0
  6
CONTINUOUS
 62
     7
 10
1311.5942536706
 20
401.2521728604
 30
0.0
  0
VERTEX
  5
AFC
  8
0
  6
CONTINUOUS
 62
     7
 10
1311.5892316245
 20
401.4126437721
 30
0.0
  0
VERTEX
  5
AFD
  8
0
  6
CONTINUOUS
 62
     7
 10
1311.5828969528
 20
401.5729018285
 30
0.0
  0
VERTEX
  5
AFE
  8
0
  6
CONTINUOUS
 62
     7
 10
1311.5752483284
 20
401.7328960539
 30
0.0
  0
VERTEX
  5
AFF
  8
0
  6
CONTINUOUS
 62
     7
 10
1311.5662976814
 20
401.8926526464
 30
0.0
  0
VERTEX
  5
B00
  8
0
  6
CONTINUOUS
 62
     7
 10
1311.5560627212
 20
402.0522590128
 30
0.0
  0
VERTEX
  5
B01
  8
0
  6
CONTINUOUS
 62
     7
 10
1311.5445429994
 20
402.2117104949
 30
0.0
  0
VERTEX
  5
B02
  8
0
  6
CONTINUOUS
 62
     7
 10
1311.5317379257
 20
402.3709996227
 30
0.0
  0
VERTEX
  5
B03
  8
0
  6
CONTINUOUS
 62
     7
 10
1311.5176469098
 20
402.5301189138
 30
0.0
  0
VERTEX
  5
B04
  8
0
  6
CONTINUOUS
 62
     7
 10
1311.5022693613
 20
402.689060886
 30
0.0
  0
VERTEX
  5
B05
  8
0
  6
CONTINUOUS
 62
     7
 10
1311.4856046897
 20
402.8478180568
 30
0.0
  0
VERTEX
  5
B06
  8
0
  6
CONTINUOUS
 62
     7
 10
1311.4676523049
 20
403.006382944
 30
0.0
  0
VERTEX
  5
B07
  8
0
  6
CONTINUOUS
 62
     7
 10
1311.4484116164
 20
403.1647480653
 30
0.0
  0
VERTEX
  5
B08
  8
0
  6
CONTINUOUS
 62
     7
 10
1311.4278820338
 20
403.3229059384
 30
0.0
  0
VERTEX
  5
B09
  8
0
  6
CONTINUOUS
 62
     7
 10
1311.4060629668
 20
403.4808490809
 30
0.0
  0
VERTEX
  5
B0A
  8
0
  6
CONTINUOUS
 62
     7
 10
1311.3829538237
 20
403.6385710226
 30
0.0
  0
VERTEX
  5
B0B
  8
0
  6
CONTINUOUS
 62
     7
 10
1311.3585540059
 20
403.7960704514
 30
0.0
  0
VERTEX
  5
B0C
  8
0
  6
CONTINUOUS
 62
     7
 10
1311.3328629129
 20
403.9533476944
 30
0.0
  0
VERTEX
  5
B0D
  8
0
  6
CONTINUOUS
 62
     7
 10
1311.3058799439
 20
404.1104030795
 30
0.0
  0
VERTEX
  5
B0E
  8
0
  6
CONTINUOUS
 62
     7
 10
1311.2776044983
 20
404.2672369344
 30
0.0
  0
VERTEX
  5
B0F
  8
0
  6
CONTINUOUS
 62
     7
 10
1311.2480359754
 20
404.4238495871
 30
0.0
  0
VERTEX
  5
B10
  8
0
  6
CONTINUOUS
 62
     7
 10
1311.2171737745
 20
404.5802413653
 30
0.0
  0
VERTEX
  5
B11
  8
0
  6
CONTINUOUS
 62
     7
 10
1311.1850172949
 20
404.7364125968
 30
0.0
  0
VERTEX
  5
B12
  8
0
  6
CONTINUOUS
 62
     7
 10
1311.1515659361
 20
404.8923636095
 30
0.0
  0
VERTEX
  5
B13
  8
0
  6
CONTINUOUS
 62
     7
 10
1311.1168190972
 20
405.0480947312
 30
0.0
  0
VERTEX
  5
B14
  8
0
  6
CONTINUOUS
 62
     7
 10
1311.0807761777
 20
405.2036062896
 30
0.0
  0
VERTEX
  5
B15
  8
0
  6
CONTINUOUS
 62
     7
 10
1311.0434365769
 20
405.3588986127
 30
0.0
  0
VERTEX
  5
B16
  8
0
  6
CONTINUOUS
 62
     7
 10
1311.0047996941
 20
405.5139720283
 30
0.0
  0
VERTEX
  5
B17
  8
0
  6
CONTINUOUS
 62
     7
 10
1310.9648649286
 20
405.668826864
 30
0.0
  0
VERTEX
  5
B18
  8
0
  6
CONTINUOUS
 62
     7
 10
1310.9236316797
 20
405.8234634479
 30
0.0
  0
VERTEX
  5
B19
  8
0
  6
CONTINUOUS
 62
     7
 10
1310.8810993469
 20
405.9778821077
 30
0.0
  0
VERTEX
  5
B1A
  8
0
  6
CONTINUOUS
 62
     7
 10
1310.8372673294
 20
406.1320831712
 30
0.0
  0
VERTEX
  5
B1B
  8
0
  6
CONTINUOUS
 62
     7
 10
1310.7921350265
 20
406.2860669662
 30
0.0
  0
VERTEX
  5
B1C
  8
0
  6
CONTINUOUS
 62
     7
 10
1310.7457018377
 20
406.4398338206
 30
0.0
  0
VERTEX
  5
B1D
  8
0
  6
CONTINUOUS
 62
     7
 10
1310.6979671621
 20
406.5933840621
 30
0.0
  0
VERTEX
  5
B1E
  8
0
  6
CONTINUOUS
 62
     7
 10
1310.6489303992
 20
406.7467180187
 30
0.0
  0
VERTEX
  5
B1F
  8
0
  6
CONTINUOUS
 62
     7
 10
1310.5985909482
 20
406.899836018
 30
0.0
  0
VERTEX
  5
B20
  8
0
  6
CONTINUOUS
 62
     7
 10
1310.5469503451
 20
407.0527320731
 30
0.0
  0
VERTEX
  5
B21
  8
0
  6
CONTINUOUS
 62
     7
 10
1310.494083983
 20
407.2051831197
 30
0.0
  0
VERTEX
  5
B22
  8
0
  6
CONTINUOUS
 62
     7
 10
1310.4400304593
 20
407.3570782252
 30
0.0
  0
VERTEX
  5
B23
  8
0
  6
CONTINUOUS
 62
     7
 10
1310.3847909841
 20
407.5084175227
 30
0.0
  0
VERTEX
  5
B24
  8
0
  6
CONTINUOUS
 62
     7
 10
1310.3283667677
 20
407.6592011454
 30
0.0
  0
VERTEX
  5
B25
  8
0
  6
CONTINUOUS
 62
     7
 10
1310.2707590201
 20
407.8094292264
 30
0.0
  0
VERTEX
  5
B26
  8
0
  6
CONTINUOUS
 62
     7
 10
1310.2119689516
 20
407.9591018989
 30
0.0
  0
VERTEX
  5
B27
  8
0
  6
CONTINUOUS
 62
     7
 10
1310.1519985909
 20
408.1082163218
 30
0.0
  0
VERTEX
  5
B28
  8
0
  6
CONTINUOUS
 62
     7
 10
1310.0908605022
 20
408.2567314012
 30
0.0
  0
VERTEX
  5
B29
  8
0
  6
CONTINUOUS
 62
     7
 10
1310.0285596923
 20
408.4046335416
 30
0.0
  0
VERTEX
  5
B2A
  8
0
  6
CONTINUOUS
 62
     7
 10
1309.96509758
 20
408.5519221871
 30
0.0
  0
VERTEX
  5
B2B
  8
0
  6
CONTINUOUS
 62
     7
 10
1309.9004755842
 20
408.6985967817
 30
0.0
  0
VERTEX
  5
B2C
  8
0
  6
CONTINUOUS
 62
     7
 10
1309.8346951239
 20
408.8446567692
 30
0.0
  0
VERTEX
  5
B2D
  8
0
  6
CONTINUOUS
 62
     7
 10
1309.767757618
 20
408.9901015938
 30
0.0
  0
VERTEX
  5
B2E
  8
0
  6
CONTINUOUS
 62
     7
 10
1309.6996644853
 20
409.1349306992
 30
0.0
  0
VERTEX
  5
B2F
  8
0
  6
CONTINUOUS
 62
     7
 10
1309.6304171448
 20
409.2791435296
 30
0.0
  0
VERTEX
  5
B30
  8
0
  6
CONTINUOUS
 62
     7
 10
1309.5600170154
 20
409.4227395288
 30
0.0
  0
VERTEX
  5
B31
  8
0
  6
CONTINUOUS
 62
     7
 10
1309.4884655161
 20
409.5657181408
 30
0.0
  0
VERTEX
  5
B32
  8
0
  6
CONTINUOUS
 62
     7
 10
1309.4157640656
 20
409.7080788096
 30
0.0
  0
VERTEX
  5
B33
  8
0
  6
CONTINUOUS
 62
     7
 10
1309.3419140829
 20
409.8498209792
 30
0.0
  0
VERTEX
  5
B34
  8
0
  6
CONTINUOUS
 62
     7
 10
1309.266916987
 20
409.9909440935
 30
0.0
  0
VERTEX
  5
B35
  8
0
  6
CONTINUOUS
 62
     7
 10
1309.1907741966
 20
410.1314475965
 30
0.0
  0
VERTEX
  5
B36
  8
0
  6
CONTINUOUS
 62
     7
 10
1309.1134871309
 20
410.2713309321
 30
0.0
  0
VERTEX
  5
B37
  8
0
  6
CONTINUOUS
 62
     7
 10
1309.0350572086
 20
410.4105935444
 30
0.0
  0
VERTEX
  5
B38
  8
0
  6
CONTINUOUS
 62
     7
 10
1308.9554858486
 20
410.5492348772
 30
0.0
  0
VERTEX
  5
B39
  8
0
  6
CONTINUOUS
 62
     7
 10
1308.8747744699
 20
410.6872543746
 30
0.0
  0
VERTEX
  5
B3A
  8
0
  6
CONTINUOUS
 62
     7
 10
1308.7929244914
 20
410.8246514804
 30
0.0
  0
VERTEX
  5
B3B
  8
0
  6
CONTINUOUS
 62
     7
 10
1308.709937332
 20
410.9614256388
 30
0.0
  0
VERTEX
  5
B3C
  8
0
  6
CONTINUOUS
 62
     7
 10
1308.6258144106
 20
411.0975762936
 30
0.0
  0
VERTEX
  5
B3D
  8
0
  6
CONTINUOUS
 62
     7
 10
1308.5405571461
 20
411.2331028888
 30
0.0
  0
VERTEX
  5
B3E
  8
0
  6
CONTINUOUS
 62
     7
 10
1308.4541669574
 20
411.3680048683
 30
0.0
  0
VERTEX
  5
B3F
  8
0
  6
CONTINUOUS
 62
     7
 10
1308.3666452634
 20
411.5022816762
 30
0.0
  0
VERTEX
  5
B40
  8
0
  6
CONTINUOUS
 62
     7
 10
1308.277993483
 20
411.6359327564
 30
0.0
  0
VERTEX
  5
B41
  8
0
  6
CONTINUOUS
 62
     7
 10
1308.1882130352
 20
411.7689575529
 30
0.0
  0
VERTEX
  5
B42
  8
0
  6
CONTINUOUS
 62
     7
 10
1308.0973006231
 20
411.9013561863
 30
0.0
  0
VERTEX
  5
B43
  8
0
  6
CONTINUOUS
 62
     7
 10
1308.0052290753
 20
412.033128029
 30
0.0
  0
VERTEX
  5
B44
  8
0
  6
CONTINUOUS
 62
     7
 10
1307.9120015649
 20
412.1642612747
 30
0.0
  0
VERTEX
  5
B45
  8
0
  6
CONTINUOUS
 62
     7
 10
1307.8176252762
 20
412.294743129
 30
0.0
  0
VERTEX
  5
B46
  8
0
  6
CONTINUOUS
 62
     7
 10
1307.7221046222
 20
412.4245604104
 30
0.0
  0
VERTEX
  5
B47
  8
0
  6
CONTINUOUS
 62
     7
 10
1307.6254502397
 20
412.5536977764
 30
0.0
  0
VERTEX
  5
B48
  8
0
  6
CONTINUOUS
 62
     7
 10
1307.5276730936
 20
412.6821397955
 30
0.0
  0
VERTEX
  5
B49
  8
0
  6
CONTINUOUS
 62
     7
 10
1307.428784149
 20
412.8098710365
 30
0.0
  0
VERTEX
  5
B4A
  8
0
  6
CONTINUOUS
 62
     7
 10
1307.3287943709
 20
412.9368760679
 30
0.0
  0
VERTEX
  5
B4B
  8
0
  6
CONTINUOUS
 62
     7
 10
1307.2277147244
 20
413.0631394585
 30
0.0
  0
VERTEX
  5
B4C
  8
0
  6
CONTINUOUS
 62
     7
 10
1307.1255561745
 20
413.1886457768
 30
0.0
  0
VERTEX
  5
B4D
  8
0
  6
CONTINUOUS
 62
     7
 10
1307.0223296862
 20
413.3133795916
 30
0.0
  0
VERTEX
  5
B4E
  8
0
  6
CONTINUOUS
 62
     7
 10
1306.9180462245
 20
413.4373254714
 30
0.0
  0
VERTEX
  5
B4F
  8
0
  6
CONTINUOUS
 62
     7
 10
1306.8127167545
 20
413.5604679849
 30
0.0
  0
VERTEX
  5
B50
  8
0
  6
CONTINUOUS
 62
     7
 10
1306.7063522412
 20
413.6827917009
 30
0.0
  0
VERTEX
  5
B51
  8
0
  6
CONTINUOUS
 62
     7
 10
1306.5989636497
 20
413.8042811878
 30
0.0
  0
VERTEX
  5
B52
  8
0
  6
CONTINUOUS
 62
     7
 10
1306.4905619449
 20
413.9249210144
 30
0.0
  0
VERTEX
  5
B53
  8
0
  6
CONTINUOUS
 62
     7
 10
1306.3811580919
 20
414.0446957494
 30
0.0
  0
VERTEX
  5
B54
  8
0
  6
CONTINUOUS
 62
     7
 10
1306.2707630557
 20
414.1635899613
 30
0.0
  0
VERTEX
  5
B55
  8
0
  6
CONTINUOUS
 62
     7
 10
1306.1593878014
 20
414.2815882188
 30
0.0
  0
VERTEX
  5
B56
  8
0
  6
CONTINUOUS
 62
     7
 10
1306.047043294
 20
414.3986750906
 30
0.0
  0
VERTEX
  5
B57
  8
0
  6
CONTINUOUS
 62
     7
 10
1305.9337404985
 20
414.5148351453
 30
0.0
  0
VERTEX
  5
B58
  8
0
  6
CONTINUOUS
 62
     7
 10
1305.8194903799
 20
414.6300529515
 30
0.0
  0
SEQEND
  5
D30
  8
0
  6
CONTINUOUS
 62
     7
  0
POLYLINE
  5
21E
  8
0
  6
CONTINUOUS
 62
     7
 66
     1
 10
0.0
 20
0.0
 30
0.0
  0
VERTEX
  5
B59
  8
0
  6
CONTINUOUS
 62
     7
 10
1570.7293041102
 20
414.6300529522
 30
0.0
  0
VERTEX
  5
B5A
  8
0
  6
CONTINUOUS
 62
     7
 10
1570.6150539916
 20
414.5148351459
 30
0.0
  0
VERTEX
  5
B5B
  8
0
  6
CONTINUOUS
 62
     7
 10
1570.501751196
 20
414.3986750912
 30
0.0
  0
VERTEX
  5
B5C
  8
0
  6
CONTINUOUS
 62
     7
 10
1570.3894066886
 20
414.2815882194
 30
0.0
  0
VERTEX
  5
B5D
  8
0
  6
CONTINUOUS
 62
     7
 10
1570.2780314343
 20
414.1635899619
 30
0.0
  0
VERTEX
  5
B5E
  8
0
  6
CONTINUOUS
 62
     7
 10
1570.1676363981
 20
414.04469575
 30
0.0
  0
VERTEX
  5
B5F
  8
0
  6
CONTINUOUS
 62
     7
 10
1570.0582325451
 20
413.9249210151
 30
0.0
  0
VERTEX
  5
B60
  8
0
  6
CONTINUOUS
 62
     7
 10
1569.9498308403
 20
413.8042811885
 30
0.0
  0
VERTEX
  5
B61
  8
0
  6
CONTINUOUS
 62
     7
 10
1569.8424422488
 20
413.6827917015
 30
0.0
  0
VERTEX
  5
B62
  8
0
  6
CONTINUOUS
 62
     7
 10
1569.7360777355
 20
413.5604679856
 30
0.0
  0
VERTEX
  5
B63
  8
0
  6
CONTINUOUS
 62
     7
 10
1569.6307482655
 20
413.437325472
 30
0.0
  0
VERTEX
  5
B64
  8
0
  6
CONTINUOUS
 62
     7
 10
1569.5264648038
 20
413.3133795922
 30
0.0
  0
VERTEX
  5
B65
  8
0
  6
CONTINUOUS
 62
     7
 10
1569.4232383155
 20
413.1886457774
 30
0.0
  0
VERTEX
  5
B66
  8
0
  6
CONTINUOUS
 62
     7
 10
1569.3210797655
 20
413.0631394591
 30
0.0
  0
VERTEX
  5
B67
  8
0
  6
CONTINUOUS
 62
     7
 10
1569.220000119
 20
412.9368760685
 30
0.0
  0
VERTEX
  5
B68
  8
0
  6
CONTINUOUS
 62
     7
 10
1569.1200103409
 20
412.8098710371
 30
0.0
  0
VERTEX
  5
B69
  8
0
  6
CONTINUOUS
 62
     7
 10
1569.0211213963
 20
412.6821397962
 30
0.0
  0
VERTEX
  5
B6A
  8
0
  6
CONTINUOUS
 62
     7
 10
1568.9233442503
 20
412.553697777
 30
0.0
  0
VERTEX
  5
B6B
  8
0
  6
CONTINUOUS
 62
     7
 10
1568.8266898677
 20
412.4245604111
 30
0.0
  0
VERTEX
  5
B6C
  8
0
  6
CONTINUOUS
 62
     7
 10
1568.7311692137
 20
412.2947431296
 30
0.0
  0
VERTEX
  5
B6D
  8
0
  6
CONTINUOUS
 62
     7
 10
1568.636792925
 20
412.1642612754
 30
0.0
  0
VERTEX
  5
B6E
  8
0
  6
CONTINUOUS
 62
     7
 10
1568.5435654146
 20
412.0331280296
 30
0.0
  0
VERTEX
  5
B6F
  8
0
  6
CONTINUOUS
 62
     7
 10
1568.4514938668
 20
411.901356187
 30
0.0
  0
VERTEX
  5
B70
  8
0
  6
CONTINUOUS
 62
     7
 10
1568.3605814546
 20
411.7689575535
 30
0.0
  0
VERTEX
  5
B71
  8
0
  6
CONTINUOUS
 62
     7
 10
1568.2708010068
 20
411.6359327571
 30
0.0
  0
VERTEX
  5
B72
  8
0
  6
CONTINUOUS
 62
     7
 10
1568.1821492265
 20
411.5022816769
 30
0.0
  0
VERTEX
  5
B73
  8
0
  6
CONTINUOUS
 62
     7
 10
1568.0946275325
 20
411.368004869
 30
0.0
  0
VERTEX
  5
B74
  8
0
  6
CONTINUOUS
 62
     7
 10
1568.0082373438
 20
411.2331028894
 30
0.0
  0
VERTEX
  5
B75
  8
0
  6
CONTINUOUS
 62
     7
 10
1567.9229800792
 20
411.0975762942
 30
0.0
  0
VERTEX
  5
B76
  8
0
  6
CONTINUOUS
 62
     7
 10
1567.8388571578
 20
410.9614256394
 30
0.0
  0
VERTEX
  5
B77
  8
0
  6
CONTINUOUS
 62
     7
 10
1567.7558699984
 20
410.8246514811
 30
0.0
  0
VERTEX
  5
B78
  8
0
  6
CONTINUOUS
 62
     7
 10
1567.6740200199
 20
410.6872543752
 30
0.0
  0
VERTEX
  5
B79
  8
0
  6
CONTINUOUS
 62
     7
 10
1567.5933086412
 20
410.5492348778
 30
0.0
  0
VERTEX
  5
B7A
  8
0
  6
CONTINUOUS
 62
     7
 10
1567.5137372812
 20
410.410593545
 30
0.0
  0
VERTEX
  5
B7B
  8
0
  6
CONTINUOUS
 62
     7
 10
1567.4353073589
 20
410.2713309328
 30
0.0
  0
VERTEX
  5
B7C
  8
0
  6
CONTINUOUS
 62
     7
 10
1567.3580202931
 20
410.1314475971
 30
0.0
  0
VERTEX
  5
B7D
  8
0
  6
CONTINUOUS
 62
     7
 10
1567.2818775028
 20
409.9909440941
 30
0.0
  0
VERTEX
  5
B7E
  8
0
  6
CONTINUOUS
 62
     7
 10
1567.2068804069
 20
409.8498209798
 30
0.0
  0
VERTEX
  5
B7F
  8
0
  6
CONTINUOUS
 62
     7
 10
1567.1330304242
 20
409.7080788103
 30
0.0
  0
VERTEX
  5
B80
  8
0
  6
CONTINUOUS
 62
     7
 10
1567.0603289737
 20
409.5657181414
 30
0.0
  0
VERTEX
  5
B81
  8
0
  6
CONTINUOUS
 62
     7
 10
1566.9887774743
 20
409.4227395294
 30
0.0
  0
VERTEX
  5
B82
  8
0
  6
CONTINUOUS
 62
     7
 10
1566.9183773449
 20
409.2791435302
 30
0.0
  0
VERTEX
  5
B83
  8
0
  6
CONTINUOUS
 62
     7
 10
1566.8491300044
 20
409.1349306998
 30
0.0
  0
VERTEX
  5
B84
  8
0
  6
CONTINUOUS
 62
     7
 10
1566.7810368717
 20
408.9901015944
 30
0.0
  0
VERTEX
  5
B85
  8
0
  6
CONTINUOUS
 62
     7
 10
1566.7140993658
 20
408.8446567699
 30
0.0
  0
VERTEX
  5
B86
  8
0
  6
CONTINUOUS
 62
     7
 10
1566.6483189055
 20
408.6985967823
 30
0.0
  0
VERTEX
  5
B87
  8
0
  6
CONTINUOUS
 62
     7
 10
1566.5836969097
 20
408.5519221878
 30
0.0
  0
VERTEX
  5
B88
  8
0
  6
CONTINUOUS
 62
     7
 10
1566.5202347974
 20
408.4046335422
 30
0.0
  0
VERTEX
  5
B89
  8
0
  6
CONTINUOUS
 62
     7
 10
1566.4579339875
 20
408.2567314018
 30
0.0
  0
VERTEX
  5
B8A
  8
0
  6
CONTINUOUS
 62
     7
 10
1566.3967958988
 20
408.1082163225
 30
0.0
  0
VERTEX
  5
B8B
  8
0
  6
CONTINUOUS
 62
     7
 10
1566.3368255381
 20
407.9591018995
 30
0.0
  0
VERTEX
  5
B8C
  8
0
  6
CONTINUOUS
 62
     7
 10
1566.2780354695
 20
407.809429227
 30
0.0
  0
VERTEX
  5
B8D
  8
0
  6
CONTINUOUS
 62
     7
 10
1566.220427722
 20
407.659201146
 30
0.0
  0
VERTEX
  5
B8E
  8
0
  6
CONTINUOUS
 62
     7
 10
1566.1640035055
 20
407.5084175233
 30
0.0
  0
VERTEX
  5
B8F
  8
0
  6
CONTINUOUS
 62
     7
 10
1566.1087640304
 20
407.3570782258
 30
0.0
  0
VERTEX
  5
B90
  8
0
  6
CONTINUOUS
 62
     7
 10
1566.0547105067
 20
407.2051831203
 30
0.0
  0
VERTEX
  5
B91
  8
0
  6
CONTINUOUS
 62
     7
 10
1566.0018441445
 20
407.0527320737
 30
0.0
  0
VERTEX
  5
B92
  8
0
  6
CONTINUOUS
 62
     7
 10
1565.9502035414
 20
406.8998360187
 30
0.0
  0
VERTEX
  5
B93
  8
0
  6
CONTINUOUS
 62
     7
 10
1565.8998640904
 20
406.7467180193
 30
0.0
  0
VERTEX
  5
B94
  8
0
  6
CONTINUOUS
 62
     7
 10
1565.8508273275
 20
406.5933840627
 30
0.0
  0
VERTEX
  5
B95
  8
0
  6
CONTINUOUS
 62
     7
 10
1565.8030926519
 20
406.4398338212
 30
0.0
  0
VERTEX
  5
B96
  8
0
  6
CONTINUOUS
 62
     7
 10
1565.7566594631
 20
406.2860669668
 30
0.0
  0
VERTEX
  5
B97
  8
0
  6
CONTINUOUS
 62
     7
 10
1565.7115271602
 20
406.1320831717
 30
0.0
  0
VERTEX
  5
B98
  8
0
  6
CONTINUOUS
 62
     7
 10
1565.6676951427
 20
405.9778821083
 30
0.0
  0
VERTEX
  5
B99
  8
0
  6
CONTINUOUS
 62
     7
 10
1565.6251628098
 20
405.8234634485
 30
0.0
  0
VERTEX
  5
B9A
  8
0
  6
CONTINUOUS
 62
     7
 10
1565.583929561
 20
405.6688268646
 30
0.0
  0
VERTEX
  5
B9B
  8
0
  6
CONTINUOUS
 62
     7
 10
1565.5439947955
 20
405.5139720288
 30
0.0
  0
VERTEX
  5
B9C
  8
0
  6
CONTINUOUS
 62
     7
 10
1565.5053579127
 20
405.3588986133
 30
0.0
  0
VERTEX
  5
B9D
  8
0
  6
CONTINUOUS
 62
     7
 10
1565.4680183119
 20
405.2036062902
 30
0.0
  0
VERTEX
  5
B9E
  8
0
  6
CONTINUOUS
 62
     7
 10
1565.4319753923
 20
405.0480947317
 30
0.0
  0
VERTEX
  5
B9F
  8
0
  6
CONTINUOUS
 62
     7
 10
1565.3972285535
 20
404.8923636101
 30
0.0
  0
VERTEX
  5
BA0
  8
0
  6
CONTINUOUS
 62
     7
 10
1565.3637771946
 20
404.7364125974
 30
0.0
  0
VERTEX
  5
BA1
  8
0
  6
CONTINUOUS
 62
     7
 10
1565.3316207151
 20
404.5802413658
 30
0.0
  0
VERTEX
  5
BA2
  8
0
  6
CONTINUOUS
 62
     7
 10
1565.3007585142
 20
404.4238495877
 30
0.0
  0
VERTEX
  5
BA3
  8
0
  6
CONTINUOUS
 62
     7
 10
1565.2711899912
 20
404.267236935
 30
0.0
  0
VERTEX
  5
BA4
  8
0
  6
CONTINUOUS
 62
     7
 10
1565.2429145456
 20
404.11040308
 30
0.0
  0
VERTEX
  5
BA5
  8
0
  6
CONTINUOUS
 62
     7
 10
1565.2159315766
 20
403.9533476949
 30
0.0
  0
VERTEX
  5
BA6
  8
0
  6
CONTINUOUS
 62
     7
 10
1565.1902404836
 20
403.7960704519
 30
0.0
  0
VERTEX
  5
BA7
  8
0
  6
CONTINUOUS
 62
     7
 10
1565.1658406658
 20
403.6385710231
 30
0.0
  0
VERTEX
  5
BA8
  8
0
  6
CONTINUOUS
 62
     7
 10
1565.1427315227
 20
403.4808490814
 30
0.0
  0
VERTEX
  5
BA9
  8
0
  6
CONTINUOUS
 62
     7
 10
1565.1209124557
 20
403.3229059389
 30
0.0
  0
VERTEX
  5
BAA
  8
0
  6
CONTINUOUS
 62
     7
 10
1565.1003828731
 20
403.1647480659
 30
0.0
  0
VERTEX
  5
BAB
  8
0
  6
CONTINUOUS
 62
     7
 10
1565.0811421846
 20
403.0063829446
 30
0.0
  0
VERTEX
  5
BAC
  8
0
  6
CONTINUOUS
 62
     7
 10
1565.0631897997
 20
402.8478180573
 30
0.0
  0
VERTEX
  5
BAD
  8
0
  6
CONTINUOUS
 62
     7
 10
1565.0465251282
 20
402.6890608865
 30
0.0
  0
VERTEX
  5
BAE
  8
0
  6
CONTINUOUS
 62
     7
 10
1565.0311475797
 20
402.5301189143
 30
0.0
  0
VERTEX
  5
BAF
  8
0
  6
CONTINUOUS
 62
     7
 10
1565.0170565637
 20
402.3709996232
 30
0.0
  0
VERTEX
  5
BB0
  8
0
  6
CONTINUOUS
 62
     7
 10
1565.0042514901
 20
402.2117104954
 30
0.0
  0
VERTEX
  5
BB1
  8
0
  6
CONTINUOUS
 62
     7
 10
1564.9927317682
 20
402.0522590133
 30
0.0
  0
VERTEX
  5
BB2
  8
0
  6
CONTINUOUS
 62
     7
 10
1564.9824968081
 20
401.8926526469
 30
0.0
  0
VERTEX
  5
BB3
  8
0
  6
CONTINUOUS
 62
     7
 10
1564.973546161
 20
401.7328960544
 30
0.0
  0
VERTEX
  5
BB4
  8
0
  6
CONTINUOUS
 62
     7
 10
1564.9658975367
 20
401.572901829
 30
0.0
  0
VERTEX
  5
BB5
  8
0
  6
CONTINUOUS
 62
     7
 10
1564.9595628649
 20
401.4126437726
 30
0.0
  0
VERTEX
  5
BB6
  8
0
  6
CONTINUOUS
 62
     7
 10
1564.9545408188
 20
401.2521728609
 30
0.0
  0
VERTEX
  5
BB7
  8
0
  6
CONTINUOUS
 62
     7
 10
1564.9508300713
 20
401.0915400695
 30
0.0
  0
VERTEX
  5
BB8
  8
0
  6
CONTINUOUS
 62
     7
 10
1564.9484292954
 20
400.9307963739
 30
0.0
  0
VERTEX
  5
BB9
  8
0
  6
CONTINUOUS
 62
     7
 10
1564.947337164
 20
400.7699927499
 30
0.0
  0
VERTEX
  5
BBA
  8
0
  6
CONTINUOUS
 62
     7
 10
1564.94755235
 20
400.609180173
 30
0.0
  0
VERTEX
  5
BBB
  8
0
  6
CONTINUOUS
 62
     7
 10
1564.9490735266
 20
400.4484096188
 30
0.0
  0
VERTEX
  5
BBC
  8
0
  6
CONTINUOUS
 62
     7
 10
1564.9518993667
 20
400.2877320631
 30
0.0
  0
VERTEX
  5
BBD
  8
0
  6
CONTINUOUS
 62
     7
 10
1564.9560285431
 20
400.1271984813
 30
0.0
  0
VERTEX
  5
BBE
  8
0
  6
CONTINUOUS
 62
     7
 10
1564.961459729
 20
399.9668598491
 30
0.0
  0
VERTEX
  5
BBF
  8
0
  6
CONTINUOUS
 62
     7
 10
1564.9681917889
 20
399.8067617834
 30
0.0
  0
VERTEX
  5
BC0
  8
0
  6
CONTINUOUS
 62
     7
 10
1564.9762247989
 20
399.6469160229
 30
0.0
  0
VERTEX
  5
BC1
  8
0
  6
CONTINUOUS
 62
     7
 10
1564.9855593074
 20
399.4873211053
 30
0.0
  0
VERTEX
  5
BC2
  8
0
  6
CONTINUOUS
 62
     7
 10
1564.9961958634
 20
399.3279755382
 30
0.0
  0
VERTEX
  5
BC3
  8
0
  6
CONTINUOUS
 62
     7
 10
1565.0081350165
 20
399.1688778292
 30
0.0
  0
VERTEX
  5
BC4
  8
0
  6
CONTINUOUS
 62
     7
 10
1565.0213773158
 20
399.0100264859
 30
0.0
  0
VERTEX
  5
BC5
  8
0
  6
CONTINUOUS
 62
     7
 10
1565.0359233106
 20
398.8514200161
 30
0.0
  0
VERTEX
  5
BC6
  8
0
  6
CONTINUOUS
 62
     7
 10
1565.0517735503
 20
398.6930569274
 30
0.0
  0
VERTEX
  5
BC7
  8
0
  6
CONTINUOUS
 62
     7
 10
1565.0689285842
 20
398.5349357273
 30
0.0
  0
VERTEX
  5
BC8
  8
0
  6
CONTINUOUS
 62
     7
 10
1565.0873889614
 20
398.3770549236
 30
0.0
  0
VERTEX
  5
BC9
  8
0
  6
CONTINUOUS
 62
     7
 10
1565.1071552315
 20
398.219413024
 30
0.0
  0
VERTEX
  5
BCA
  8
0
  6
CONTINUOUS
 62
     7
 10
1565.1282279435
 20
398.062008536
 30
0.0
  0
VERTEX
  5
BCB
  8
0
  6
CONTINUOUS
 62
     7
 10
1565.1506076469
 20
397.9048399673
 30
0.0
  0
VERTEX
  5
BCC
  8
0
  6
CONTINUOUS
 62
     7
 10
1565.1742948909
 20
397.7479058255
 30
0.0
  0
VERTEX
  5
BCD
  8
0
  6
CONTINUOUS
 62
     7
 10
1565.1992902248
 20
397.5912046184
 30
0.0
  0
VERTEX
  5
BCE
  8
0
  6
CONTINUOUS
 62
     7
 10
1565.2255941979
 20
397.4347348536
 30
0.0
  0
VERTEX
  5
BCF
  8
0
  6
CONTINUOUS
 62
     7
 10
1565.2532073595
 20
397.2784950387
 30
0.0
  0
VERTEX
  5
BD0
  8
0
  6
CONTINUOUS
 62
     7
 10
1565.2821301543
 20
397.1224839355
 30
0.0
  0
VERTEX
  5
BD1
  8
0
  6
CONTINUOUS
 62
     7
 10
1565.3123615699
 20
396.9667038494
 30
0.0
  0
VERTEX
  5
BD2
  8
0
  6
CONTINUOUS
 62
     7
 10
1565.3438995242
 20
396.8111596856
 30
0.0
  0
VERTEX
  5
BD3
  8
0
  6
CONTINUOUS
 62
     7
 10
1565.3767419106
 20
396.6558564095
 30
0.0
  0
VERTEX
  5
BD4
  8
0
  6
CONTINUOUS
 62
     7
 10
1565.4108866226
 20
396.5007989864
 30
0.0
  0
VERTEX
  5
BD5
  8
0
  6
CONTINUOUS
 62
     7
 10
1565.4463315535
 20
396.3459923816
 30
0.0
  0
VERTEX
  5
BD6
  8
0
  6
CONTINUOUS
 62
     7
 10
1565.4830745967
 20
396.1914415604
 30
0.0
  0
VERTEX
  5
BD7
  8
0
  6
CONTINUOUS
 62
     7
 10
1565.5211136457
 20
396.0371514881
 30
0.0
  0
VERTEX
  5
BD8
  8
0
  6
CONTINUOUS
 62
     7
 10
1565.5604465938
 20
395.8831271301
 30
0.0
  0
VERTEX
  5
BD9
  8
0
  6
CONTINUOUS
 62
     7
 10
1565.6010713344
 20
395.7293734517
 30
0.0
  0
VERTEX
  5
BDA
  8
0
  6
CONTINUOUS
 62
     7
 10
1565.6429883731
 20
395.5758910032
 30
0.0
  0
VERTEX
  5
BDB
  8
0
  6
CONTINUOUS
 62
     7
 10
1565.6862207553
 20
395.4226422371
 30
0.0
  0
VERTEX
  5
BDC
  8
0
  6
CONTINUOUS
 62
     7
 10
1565.7308030506
 20
395.2695701278
 30
0.0
  0
VERTEX
  5
BDD
  8
0
  6
CONTINUOUS
 62
     7
 10
1565.7767699214
 20
395.1166174929
 30
0.0
  0
VERTEX
  5
BDE
  8
0
  6
CONTINUOUS
 62
     7
 10
1565.82415603
 20
394.9637271499
 30
0.0
  0
VERTEX
  5
BDF
  8
0
  6
CONTINUOUS
 62
     7
 10
1565.8729960387
 20
394.8108419163
 30
0.0
  0
VERTEX
  5
BE0
  8
0
  6
CONTINUOUS
 62
     7
 10
1565.9233246039
 20
394.6579046282
 30
0.0
  0
VERTEX
  5
BE1
  8
0
  6
CONTINUOUS
 62
     7
 10
1565.9751724373
 20
394.5048700371
 30
0.0
  0
VERTEX
  5
BE2
  8
0
  6
CONTINUOUS
 62
     7
 10
1566.0285595351
 20
394.3517252641
 30
0.0
  0
VERTEX
  5
BE3
  8
0
  6
CONTINUOUS
 62
     7
 10
1566.0835040912
 20
394.1984628747
 30
0.0
  0
VERTEX
  5
BE4
  8
0
  6
CONTINUOUS
 62
     7
 10
1566.1400242997
 20
394.0450754343
 30
0.0
  0
VERTEX
  5
BE5
  8
0
  6
CONTINUOUS
 62
     7
 10
1566.1981383544
 20
393.8915555085
 30
0.0
  0
VERTEX
  5
BE6
  8
0
  6
CONTINUOUS
 62
     7
 10
1566.2578644493
 20
393.7378956628
 30
0.0
  0
VERTEX
  5
BE7
  8
0
  6
CONTINUOUS
 62
     7
 10
1566.3192207783
 20
393.5840884626
 30
0.0
  0
VERTEX
  5
BE8
  8
0
  6
CONTINUOUS
 62
     7
 10
1566.3822255354
 20
393.4301264735
 30
0.0
  0
VERTEX
  5
BE9
  8
0
  6
CONTINUOUS
 62
     7
 10
1566.4468969144
 20
393.2760022609
 30
0.0
  0
VERTEX
  5
BEA
  8
0
  6
CONTINUOUS
 62
     7
 10
1566.5132531094
 20
393.1217083905
 30
0.0
  0
VERTEX
  5
BEB
  8
0
  6
CONTINUOUS
 62
     7
 10
1566.5812215058
 20
392.9673455295
 30
0.0
  0
VERTEX
  5
BEC
  8
0
  6
CONTINUOUS
 62
     7
 10
1566.6502781812
 20
392.8135032662
 30
0.0
  0
VERTEX
  5
BED
  8
0
  6
CONTINUOUS
 62
     7
 10
1566.7204494728
 20
392.660041788
 30
0.0
  0
VERTEX
  5
BEE
  8
0
  6
CONTINUOUS
 62
     7
 10
1566.7918825983
 20
392.5067205273
 30
0.0
  0
VERTEX
  5
BEF
  8
0
  6
CONTINUOUS
 62
     7
 10
1566.8647247249
 20
392.353299595
 30
0.0
  0
VERTEX
  5
BF0
  8
0
  6
CONTINUOUS
 62
     7
 10
1566.9391230194
 20
392.1995391018
 30
0.0
  0
VERTEX
  5
BF1
  8
0
  6
CONTINUOUS
 62
     7
 10
1567.0152246487
 20
392.0451991585
 30
0.0
  0
VERTEX
  5
BF2
  8
0
  6
CONTINUOUS
 62
     7
 10
1567.0931767797
 20
391.890039876
 30
0.0
  0
VERTEX
  5
BF3
  8
0
  6
CONTINUOUS
 62
     7
 10
1567.1731265793
 20
391.7338213649
 30
0.0
  0
VERTEX
  5
BF4
  8
0
  6
CONTINUOUS
 62
     7
 10
1567.2552212145
 20
391.5763037362
 30
0.0
  0
VERTEX
  5
BF5
  8
0
  6
CONTINUOUS
 62
     7
 10
1567.3396078521
 20
391.4172471006
 30
0.0
  0
VERTEX
  5
BF6
  8
0
  6
CONTINUOUS
 62
     7
 10
1567.4264336591
 20
391.2564115688
 30
0.0
  0
VERTEX
  5
BF7
  8
0
  6
CONTINUOUS
 62
     7
 10
1567.5158458023
 20
391.0935572518
 30
0.0
  0
VERTEX
  5
BF8
  8
0
  6
CONTINUOUS
 62
     7
 10
1567.6079914487
 20
390.9284442602
 30
0.0
  0
VERTEX
  5
BF9
  8
0
  6
CONTINUOUS
 62
     7
 10
1567.7030177651
 20
390.7608327049
 30
0.0
  0
VERTEX
  5
BFA
  8
0
  6
CONTINUOUS
 62
     7
 10
1567.8010719185
 20
390.5904826967
 30
0.0
  0
VERTEX
  5
BFB
  8
0
  6
CONTINUOUS
 62
     7
 10
1567.9023010759
 20
390.4171543464
 30
0.0
  0
VERTEX
  5
BFC
  8
0
  6
CONTINUOUS
 62
     7
 10
1568.006852404
 20
390.2406077647
 30
0.0
  0
VERTEX
  5
BFD
  8
0
  6
CONTINUOUS
 62
     7
 10
1568.1148730698
 20
390.0606030624
 30
0.0
  0
VERTEX
  5
BFE
  8
0
  6
CONTINUOUS
 62
     7
 10
1568.2265102403
 20
389.8769003504
 30
0.0
  0
VERTEX
  5
BFF
  8
0
  6
CONTINUOUS
 62
     7
 10
1568.3418073106
 20
389.6893703249
 30
0.0
  0
VERTEX
  5
C00
  8
0
  6
CONTINUOUS
 62
     7
 10
1568.4582404267
 20
389.5006404766
 30
0.0
  0
VERTEX
  5
C01
  8
0
  6
CONTINUOUS
 62
     7
 10
1568.5746751665
 20
389.311911517
 30
0.0
  0
VERTEX
  5
C02
  8
0
  6
CONTINUOUS
 62
     7
 10
1568.6911115208
 20
389.1231834407
 30
0.0
  0
VERTEX
  5
C03
  8
0
  6
CONTINUOUS
 62
     7
 10
1568.8075494804
 20
388.9344562425
 30
0.0
  0
VERTEX
  5
C04
  8
0
  6
CONTINUOUS
 62
     7
 10
1568.9239890359
 20
388.7457299172
 30
0.0
  0
VERTEX
  5
C05
  8
0
  6
CONTINUOUS
 62
     7
 10
1569.040430178
 20
388.5570044595
 30
0.0
  0
VERTEX
  5
C06
  8
0
  6
CONTINUOUS
 62
     7
 10
1569.1568728976
 20
388.3682798641
 30
0.0
  0
VERTEX
  5
C07
  8
0
  6
CONTINUOUS
 62
     7
 10
1569.2733171853
 20
388.1795561258
 30
0.0
  0
VERTEX
  5
C08
  8
0
  6
CONTINUOUS
 62
     7
 10
1569.3897630319
 20
387.9908332394
 30
0.0
  0
VERTEX
  5
C09
  8
0
  6
CONTINUOUS
 62
     7
 10
1569.5062104281
 20
387.8021111995
 30
0.0
  0
VERTEX
  5
C0A
  8
0
  6
CONTINUOUS
 62
     7
 10
1569.6226593646
 20
387.613390001
 30
0.0
  0
VERTEX
  5
C0B
  8
0
  6
CONTINUOUS
 62
     7
 10
1569.7391098322
 20
387.4246696386
 30
0.0
  0
VERTEX
  5
C0C
  8
0
  6
CONTINUOUS
 62
     7
 10
1569.8555618216
 20
387.2359501069
 30
0.0
  0
VERTEX
  5
C0D
  8
0
  6
CONTINUOUS
 62
     7
 10
1569.9720153234
 20
387.0472314009
 30
0.0
  0
VERTEX
  5
C0E
  8
0
  6
CONTINUOUS
 62
     7
 10
1570.0884703285
 20
386.8585135152
 30
0.0
  0
VERTEX
  5
C0F
  8
0
  6
CONTINUOUS
 62
     7
 10
1570.2049268276
 20
386.6697964445
 30
0.0
  0
VERTEX
  5
C10
  8
0
  6
CONTINUOUS
 62
     7
 10
1570.3213848114
 20
386.4810801836
 30
0.0
  0
VERTEX
  5
C11
  8
0
  6
CONTINUOUS
 62
     7
 10
1570.4378442706
 20
386.2923647273
 30
0.0
  0
VERTEX
  5
C12
  8
0
  6
CONTINUOUS
 62
     7
 10
1570.5543051959
 20
386.1036500703
 30
0.0
  0
VERTEX
  5
C13
  8
0
  6
CONTINUOUS
 62
     7
 10
1570.6707675782
 20
385.9149362074
 30
0.0
  0
VERTEX
  5
C14
  8
0
  6
CONTINUOUS
 62
     7
 10
1570.787231408
 20
385.7262231332
 30
0.0
  0
VERTEX
  5
C15
  8
0
  6
CONTINUOUS
 62
     7
 10
1570.9036966762
 20
385.5375108426
 30
0.0
  0
VERTEX
  5
C16
  8
0
  6
CONTINUOUS
 62
     7
 10
1571.0201633735
 20
385.3487993302
 30
0.0
  0
VERTEX
  5
C17
  8
0
  6
CONTINUOUS
 62
     7
 10
1571.1366314905
 20
385.1600885909
 30
0.0
  0
VERTEX
  5
C18
  8
0
  6
CONTINUOUS
 62
     7
 10
1571.2531010181
 20
384.9713786194
 30
0.0
  0
VERTEX
  5
C19
  8
0
  6
CONTINUOUS
 62
     7
 10
1571.369571947
 20
384.7826694104
 30
0.0
  0
VERTEX
  5
C1A
  8
0
  6
CONTINUOUS
 62
     7
 10
1571.4860442678
 20
384.5939609587
 30
0.0
  0
VERTEX
  5
C1B
  8
0
  6
CONTINUOUS
 62
     7
 10
1571.6025179714
 20
384.4052532589
 30
0.0
  0
VERTEX
  5
C1C
  8
0
  6
CONTINUOUS
 62
     7
 10
1571.7189930484
 20
384.216546306
 30
0.0
  0
VERTEX
  5
C1D
  8
0
  6
CONTINUOUS
 62
     7
 10
1571.8354694896
 20
384.0278400946
 30
0.0
  0
VERTEX
  5
C1E
  8
0
  6
CONTINUOUS
 62
     7
 10
1571.9519472856
 20
383.8391346194
 30
0.0
  0
VERTEX
  5
C1F
  8
0
  6
CONTINUOUS
 62
     7
 10
1572.0684264273
 20
383.6504298752
 30
0.0
  0
VERTEX
  5
C20
  8
0
  6
CONTINUOUS
 62
     7
 10
1572.1849069054
 20
383.4617258568
 30
0.0
  0
VERTEX
  5
C21
  8
0
  6
CONTINUOUS
 62
     7
 10
1572.3013887106
 20
383.2730225588
 30
0.0
  0
SEQEND
  5
D31
  8
0
  6
CONTINUOUS
 62
     7
  0
POLYLINE
  5
21F
  8
0
  6
CONTINUOUS
 62
     7
 66
     1
 10
0.0
 20
0.0
 30
0.0
  0
VERTEX
  5
C22
  8
0
  6
CONTINUOUS
 62
     7
 10
1602.0863345029
 20
413.0579683511
 30
0.0
  0
VERTEX
  5
C23
  8
0
  6
CONTINUOUS
 62
     7
 10
1601.897631205
 20
413.1744501563
 30
0.0
  0
VERTEX
  5
C24
  8
0
  6
CONTINUOUS
 62
     7
 10
1601.7089271865
 20
413.2909306343
 30
0.0
  0
VERTEX
  5
C25
  8
0
  6
CONTINUOUS
 62
     7
 10
1601.5202224423
 20
413.407409776
 30
0.0
  0
VERTEX
  5
C26
  8
0
  6
CONTINUOUS
 62
     7
 10
1601.3315169672
 20
413.5238875721
 30
0.0
  0
VERTEX
  5
C27
  8
0
  6
CONTINUOUS
 62
     7
 10
1601.1428107557
 20
413.6403640133
 30
0.0
  0
VERTEX
  5
C28
  8
0
  6
CONTINUOUS
 62
     7
 10
1600.9541038028
 20
413.7568390903
 30
0.0
  0
VERTEX
  5
C29
  8
0
  6
CONTINUOUS
 62
     7
 10
1600.7653961031
 20
413.8733127938
 30
0.0
  0
VERTEX
  5
C2A
  8
0
  6
CONTINUOUS
 62
     7
 10
1600.5766876514
 20
413.9897851147
 30
0.0
  0
VERTEX
  5
C2B
  8
0
  6
CONTINUOUS
 62
     7
 10
1600.3879784424
 20
414.1062560435
 30
0.0
  0
VERTEX
  5
C2C
  8
0
  6
CONTINUOUS
 62
     7
 10
1600.1992684708
 20
414.2227255711
 30
0.0
  0
VERTEX
  5
C2D
  8
0
  6
CONTINUOUS
 62
     7
 10
1600.0105577315
 20
414.3391936882
 30
0.0
  0
VERTEX
  5
C2E
  8
0
  6
CONTINUOUS
 62
     7
 10
1599.8218462192
 20
414.4556603854
 30
0.0
  0
VERTEX
  5
C2F
  8
0
  6
CONTINUOUS
 62
     7
 10
1599.6331339286
 20
414.5721256536
 30
0.0
  0
VERTEX
  5
C30
  8
0
  6
CONTINUOUS
 62
     7
 10
1599.4444208544
 20
414.6885894835
 30
0.0
  0
VERTEX
  5
C31
  8
0
  6
CONTINUOUS
 62
     7
 10
1599.2557069915
 20
414.8050518657
 30
0.0
  0
VERTEX
  5
C32
  8
0
  6
CONTINUOUS
 62
     7
 10
1599.0669923345
 20
414.9215127911
 30
0.0
  0
VERTEX
  5
C33
  8
0
  6
CONTINUOUS
 62
     7
 10
1598.8782768782
 20
415.0379722503
 30
0.0
  0
VERTEX
  5
C34
  8
0
  6
CONTINUOUS
 62
     7
 10
1598.6895606173
 20
415.154430234
 30
0.0
  0
VERTEX
  5
C35
  8
0
  6
CONTINUOUS
 62
     7
 10
1598.5008435466
 20
415.2708867331
 30
0.0
  0
VERTEX
  5
C36
  8
0
  6
CONTINUOUS
 62
     7
 10
1598.3121256609
 20
415.3873417382
 30
0.0
  0
VERTEX
  5
C37
  8
0
  6
CONTINUOUS
 62
     7
 10
1598.1234069549
 20
415.5037952401
 30
0.0
  0
VERTEX
  5
C38
  8
0
  6
CONTINUOUS
 62
     7
 10
1597.9346874233
 20
415.6202472294
 30
0.0
  0
VERTEX
  5
C39
  8
0
  6
CONTINUOUS
 62
     7
 10
1597.7459670608
 20
415.736697697
 30
0.0
  0
VERTEX
  5
C3A
  8
0
  6
CONTINUOUS
 62
     7
 10
1597.5572458623
 20
415.8531466335
 30
0.0
  0
VERTEX
  5
C3B
  8
0
  6
CONTINUOUS
 62
     7
 10
1597.3685238224
 20
415.9695940297
 30
0.0
  0
VERTEX
  5
C3C
  8
0
  6
CONTINUOUS
 62
     7
 10
1597.179800936
 20
416.0860398763
 30
0.0
  0
VERTEX
  5
C3D
  8
0
  6
CONTINUOUS
 62
     7
 10
1596.9910771977
 20
416.202484164
 30
0.0
  0
VERTEX
  5
C3E
  8
0
  6
CONTINUOUS
 62
     7
 10
1596.8023526024
 20
416.3189268836
 30
0.0
  0
VERTEX
  5
C3F
  8
0
  6
CONTINUOUS
 62
     7
 10
1596.6136271447
 20
416.4353680257
 30
0.0
  0
VERTEX
  5
C40
  8
0
  6
CONTINUOUS
 62
     7
 10
1596.4249008193
 20
416.5518075812
 30
0.0
  0
VERTEX
  5
C41
  8
0
  6
CONTINUOUS
 62
     7
 10
1596.2361736212
 20
416.6682455408
 30
0.0
  0
VERTEX
  5
C42
  8
0
  6
CONTINUOUS
 62
     7
 10
1596.0474455449
 20
416.7846818951
 30
0.0
  0
VERTEX
  5
C43
  8
0
  6
CONTINUOUS
 62
     7
 10
1595.8587165853
 20
416.9011166349
 30
0.0
  0
VERTEX
  5
C44
  8
0
  6
CONTINUOUS
 62
     7
 10
1595.669986737
 20
417.017549751
 30
0.0
  0
VERTEX
  5
C45
  8
0
  6
CONTINUOUS
 62
     7
 10
1595.4824567115
 20
417.1328468213
 30
0.0
  0
VERTEX
  5
C46
  8
0
  6
CONTINUOUS
 62
     7
 10
1595.2987539995
 20
417.2444839917
 30
0.0
  0
VERTEX
  5
C47
  8
0
  6
CONTINUOUS
 62
     7
 10
1595.1187492972
 20
417.3525046576
 30
0.0
  0
VERTEX
  5
C48
  8
0
  6
CONTINUOUS
 62
     7
 10
1594.9422027155
 20
417.4570559857
 30
0.0
  0
VERTEX
  5
C49
  8
0
  6
CONTINUOUS
 62
     7
 10
1594.7688743652
 20
417.558285143
 30
0.0
  0
VERTEX
  5
C4A
  8
0
  6
CONTINUOUS
 62
     7
 10
1594.598524357
 20
417.6563392965
 30
0.0
  0
VERTEX
  5
C4B
  8
0
  6
CONTINUOUS
 62
     7
 10
1594.4309128017
 20
417.7513656129
 30
0.0
  0
VERTEX
  5
C4C
  8
0
  6
CONTINUOUS
 62
     7
 10
1594.2657998101
 20
417.8435112593
 30
0.0
  0
VERTEX
  5
C4D
  8
0
  6
CONTINUOUS
 62
     7
 10
1594.1029454931
 20
417.9329234025
 30
0.0
  0
VERTEX
  5
C4E
  8
0
  6
CONTINUOUS
 62
     7
 10
1593.9421099613
 20
418.0197492095
 30
0.0
  0
VERTEX
  5
C4F
  8
0
  6
CONTINUOUS
 62
     7
 10
1593.7830533257
 20
418.1041358471
 30
0.0
  0
VERTEX
  5
C50
  8
0
  6
CONTINUOUS
 62
     7
 10
1593.625535697
 20
418.1862304822
 30
0.0
  0
VERTEX
  5
C51
  8
0
  6
CONTINUOUS
 62
     7
 10
1593.4693171859
 20
418.2661802819
 30
0.0
  0
VERTEX
  5
C52
  8
0
  6
CONTINUOUS
 62
     7
 10
1593.3141579034
 20
418.3441324129
 30
0.0
  0
VERTEX
  5
C53
  8
0
  6
CONTINUOUS
 62
     7
 10
1593.1598179601
 20
418.4202340422
 30
0.0
  0
VERTEX
  5
C54
  8
0
  6
CONTINUOUS
 62
     7
 10
1593.0060574669
 20
418.4946323366
 30
0.0
  0
VERTEX
  5
C55
  8
0
  6
CONTINUOUS
 62
     7
 10
1592.8526365346
 20
418.5674744632
 30
0.0
  0
VERTEX
  5
C56
  8
0
  6
CONTINUOUS
 62
     7
 10
1592.6993152739
 20
418.6389075888
 30
0.0
  0
VERTEX
  5
C57
  8
0
  6
CONTINUOUS
 62
     7
 10
1592.5458537957
 20
418.7090788803
 30
0.0
  0
VERTEX
  5
C58
  8
0
  6
CONTINUOUS
 62
     7
 10
1592.3920115325
 20
418.7781355558
 30
0.0
  0
VERTEX
  5
C59
  8
0
  6
CONTINUOUS
 62
     7
 10
1592.2376486715
 20
418.8461039521
 30
0.0
  0
VERTEX
  5
C5A
  8
0
  6
CONTINUOUS
 62
     7
 10
1592.083354801
 20
418.9124601472
 30
0.0
  0
VERTEX
  5
C5B
  8
0
  6
CONTINUOUS
 62
     7
 10
1591.9292305884
 20
418.9771315262
 30
0.0
  0
VERTEX
  5
C5C
  8
0
  6
CONTINUOUS
 62
     7
 10
1591.7752685993
 20
419.0401362833
 30
0.0
  0
VERTEX
  5
C5D
  8
0
  6
CONTINUOUS
 62
     7
 10
1591.6214613992
 20
419.1014926123
 30
0.0
  0
VERTEX
  5
C5E
  8
0
  6
CONTINUOUS
 62
     7
 10
1591.4678015535
 20
419.1612187072
 30
0.0
  0
VERTEX
  5
C5F
  8
0
  6
CONTINUOUS
 62
     7
 10
1591.3142816277
 20
419.2193327619
 30
0.0
  0
VERTEX
  5
C60
  8
0
  6
CONTINUOUS
 62
     7
 10
1591.1608941873
 20
419.2758529703
 30
0.0
  0
VERTEX
  5
C61
  8
0
  6
CONTINUOUS
 62
     7
 10
1591.0076317979
 20
419.3307975265
 30
0.0
  0
VERTEX
  5
C62
  8
0
  6
CONTINUOUS
 62
     7
 10
1590.8544870249
 20
419.3841846243
 30
0.0
  0
VERTEX
  5
C63
  8
0
  6
CONTINUOUS
 62
     7
 10
1590.7014524338
 20
419.4360324577
 30
0.0
  0
VERTEX
  5
C64
  8
0
  6
CONTINUOUS
 62
     7
 10
1590.5485151457
 20
419.4863610229
 30
0.0
  0
VERTEX
  5
C65
  8
0
  6
CONTINUOUS
 62
     7
 10
1590.3956299121
 20
419.5352010316
 30
0.0
  0
VERTEX
  5
C66
  8
0
  6
CONTINUOUS
 62
     7
 10
1590.2427395691
 20
419.5825871402
 30
0.0
  0
VERTEX
  5
C67
  8
0
  6
CONTINUOUS
 62
     7
 10
1590.0897869342
 20
419.628554011
 30
0.0
  0
VERTEX
  5
C68
  8
0
  6
CONTINUOUS
 62
     7
 10
1589.9367148249
 20
419.6731363063
 30
0.0
  0
VERTEX
  5
C69
  8
0
  6
CONTINUOUS
 62
     7
 10
1589.7834660588
 20
419.7163686885
 30
0.0
  0
VERTEX
  5
C6A
  8
0
  6
CONTINUOUS
 62
     7
 10
1589.6299836103
 20
419.7582857272
 30
0.0
  0
VERTEX
  5
C6B
  8
0
  6
CONTINUOUS
 62
     7
 10
1589.4762299319
 20
419.7989104678
 30
0.0
  0
VERTEX
  5
C6C
  8
0
  6
CONTINUOUS
 62
     7
 10
1589.3222055739
 20
419.8382434159
 30
0.0
  0
VERTEX
  5
C6D
  8
0
  6
CONTINUOUS
 62
     7
 10
1589.1679155017
 20
419.8762824649
 30
0.0
  0
VERTEX
  5
C6E
  8
0
  6
CONTINUOUS
 62
     7
 10
1589.0133646805
 20
419.9130255081
 30
0.0
  0
VERTEX
  5
C6F
  8
0
  6
CONTINUOUS
 62
     7
 10
1588.8585580757
 20
419.9484704391
 30
0.0
  0
VERTEX
  5
C70
  8
0
  6
CONTINUOUS
 62
     7
 10
1588.7035006526
 20
419.982615151
 30
0.0
  0
VERTEX
  5
C71
  8
0
  6
CONTINUOUS
 62
     7
 10
1588.5481973765
 20
420.0154575374
 30
0.0
  0
VERTEX
  5
C72
  8
0
  6
CONTINUOUS
 62
     7
 10
1588.3926532127
 20
420.0469954917
 30
0.0
  0
VERTEX
  5
C73
  8
0
  6
CONTINUOUS
 62
     7
 10
1588.2368731265
 20
420.0772269073
 30
0.0
  0
VERTEX
  5
C74
  8
0
  6
CONTINUOUS
 62
     7
 10
1588.0808620234
 20
420.1061497021
 30
0.0
  0
VERTEX
  5
C75
  8
0
  6
CONTINUOUS
 62
     7
 10
1587.9246222085
 20
420.1337628638
 30
0.0
  0
VERTEX
  5
C76
  8
0
  6
CONTINUOUS
 62
     7
 10
1587.7681524436
 20
420.1600668369
 30
0.0
  0
VERTEX
  5
C77
  8
0
  6
CONTINUOUS
 62
     7
 10
1587.6114512365
 20
420.1850621708
 30
0.0
  0
VERTEX
  5
C78
  8
0
  6
CONTINUOUS
 62
     7
 10
1587.4545170948
 20
420.2087494148
 30
0.0
  0
VERTEX
  5
C79
  8
0
  6
CONTINUOUS
 62
     7
 10
1587.2973485261
 20
420.2311291181
 30
0.0
  0
VERTEX
  5
C7A
  8
0
  6
CONTINUOUS
 62
     7
 10
1587.1399440381
 20
420.2522018302
 30
0.0
  0
VERTEX
  5
C7B
  8
0
  6
CONTINUOUS
 62
     7
 10
1586.9823021385
 20
420.2719681002
 30
0.0
  0
VERTEX
  5
C7C
  8
0
  6
CONTINUOUS
 62
     7
 10
1586.8244213348
 20
420.2904284775
 30
0.0
  0
VERTEX
  5
C7D
  8
0
  6
CONTINUOUS
 62
     7
 10
1586.6663001347
 20
420.3075835113
 30
0.0
  0
VERTEX
  5
C7E
  8
0
  6
CONTINUOUS
 62
     7
 10
1586.507937046
 20
420.323433751
 30
0.0
  0
VERTEX
  5
C7F
  8
0
  6
CONTINUOUS
 62
     7
 10
1586.3493305762
 20
420.3379797459
 30
0.0
  0
VERTEX
  5
C80
  8
0
  6
CONTINUOUS
 62
     7
 10
1586.1904792329
 20
420.3512220452
 30
0.0
  0
VERTEX
  5
C81
  8
0
  6
CONTINUOUS
 62
     7
 10
1586.0313815239
 20
420.3631611982
 30
0.0
  0
VERTEX
  5
C82
  8
0
  6
CONTINUOUS
 62
     7
 10
1585.8720359568
 20
420.3737977543
 30
0.0
  0
VERTEX
  5
C83
  8
0
  6
CONTINUOUS
 62
     7
 10
1585.7124410392
 20
420.3831322627
 30
0.0
  0
VERTEX
  5
C84
  8
0
  6
CONTINUOUS
 62
     7
 10
1585.5525952788
 20
420.3911652728
 30
0.0
  0
VERTEX
  5
C85
  8
0
  6
CONTINUOUS
 62
     7
 10
1585.3924972131
 20
420.3978973327
 30
0.0
  0
VERTEX
  5
C86
  8
0
  6
CONTINUOUS
 62
     7
 10
1585.2321585809
 20
420.4033285185
 30
0.0
  0
VERTEX
  5
C87
  8
0
  6
CONTINUOUS
 62
     7
 10
1585.0716249991
 20
420.407457695
 30
0.0
  0
VERTEX
  5
C88
  8
0
  6
CONTINUOUS
 62
     7
 10
1584.9109474433
 20
420.4102835351
 30
0.0
  0
VERTEX
  5
C89
  8
0
  6
CONTINUOUS
 62
     7
 10
1584.7501768892
 20
420.4118047116
 30
0.0
  0
VERTEX
  5
C8A
  8
0
  6
CONTINUOUS
 62
     7
 10
1584.5893643123
 20
420.4120198977
 30
0.0
  0
VERTEX
  5
C8B
  8
0
  6
CONTINUOUS
 62
     7
 10
1584.4285606882
 20
420.4109277663
 30
0.0
  0
VERTEX
  5
C8C
  8
0
  6
CONTINUOUS
 62
     7
 10
1584.2678169927
 20
420.4085269904
 30
0.0
  0
VERTEX
  5
C8D
  8
0
  6
CONTINUOUS
 62
     7
 10
1584.1071842013
 20
420.4048162429
 30
0.0
  0
VERTEX
  5
C8E
  8
0
  6
CONTINUOUS
 62
     7
 10
1583.9467132896
 20
420.3997941968
 30
0.0
  0
VERTEX
  5
C8F
  8
0
  6
CONTINUOUS
 62
     7
 10
1583.7864552332
 20
420.3934595251
 30
0.0
  0
VERTEX
  5
C90
  8
0
  6
CONTINUOUS
 62
     7
 10
1583.6264610078
 20
420.3858109007
 30
0.0
  0
VERTEX
  5
C91
  8
0
  6
CONTINUOUS
 62
     7
 10
1583.4667044153
 20
420.3768602537
 30
0.0
  0
VERTEX
  5
C92
  8
0
  6
CONTINUOUS
 62
     7
 10
1583.3070980489
 20
420.3666252935
 30
0.0
  0
VERTEX
  5
C93
  8
0
  6
CONTINUOUS
 62
     7
 10
1583.1476465668
 20
420.3551055717
 30
0.0
  0
VERTEX
  5
C94
  8
0
  6
CONTINUOUS
 62
     7
 10
1582.988357439
 20
420.342300498
 30
0.0
  0
VERTEX
  5
C95
  8
0
  6
CONTINUOUS
 62
     7
 10
1582.8292381479
 20
420.3282094821
 30
0.0
  0
VERTEX
  5
C96
  8
0
  6
CONTINUOUS
 62
     7
 10
1582.6702961757
 20
420.3128319335
 30
0.0
  0
VERTEX
  5
C97
  8
0
  6
CONTINUOUS
 62
     7
 10
1582.5115390049
 20
420.296167262
 30
0.0
  0
VERTEX
  5
C98
  8
0
  6
CONTINUOUS
 62
     7
 10
1582.3529741177
 20
420.2782148772
 30
0.0
  0
VERTEX
  5
C99
  8
0
  6
CONTINUOUS
 62
     7
 10
1582.1946089964
 20
420.2589741887
 30
0.0
  0
VERTEX
  5
C9A
  8
0
  6
CONTINUOUS
 62
     7
 10
1582.0364511233
 20
420.2384446061
 30
0.0
  0
VERTEX
  5
C9B
  8
0
  6
CONTINUOUS
 62
     7
 10
1581.8785079808
 20
420.2166255391
 30
0.0
  0
VERTEX
  5
C9C
  8
0
  6
CONTINUOUS
 62
     7
 10
1581.7207860391
 20
420.193516396
 30
0.0
  0
VERTEX
  5
C9D
  8
0
  6
CONTINUOUS
 62
     7
 10
1581.5632866103
 20
420.1691165782
 30
0.0
  0
VERTEX
  5
C9E
  8
0
  6
CONTINUOUS
 62
     7
 10
1581.4060093673
 20
420.1434254852
 30
0.0
  0
VERTEX
  5
C9F
  8
0
  6
CONTINUOUS
 62
     7
 10
1581.2489539822
 20
420.1164425162
 30
0.0
  0
VERTEX
  5
CA0
  8
0
  6
CONTINUOUS
 62
     7
 10
1581.0921201273
 20
420.0881670706
 30
0.0
  0
VERTEX
  5
CA1
  8
0
  6
CONTINUOUS
 62
     7
 10
1580.9355074746
 20
420.0585985476
 30
0.0
  0
VERTEX
  5
CA2
  8
0
  6
CONTINUOUS
 62
     7
 10
1580.7791156964
 20
420.0277363467
 30
0.0
  0
VERTEX
  5
CA3
  8
0
  6
CONTINUOUS
 62
     7
 10
1580.6229444649
 20
419.9955798672
 30
0.0
  0
VERTEX
  5
CA4
  8
0
  6
CONTINUOUS
 62
     7
 10
1580.4669934522
 20
419.9621285083
 30
0.0
  0
VERTEX
  5
CA5
  8
0
  6
CONTINUOUS
 62
     7
 10
1580.3112623305
 20
419.9273816695
 30
0.0
  0
VERTEX
  5
CA6
  8
0
  6
CONTINUOUS
 62
     7
 10
1580.1557507721
 20
419.89133875
 30
0.0
  0
VERTEX
  5
CA7
  8
0
  6
CONTINUOUS
 62
     7
 10
1580.000458449
 20
419.8539991491
 30
0.0
  0
VERTEX
  5
CA8
  8
0
  6
CONTINUOUS
 62
     7
 10
1579.8453850334
 20
419.8153622663
 30
0.0
  0
VERTEX
  5
CA9
  8
0
  6
CONTINUOUS
 62
     7
 10
1579.6905301977
 20
419.7754275008
 30
0.0
  0
VERTEX
  5
CAA
  8
0
  6
CONTINUOUS
 62
     7
 10
1579.5358936138
 20
419.734194252
 30
0.0
  0
VERTEX
  5
CAB
  8
0
  6
CONTINUOUS
 62
     7
 10
1579.381474954
 20
419.6916619192
 30
0.0
  0
VERTEX
  5
CAC
  8
0
  6
CONTINUOUS
 62
     7
 10
1579.2272738905
 20
419.6478299017
 30
0.0
  0
VERTEX
  5
CAD
  8
0
  6
CONTINUOUS
 62
     7
 10
1579.0732900955
 20
419.6026975988
 30
0.0
  0
VERTEX
  5
CAE
  8
0
  6
CONTINUOUS
 62
     7
 10
1578.9195232411
 20
419.5562644099
 30
0.0
  0
VERTEX
  5
CAF
  8
0
  6
CONTINUOUS
 62
     7
 10
1578.7659729996
 20
419.5085297344
 30
0.0
  0
VERTEX
  5
CB0
  8
0
  6
CONTINUOUS
 62
     7
 10
1578.612639043
 20
419.4594929715
 30
0.0
  0
VERTEX
  5
CB1
  8
0
  6
CONTINUOUS
 62
     7
 10
1578.4595210437
 20
419.4091535205
 30
0.0
  0
VERTEX
  5
CB2
  8
0
  6
CONTINUOUS
 62
     7
 10
1578.3066249886
 20
419.3575129174
 30
0.0
  0
VERTEX
  5
CB3
  8
0
  6
CONTINUOUS
 62
     7
 10
1578.154173942
 20
419.3046465552
 30
0.0
  0
VERTEX
  5
CB4
  8
0
  6
CONTINUOUS
 62
     7
 10
1578.0022788365
 20
419.2505930315
 30
0.0
  0
VERTEX
  5
CB5
  8
0
  6
CONTINUOUS
 62
     7
 10
1577.850939539
 20
419.1953535564
 30
0.0
  0
VERTEX
  5
CB6
  8
0
  6
CONTINUOUS
 62
     7
 10
1577.7001559163
 20
419.13892934
 30
0.0
  0
VERTEX
  5
CB7
  8
0
  6
CONTINUOUS
 62
     7
 10
1577.5499278353
 20
419.0813215924
 30
0.0
  0
VERTEX
  5
CB8
  8
0
  6
CONTINUOUS
 62
     7
 10
1577.4002551628
 20
419.0225315239
 30
0.0
  0
VERTEX
  5
CB9
  8
0
  6
CONTINUOUS
 62
     7
 10
1577.2511407399
 20
418.9625611632
 30
0.0
  0
VERTEX
  5
CBA
  8
0
  6
CONTINUOUS
 62
     7
 10
1577.1026256605
 20
418.9014230745
 30
0.0
  0
VERTEX
  5
CBB
  8
0
  6
CONTINUOUS
 62
     7
 10
1576.9547235201
 20
418.8391222646
 30
0.0
  0
VERTEX
  5
CBC
  8
0
  6
CONTINUOUS
 62
     7
 10
1576.8074348746
 20
418.7756601523
 30
0.0
  0
VERTEX
  5
CBD
  8
0
  6
CONTINUOUS
 62
     7
 10
1576.66076028
 20
418.7110381565
 30
0.0
  0
VERTEX
  5
CBE
  8
0
  6
CONTINUOUS
 62
     7
 10
1576.5147002925
 20
418.6452576962
 30
0.0
  0
VERTEX
  5
CBF
  8
0
  6
CONTINUOUS
 62
     7
 10
1576.3692554679
 20
418.5783201903
 30
0.0
  0
VERTEX
  5
CC0
  8
0
  6
CONTINUOUS
 62
     7
 10
1576.2244263625
 20
418.5102270576
 30
0.0
  0
VERTEX
  5
CC1
  8
0
  6
CONTINUOUS
 62
     7
 10
1576.0802135321
 20
418.4409797171
 30
0.0
  0
VERTEX
  5
CC2
  8
0
  6
CONTINUOUS
 62
     7
 10
1575.9366175329
 20
418.3705795877
 30
0.0
  0
VERTEX
  5
CC3
  8
0
  6
CONTINUOUS
 62
     7
 10
1575.7936389209
 20
418.2990280883
 30
0.0
  0
VERTEX
  5
CC4
  8
0
  6
CONTINUOUS
 62
     7
 10
1575.6512782521
 20
418.2263266378
 30
0.0
  0
VERTEX
  5
CC5
  8
0
  6
CONTINUOUS
 62
     7
 10
1575.5095360825
 20
418.1524766552
 30
0.0
  0
VERTEX
  5
CC6
  8
0
  6
CONTINUOUS
 62
     7
 10
1575.3684129682
 20
418.0774795592
 30
0.0
  0
VERTEX
  5
CC7
  8
0
  6
CONTINUOUS
 62
     7
 10
1575.2279094652
 20
418.0013367689
 30
0.0
  0
VERTEX
  5
CC8
  8
0
  6
CONTINUOUS
 62
     7
 10
1575.0880261296
 20
417.9240497031
 30
0.0
  0
VERTEX
  5
CC9
  8
0
  6
CONTINUOUS
 62
     7
 10
1574.9487635173
 20
417.8456197808
 30
0.0
  0
VERTEX
  5
CCA
  8
0
  6
CONTINUOUS
 62
     7
 10
1574.8101221845
 20
417.7660484209
 30
0.0
  0
VERTEX
  5
CCB
  8
0
  6
CONTINUOUS
 62
     7
 10
1574.6721026871
 20
417.6853370422
 30
0.0
  0
VERTEX
  5
CCC
  8
0
  6
CONTINUOUS
 62
     7
 10
1574.5347055813
 20
417.6034870637
 30
0.0
  0
VERTEX
  5
CCD
  8
0
  6
CONTINUOUS
 62
     7
 10
1574.3979314229
 20
417.5204999043
 30
0.0
  0
VERTEX
  5
CCE
  8
0
  6
CONTINUOUS
 62
     7
 10
1574.2617807681
 20
417.4363769829
 30
0.0
  0
VERTEX
  5
CCF
  8
0
  6
CONTINUOUS
 62
     7
 10
1574.1262541729
 20
417.3511197183
 30
0.0
  0
VERTEX
  5
CD0
  8
0
  6
CONTINUOUS
 62
     7
 10
1573.9913521934
 20
417.2647295296
 30
0.0
  0
VERTEX
  5
CD1
  8
0
  6
CONTINUOUS
 62
     7
 10
1573.8570753855
 20
417.1772078357
 30
0.0
  0
VERTEX
  5
CD2
  8
0
  6
CONTINUOUS
 62
     7
 10
1573.7234243053
 20
417.0885560553
 30
0.0
  0
VERTEX
  5
CD3
  8
0
  6
CONTINUOUS
 62
     7
 10
1573.5903995088
 20
416.9987756075
 30
0.0
  0
VERTEX
  5
CD4
  8
0
  6
CONTINUOUS
 62
     7
 10
1573.4580008754
 20
416.9078631953
 30
0.0
  0
VERTEX
  5
CD5
  8
0
  6
CONTINUOUS
 62
     7
 10
1573.3262290327
 20
416.8157916475
 30
0.0
  0
VERTEX
  5
CD6
  8
0
  6
CONTINUOUS
 62
     7
 10
1573.195095787
 20
416.7225641372
 30
0.0
  0
VERTEX
  5
CD7
  8
0
  6
CONTINUOUS
 62
     7
 10
1573.0646139327
 20
416.6281878485
 30
0.0
  0
VERTEX
  5
CD8
  8
0
  6
CONTINUOUS
 62
     7
 10
1572.9347966513
 20
416.5326671945
 30
0.0
  0
VERTEX
  5
CD9
  8
0
  6
CONTINUOUS
 62
     7
 10
1572.8056592853
 20
416.4360128119
 30
0.0
  0
VERTEX
  5
CDA
  8
0
  6
CONTINUOUS
 62
     7
 10
1572.6772172662
 20
416.3382356659
 30
0.0
  0
VERTEX
  5
CDB
  8
0
  6
CONTINUOUS
 62
     7
 10
1572.5494860252
 20
416.2393467213
 30
0.0
  0
VERTEX
  5
CDC
  8
0
  6
CONTINUOUS
 62
     7
 10
1572.4224809938
 20
416.1393569432
 30
0.0
  0
VERTEX
  5
CDD
  8
0
  6
CONTINUOUS
 62
     7
 10
1572.2962176032
 20
416.0382772967
 30
0.0
  0
VERTEX
  5
CDE
  8
0
  6
CONTINUOUS
 62
     7
 10
1572.1707112849
 20
415.9361187468
 30
0.0
  0
VERTEX
  5
CDF
  8
0
  6
CONTINUOUS
 62
     7
 10
1572.0459774701
 20
415.8328922585
 30
0.0
  0
VERTEX
  5
CE0
  8
0
  6
CONTINUOUS
 62
     7
 10
1571.9220315903
 20
415.7286087968
 30
0.0
  0
VERTEX
  5
CE1
  8
0
  6
CONTINUOUS
 62
     7
 10
1571.7988890768
 20
415.6232793268
 30
0.0
  0
VERTEX
  5
CE2
  8
0
  6
CONTINUOUS
 62
     7
 10
1571.6765653608
 20
415.5169148135
 30
0.0
  0
VERTEX
  5
CE3
  8
0
  6
CONTINUOUS
 62
     7
 10
1571.5550758739
 20
415.409526222
 30
0.0
  0
VERTEX
  5
CE4
  8
0
  6
CONTINUOUS
 62
     7
 10
1571.4344360473
 20
415.3011245172
 30
0.0
  0
VERTEX
  5
CE5
  8
0
  6
CONTINUOUS
 62
     7
 10
1571.3146613123
 20
415.1917206642
 30
0.0
  0
VERTEX
  5
CE6
  8
0
  6
CONTINUOUS
 62
     7
 10
1571.1957671004
 20
415.081325628
 30
0.0
  0
VERTEX
  5
CE7
  8
0
  6
CONTINUOUS
 62
     7
 10
1571.0777688429
 20
414.9699503737
 30
0.0
  0
VERTEX
  5
CE8
  8
0
  6
CONTINUOUS
 62
     7
 10
1570.9606819711
 20
414.8576058663
 30
0.0
  0
VERTEX
  5
CE9
  8
0
  6
CONTINUOUS
 62
     7
 10
1570.8445219164
 20
414.7443030707
 30
0.0
  0
VERTEX
  5
CEA
  8
0
  6
CONTINUOUS
 62
     7
 10
1570.7293041102
 20
414.6300529522
 30
0.0
  0
SEQEND
  5
D32
  8
0
  6
CONTINUOUS
 62
     7
  0
ENDSEC
  0
EOF
