  0
SECTION
  2
HEADER
  9
$ACADVER
  1
AC1014
  9
$ACADMAINTVER
 70
     9
  9
$DWGCODEPAGE
  3
ANSI_1252
  9
$INSBASE
 10
0.0
 20
0.0
 30
0.0
  9
$EXTMIN
 10
1.000000000000000E+20
 20
1.000000000000000E+20
 30
1.000000000000000E+20
  9
$EXTMAX
 10
-1.000000000000000E+20
 20
-1.000000000000000E+20
 30
-1.000000000000000E+20
  9
$LIMMIN
 10
0.0
 20
0.0
  9
$LIMMAX
 10
12.0
 20
9.0
  9
$ORTHOMODE
 70
     0
  9
$REGENMODE
 70
     1
  9
$FILLMODE
 70
     1
  9
$QTEXTMODE
 70
     0
  9
$MIRRTEXT
 70
     1
  9
$DRAGMODE
 70
     2
  9
$LTSCALE
 40
1.0
  9
$OSMODE
 70
    37
  9
$ATTMODE
 70
     1
  9
$TEXTSIZE
 40
0.2
  9
$TRACEWID
 40
0.05
  9
$TEXTSTYLE
  7
STANDARD
  9
$CLAYER
  8
0
  9
$CELTYPE
  6
BYLAYER
  9
$CECOLOR
 62
   256
  9
$CELTSCALE
 40
1.0
  9
$DELOBJ
 70
     1
  9
$DISPSILH
 70
     0
  9
$DIMSCALE
 40
1.0
  9
$DIMASZ
 40
0.18
  9
$DIMEXO
 40
0.0625
  9
$DIMDLI
 40
0.38
  9
$DIMRND
 40
0.0
  9
$DIMDLE
 40
0.0
  9
$DIMEXE
 40
0.18
  9
$DIMTP
 40
0.0
  9
$DIMTM
 40
0.0
  9
$DIMTXT
 40
0.18
  9
$DIMCEN
 40
0.09
  9
$DIMTSZ
 40
0.0
  9
$DIMTOL
 70
     0
  9
$DIMLIM
 70
     0
  9
$DIMTIH
 70
     1
  9
$DIMTOH
 70
     1
  9
$DIMSE1
 70
     0
  9
$DIMSE2
 70
     0
  9
$DIMTAD
 70
     0
  9
$DIMZIN
 70
     0
  9
$DIMBLK
  1

  9
$DIMASO
 70
     1
  9
$DIMSHO
 70
     1
  9
$DIMPOST
  1

  9
$DIMAPOST
  1

  9
$DIMALT
 70
     0
  9
$DIMALTD
 70
     2
  9
$DIMALTF
 40
25.4
  9
$DIMLFAC
 40
1.0
  9
$DIMTOFL
 70
     0
  9
$DIMTVP
 40
0.0
  9
$DIMTIX
 70
     0
  9
$DIMSOXD
 70
     0
  9
$DIMSAH
 70
     0
  9
$DIMBLK1
  1

  9
$DIMBLK2
  1

  9
$DIMSTYLE
  2
STANDARD
  9
$DIMCLRD
 70
     0
  9
$DIMCLRE
 70
     0
  9
$DIMCLRT
 70
     0
  9
$DIMTFAC
 40
1.0
  9
$DIMGAP
 40
0.09
  9
$DIMJUST
 70
     0
  9
$DIMSD1
 70
     0
  9
$DIMSD2
 70
     0
  9
$DIMTOLJ
 70
     1
  9
$DIMTZIN
 70
     0
  9
$DIMALTZ
 70
     0
  9
$DIMALTTZ
 70
     0
  9
$DIMFIT
 70
     3
  9
$DIMUPT
 70
     0
  9
$DIMUNIT
 70
     2
  9
$DIMDEC
 70
     4
  9
$DIMTDEC
 70
     4
  9
$DIMALTU
 70
     2
  9
$DIMALTTD
 70
     2
  9
$DIMTXSTY
  7
STANDARD
  9
$DIMAUNIT
 70
     0
  9
$LUNITS
 70
     2
  9
$LUPREC
 70
     4
  9
$SKETCHINC
 40
0.1
  9
$FILLETRAD
 40
0.5
  9
$AUNITS
 70
     0
  9
$AUPREC
 70
     0
  9
$MENU
  1
.
  9
$ELEVATION
 40
0.0
  9
$PELEVATION
 40
0.0
  9
$THICKNESS
 40
0.0
  9
$LIMCHECK
 70
     0
  9
$CHAMFERA
 40
0.5
  9
$CHAMFERB
 40
0.5
  9
$CHAMFERC
 40
1.0
  9
$CHAMFERD
 40
0.0
  9
$SKPOLY
 70
     0
  9
$TDCREATE
 40
2459839.428623044
  9
$TDUPDATE
 40
2459839.428623218
  9
$TDINDWG
 40
0.0000000116
  9
$TDUSRTIMER
 40
0.0000000116
  9
$USRTIMER
 70
     1
  9
$ANGBASE
 50
0.0
  9
$ANGDIR
 70
     0
  9
$PDMODE
 70
     0
  9
$PDSIZE
 40
0.0
  9
$PLINEWID
 40
0.0
  9
$COORDS
 70
     1
  9
$SPLFRAME
 70
     0
  9
$SPLINETYPE
 70
     6
  9
$SPLINESEGS
 70
     8
  9
$ATTDIA
 70
     0
  9
$ATTREQ
 70
     1
  9
$HANDLING
 70
     1
  9
$HANDSEED
  5
5A2
  9
$SURFTAB1
 70
     6
  9
$SURFTAB2
 70
     6
  9
$SURFTYPE
 70
     6
  9
$SURFU
 70
     6
  9
$SURFV
 70
     6
  9
$UCSNAME
  2

  9
$UCSORG
 10
0.0
 20
0.0
 30
0.0
  9
$UCSXDIR
 10
1.0
 20
0.0
 30
0.0
  9
$UCSYDIR
 10
0.0
 20
1.0
 30
0.0
  9
$PUCSNAME
  2

  9
$PUCSORG
 10
0.0
 20
0.0
 30
0.0
  9
$PUCSXDIR
 10
1.0
 20
0.0
 30
0.0
  9
$PUCSYDIR
 10
0.0
 20
1.0
 30
0.0
  9
$USERI1
 70
     0
  9
$USERI2
 70
     0
  9
$USERI3
 70
     0
  9
$USERI4
 70
     0
  9
$USERI5
 70
     0
  9
$USERR1
 40
0.0
  9
$USERR2
 40
0.0
  9
$USERR3
 40
0.0
  9
$USERR4
 40
0.0
  9
$USERR5
 40
0.0
  9
$WORLDVIEW
 70
     1
  9
$SHADEDGE
 70
     3
  9
$SHADEDIF
 70
    70
  9
$TILEMODE
 70
     1
  9
$MAXACTVP
 70
    64
  9
$PINSBASE
 10
0.0
 20
0.0
 30
0.0
  9
$PLIMCHECK
 70
     0
  9
$PEXTMIN
 10
1.000000000000000E+20
 20
1.000000000000000E+20
 30
1.000000000000000E+20
  9
$PEXTMAX
 10
-1.000000000000000E+20
 20
-1.000000000000000E+20
 30
-1.000000000000000E+20
  9
$PLIMMIN
 10
0.0
 20
0.0
  9
$PLIMMAX
 10
12.0
 20
9.0
  9
$UNITMODE
 70
     0
  9
$VISRETAIN
 70
     1
  9
$PLINEGEN
 70
     0
  9
$PSLTSCALE
 70
     1
  9
$TREEDEPTH
 70
  3020
  9
$PICKSTYLE
 70
     1
  9
$CMLSTYLE
  2
STANDARD
  9
$CMLJUST
 70
     0
  9
$CMLSCALE
 40
1.0
  9
$PROXYGRAPHICS
 70
     1
  9
$MEASUREMENT
 70
     0
  0
ENDSEC
  0
SECTION
  2
CLASSES
  0
CLASS
  1
ACDBDICTIONARYWDFLT
  2
AcDbDictionaryWithDefault
  3
ObjectDBX Classes
 90
        0
280
     0
281
     0
  0
CLASS
  1
VISUALSTYLE
  2
AcDbVisualStyle
  3
ObjectDBX Classes
 90
     4095
280
     0
281
     0
  0
CLASS
  1
MATERIAL
  2
AcDbMaterial
  3
ObjectDBX Classes
 90
     1153
280
     0
281
     0
  0
CLASS
  1
SUN
  2
AcDbSun
  3
SCENEOE
 90
     1024
280
     0
281
     0
  0
CLASS
  1
DICTIONARYVAR
  2
AcDbDictionaryVar
  3
ObjectDBX Classes
 90
        0
280
     0
281
     0
  0
CLASS
  1
XRECORD
  2
AcDbXrecord
  3
AutoCAD 2000
 90
        0
280
     0
281
     0
  0
CLASS
  1
LWPOLYLINE
  2
AcDbPolyline
  3
AutoCAD 2000
 90
        0
280
     0
281
     1
  0
CLASS
  1
HATCH
  2
AcDbHatch
  3
AutoCAD 2000
 90
        0
280
     0
281
     1
  0
CLASS
  1
ACDBPLACEHOLDER
  2
AcDbPlaceHolder
  3
ObjectDBX Classes
 90
        0
280
     0
281
     0
  0
CLASS
  1
LAYOUT
  2
AcDbLayout
  3
ObjectDBX Classes
 90
        0
280
     0
281
     0
  0
ENDSEC
  0
SECTION
  2
TABLES
  0
TABLE
  2
VPORT
  5
8
330
0
100
AcDbSymbolTable
 70
     1
  0
VPORT
  5
29
330
8
100
AcDbSymbolTableRecord
100
AcDbViewportTableRecord
  2
*ACTIVE
 70
     0
 10
0.0
 20
0.0
 11
1.0
 21
1.0
 12
0.0
 22
0.0
 13
0.0
 23
0.0
 14
0.5
 24
0.5
 15
0.5
 25
0.5
 16
0.0
 26
0.0
 36
1.0
 17
74.99999786197358
 27
39.74999886684608
 37
0.0
 40
39.99999998999989
 41
1.000000000000008
 42
50.0
 43
0.0
 44
0.0
 50
0.0
 51
0.0
 71
     0
 72
   100
 73
     1
 74
     3
 75
     0
 76
     0
 77
     0
 78
     0
  0
ENDTAB
  0
TABLE
  2
LTYPE
  5
5
330
0
100
AcDbSymbolTable
 70
     1
  0
LTYPE
  5
14
330
5
100
AcDbSymbolTableRecord
100
AcDbLinetypeTableRecord
  2
BYBLOCK
 70
     0
  3

 72
    65
 73
     0
 40
0.0
  0
LTYPE
  5
15
330
5
100
AcDbSymbolTableRecord
100
AcDbLinetypeTableRecord
  2
BYLAYER
 70
     0
  3

 72
    65
 73
     0
 40
0.0
  0
LTYPE
  5
16
330
5
100
AcDbSymbolTableRecord
100
AcDbLinetypeTableRecord
  2
CONTINUOUS
 70
     0
  3
Solid line
 72
    65
 73
     0
 40
0.0
  0
ENDTAB
  0
TABLE
  2
LAYER
  5
2
330
0
100
AcDbSymbolTable
 70
     6
  0
LAYER
  5
10
330
2
100
AcDbSymbolTableRecord
100
AcDbLayerTableRecord
  2
0
 70
     0
 62
     7
  6
CONTINUOUS
  0
LAYER
  5
40
330
2
100
AcDbSymbolTableRecord
100
AcDbLayerTableRecord
  2
REFERENCIAS
 70
     0
 62
     7
  6
CONTINUOUS
  0
LAYER
  5
42
330
2
100
AcDbSymbolTableRecord
100
AcDbLayerTableRecord
  2
M_U_00C1RGENES
 70
     4
 62
     7
  6
CONTINUOUS
  0
LAYER
  5
51
330
2
100
AcDbSymbolTableRecord
100
AcDbLayerTableRecord
  2
DIBUJOS
 70
     4
 62
     7
  6
CONTINUOUS
  0
LAYER
  5
55C
330
2
100
AcDbSymbolTableRecord
100
AcDbLayerTableRecord
  2
COTAS_LINEA
 70
     4
 62
     7
  6
CONTINUOUS
  0
LAYER
  5
571
330
2
100
AcDbSymbolTableRecord
100
AcDbLayerTableRecord
  2
COTAS_N_U_00DAMERO
 70
     0
 62
     7
  6
CONTINUOUS
  0
ENDTAB
  0
TABLE
  2
STYLE
  5
3
330
0
100
AcDbSymbolTable
 70
     1
  0
STYLE
  5
11
330
3
100
AcDbSymbolTableRecord
100
AcDbTextStyleTableRecord
  2
STANDARD
 70
     0
 40
0.0
 41
1.0
 50
0.0
 71
     0
 42
0.2
  3
txt
  4

  0
ENDTAB
  0
TABLE
  2
VIEW
  5
6
330
0
100
AcDbSymbolTable
 70
     0
  0
ENDTAB
  0
TABLE
  2
UCS
  5
7
330
0
100
AcDbSymbolTable
 70
     0
  0
ENDTAB
  0
TABLE
  2
APPID
  5
9
330
0
100
AcDbSymbolTable
 70
     1
  0
APPID
  5
12
330
9
100
AcDbSymbolTableRecord
100
AcDbRegAppTableRecord
  2
ACAD
 70
     0
  0
ENDTAB
  0
TABLE
  2
DIMSTYLE
  5
A
330
0
100
AcDbSymbolTable
 70
     1
  0
DIMSTYLE
105
27
330
A
100
AcDbSymbolTableRecord
100
AcDbDimStyleTableRecord
  2
STANDARD
 70
     0
  3

  4

  5

  6

  7

 40
1.0
 41
0.18
 42
0.0625
 43
0.38
 44
0.18
 45
0.0
 46
0.0
 47
0.0
 48
0.0
140
0.18
141
0.09
142
0.0
143
25.4
144
1.0
145
0.0
146
1.0
147
0.09
 71
     0
 72
     0
 73
     1
 74
     1
 75
     0
 76
     0
 77
     0
 78
     0
170
     0
171
     2
172
     0
173
     0
174
     0
175
     0
176
     0
177
     0
178
     0
270
     2
271
     4
272
     4
273
     2
274
     2
340
11
275
     0
280
     0
281
     0
282
     0
283
     1
284
     0
285
     0
286
     0
287
     3
288
     0
  0
ENDTAB
  0
TABLE
  2
BLOCK_RECORD
  5
1
330
0
100
AcDbSymbolTable
 70
     4
  0
BLOCK_RECORD
  5
1F
330
1
100
AcDbSymbolTableRecord
100
AcDbBlockTableRecord
  2
*MODEL_SPACE
  0
BLOCK_RECORD
  5
1B
330
1
100
AcDbSymbolTableRecord
100
AcDbBlockTableRecord
  2
*PAPER_SPACE
  0
BLOCK_RECORD
  5
52
330
1
100
AcDbSymbolTableRecord
100
AcDbBlockTableRecord
  2
BLOCK_2
  0
BLOCK_RECORD
  5
19E
330
1
100
AcDbSymbolTableRecord
100
AcDbBlockTableRecord
  2
BLOCK_3
  0
BLOCK_RECORD
  5
33D
330
1
100
AcDbSymbolTableRecord
100
AcDbBlockTableRecord
  2
BLOCK_4
  0
ENDTAB
  0
ENDSEC
  0
SECTION
  2
BLOCKS
  0
BLOCK
  5
20
330
1F
100
AcDbEntity
  8
0
100
AcDbBlockBegin
  2
*MODEL_SPACE
 70
     0
 10
0.0
 20
0.0
 30
0.0
  3
*MODEL_SPACE
  1

  0
ENDBLK
  5
21
330
1F
100
AcDbEntity
  8
0
100
AcDbBlockEnd
  0
BLOCK
  5
1C
330
1B
100
AcDbEntity
 67
     1
  8
0
100
AcDbBlockBegin
  2
*PAPER_SPACE
 70
     0
 10
0.0
 20
0.0
 30
0.0
  3
*PAPER_SPACE
  1

  0
ENDBLK
  5
1D
330
1B
100
AcDbEntity
 67
     1
  8
0
100
AcDbBlockEnd
  0
BLOCK
  5
54
330
52
100
AcDbEntity
  8
0
100
AcDbBlockBegin
  2
BLOCK_2
 70
     0
 10
0.0
 20
0.0
 30
0.0
  3
BLOCK_2
  1

  0
POLYLINE
  5
56
330
52
100
AcDbEntity
  8
DIBUJOS
 62
     7
100
AcDb2dPolyline
 66
     1
 10
0.0
 20
0.0
 30
0.0
  0
VERTEX
  5
57
330
56
100
AcDbEntity
  8
DIBUJOS
 62
     7
100
AcDbVertex
100
AcDb2dVertex
 10
85.21918095314155
 20
45.99691571650568
 30
0.0
  0
VERTEX
  5
58
330
56
100
AcDbEntity
  8
DIBUJOS
 62
     7
100
AcDbVertex
100
AcDb2dVertex
 10
85.21918095314155
 20
46.00248434084553
 30
0.0
  0
SEQEND
  5
59
330
56
100
AcDbEntity
  8
DIBUJOS
 62
     7
  0
POLYLINE
  5
5A
330
52
100
AcDbEntity
  8
DIBUJOS
 62
     7
100
AcDb2dPolyline
 66
     1
 10
0.0
 20
0.0
 30
0.0
  0
VERTEX
  5
5B
330
5A
100
AcDbEntity
  8
DIBUJOS
 62
     7
100
AcDbVertex
100
AcDb2dVertex
 10
85.2247602167106
 20
45.99691571650568
 30
0.0
  0
VERTEX
  5
5C
330
5A
100
AcDbEntity
  8
DIBUJOS
 62
     7
100
AcDbVertex
100
AcDb2dVertex
 10
85.21918095314155
 20
45.99691571650568
 30
0.0
  0
SEQEND
  5
5D
330
5A
100
AcDbEntity
  8
DIBUJOS
 62
     7
  0
POLYLINE
  5
5E
330
52
100
AcDbEntity
  8
DIBUJOS
 62
     7
100
AcDb2dPolyline
 66
     1
 10
0.0
 20
0.0
 30
0.0
  0
VERTEX
  5
5F
330
5E
100
AcDbEntity
  8
DIBUJOS
 62
     7
100
AcDbVertex
100
AcDb2dVertex
 10
85.21918095314155
 20
45.99134409344461
 30
0.0
  0
VERTEX
  5
60
330
5E
100
AcDbEntity
  8
DIBUJOS
 62
     7
100
AcDbVertex
100
AcDb2dVertex
 10
85.21918095314155
 20
45.99691571650568
 30
0.0
  0
SEQEND
  5
61
330
5E
100
AcDbEntity
  8
DIBUJOS
 62
     7
  0
POLYLINE
  5
62
330
52
100
AcDbEntity
  8
DIBUJOS
 62
     7
100
AcDb2dPolyline
 66
     1
 10
0.0
 20
0.0
 30
0.0
  0
VERTEX
  5
63
330
62
100
AcDbEntity
  8
DIBUJOS
 62
     7
100
AcDbVertex
100
AcDb2dVertex
 10
84.63902762690014
 20
45.03874348733383
 30
0.0
  0
VERTEX
  5
64
330
62
100
AcDbEntity
  8
DIBUJOS
 62
     7
100
AcDbVertex
100
AcDb2dVertex
 10
84.74362530608038
 20
45.15148039205751
 30
0.0
  0
VERTEX
  5
65
330
62
100
AcDbEntity
  8
DIBUJOS
 62
     7
100
AcDbVertex
100
AcDb2dVertex
 10
84.96128865328113
 20
45.46855012529307
 30
0.0
  0
VERTEX
  5
66
330
62
100
AcDbEntity
  8
DIBUJOS
 62
     7
100
AcDbVertex
100
AcDb2dVertex
 10
84.97797239299742
 20
45.4909775574097
 30
0.0
  0
VERTEX
  5
67
330
62
100
AcDbEntity
  8
DIBUJOS
 62
     7
100
AcDbVertex
100
AcDb2dVertex
 10
85.09534112059546
 20
45.71893430759739
 30
0.0
  0
VERTEX
  5
68
330
62
100
AcDbEntity
  8
DIBUJOS
 62
     7
100
AcDbVertex
100
AcDb2dVertex
 10
85.13104180120777
 20
45.78466926406635
 30
0.0
  0
VERTEX
  5
69
330
62
100
AcDbEntity
  8
DIBUJOS
 62
     7
100
AcDbVertex
100
AcDb2dVertex
 10
85.18932078256293
 20
45.90827353260761
 30
0.0
  0
VERTEX
  5
6A
330
62
100
AcDbEntity
  8
DIBUJOS
 62
     7
100
AcDbVertex
100
AcDb2dVertex
 10
85.21918095314155
 20
45.99134409344461
 30
0.0
  0
SEQEND
  5
6B
330
62
100
AcDbEntity
  8
DIBUJOS
 62
     7
  0
POLYLINE
  5
6C
330
52
100
AcDbEntity
  8
DIBUJOS
 62
     7
100
AcDb2dPolyline
 66
     1
 10
0.0
 20
0.0
 30
0.0
  0
VERTEX
  5
6D
330
6C
100
AcDbEntity
  8
DIBUJOS
 62
     7
100
AcDbVertex
100
AcDb2dVertex
 10
84.63902762690014
 20
45.03317186427277
 30
0.0
  0
VERTEX
  5
6E
330
6C
100
AcDbEntity
  8
DIBUJOS
 62
     7
100
AcDbVertex
100
AcDb2dVertex
 10
84.63344836333043
 20
45.03317186427277
 30
0.0
  0
SEQEND
  5
6F
330
6C
100
AcDbEntity
  8
DIBUJOS
 62
     7
  0
POLYLINE
  5
70
330
52
100
AcDbEntity
  8
DIBUJOS
 62
     7
100
AcDb2dPolyline
 66
     1
 10
0.0
 20
0.0
 30
0.0
  0
VERTEX
  5
71
330
70
100
AcDbEntity
  8
DIBUJOS
 62
     7
100
AcDbVertex
100
AcDb2dVertex
 10
84.63902762690014
 20
45.03317186427277
 30
0.0
  0
VERTEX
  5
72
330
70
100
AcDbEntity
  8
DIBUJOS
 62
     7
100
AcDbVertex
100
AcDb2dVertex
 10
84.63902762690014
 20
45.03874348733383
 30
0.0
  0
SEQEND
  5
73
330
70
100
AcDbEntity
  8
DIBUJOS
 62
     7
  0
POLYLINE
  5
74
330
52
100
AcDbEntity
  8
DIBUJOS
 62
     7
100
AcDb2dPolyline
 66
     1
 10
0.0
 20
0.0
 30
0.0
  0
VERTEX
  5
75
330
74
100
AcDbEntity
  8
DIBUJOS
 62
     7
100
AcDbVertex
100
AcDb2dVertex
 10
84.6446068904692
 20
45.03317186427277
 30
0.0
  0
VERTEX
  5
76
330
74
100
AcDbEntity
  8
DIBUJOS
 62
     7
100
AcDbVertex
100
AcDb2dVertex
 10
84.63902762690014
 20
45.03317186427277
 30
0.0
  0
SEQEND
  5
77
330
74
100
AcDbEntity
  8
DIBUJOS
 62
     7
  0
POLYLINE
  5
78
330
52
100
AcDbEntity
  8
DIBUJOS
 62
     7
100
AcDb2dPolyline
 66
     1
 10
0.0
 20
0.0
 30
0.0
  0
VERTEX
  5
79
330
78
100
AcDbEntity
  8
DIBUJOS
 62
     7
100
AcDbVertex
100
AcDb2dVertex
 10
86.34601802987251
 20
45.0276032399326
 30
0.0
  0
VERTEX
  5
7A
330
78
100
AcDbEntity
  8
DIBUJOS
 62
     7
100
AcDbVertex
100
AcDb2dVertex
 10
84.6446068904692
 20
45.03317186427277
 30
0.0
  0
SEQEND
  5
7B
330
78
100
AcDbEntity
  8
DIBUJOS
 62
     7
  0
POLYLINE
  5
7C
330
52
100
AcDbEntity
  8
DIBUJOS
 62
     7
100
AcDb2dPolyline
 66
     1
 10
0.0
 20
0.0
 30
0.0
  0
VERTEX
  5
7D
330
7C
100
AcDbEntity
  8
DIBUJOS
 62
     7
100
AcDbVertex
100
AcDb2dVertex
 10
86.34601802987251
 20
45.0276032399326
 30
0.0
  0
VERTEX
  5
7E
330
7C
100
AcDbEntity
  8
DIBUJOS
 62
     7
100
AcDbVertex
100
AcDb2dVertex
 10
86.35809542388604
 20
45.03461424892949
 30
0.0
  0
VERTEX
  5
7F
330
7C
100
AcDbEntity
  8
DIBUJOS
 62
     7
100
AcDbVertex
100
AcDb2dVertex
 10
86.43527423565311
 20
45.05545535779613
 30
0.0
  0
VERTEX
  5
80
330
7C
100
AcDbEntity
  8
DIBUJOS
 62
     7
100
AcDbVertex
100
AcDb2dVertex
 10
86.4575882870981
 20
45.07773885131918
 30
0.0
  0
VERTEX
  5
81
330
7C
100
AcDbEntity
  8
DIBUJOS
 62
     7
100
AcDbVertex
100
AcDb2dVertex
 10
86.4611976922707
 20
45.08937088891551
 30
0.0
  0
VERTEX
  5
82
330
7C
100
AcDbEntity
  8
DIBUJOS
 62
     7
100
AcDbVertex
100
AcDb2dVertex
 10
86.47114607774175
 20
45.14985808415873
 30
0.0
  0
VERTEX
  5
83
330
7C
100
AcDbEntity
  8
DIBUJOS
 62
     7
100
AcDbVertex
100
AcDb2dVertex
 10
86.4799023385431
 20
45.45098062071041
 30
0.0
  0
VERTEX
  5
84
330
7C
100
AcDbEntity
  8
DIBUJOS
 62
     7
100
AcDbVertex
100
AcDb2dVertex
 10
86.47162352817716
 20
45.62916160599531
 30
0.0
  0
VERTEX
  5
85
330
7C
100
AcDbEntity
  8
DIBUJOS
 62
     7
100
AcDbVertex
100
AcDb2dVertex
 10
86.45870233811237
 20
45.70779106147526
 30
0.0
  0
VERTEX
  5
86
330
7C
100
AcDbEntity
  8
DIBUJOS
 62
     7
100
AcDbVertex
100
AcDb2dVertex
 10
86.45200902352903
 20
45.72394816860788
 30
0.0
  0
VERTEX
  5
87
330
7C
100
AcDbEntity
  8
DIBUJOS
 62
     7
100
AcDbVertex
100
AcDb2dVertex
 10
86.40738092063842
 20
45.76851515565431
 30
0.0
  0
VERTEX
  5
88
330
7C
100
AcDbEntity
  8
DIBUJOS
 62
     7
100
AcDbVertex
100
AcDb2dVertex
 10
86.32314845433667
 20
45.81140885654997
 30
0.0
  0
VERTEX
  5
89
330
7C
100
AcDbEntity
  8
DIBUJOS
 62
     7
100
AcDbVertex
100
AcDb2dVertex
 10
86.30194845390595
 20
45.81976329242083
 30
0.0
  0
VERTEX
  5
8A
330
7C
100
AcDbEntity
  8
DIBUJOS
 62
     7
100
AcDbVertex
100
AcDb2dVertex
 10
86.18375394725405
 20
45.86682221636867
 30
0.0
  0
VERTEX
  5
8B
330
7C
100
AcDbEntity
  8
DIBUJOS
 62
     7
100
AcDbVertex
100
AcDb2dVertex
 10
86.03411977990609
 20
45.90974890319223
 30
0.0
  0
VERTEX
  5
8C
330
7C
100
AcDbEntity
  8
DIBUJOS
 62
     7
100
AcDbVertex
100
AcDb2dVertex
 10
85.70425558056604
 20
45.9554374117803
 30
0.0
  0
VERTEX
  5
8D
330
7C
100
AcDbEntity
  8
DIBUJOS
 62
     7
100
AcDbVertex
100
AcDb2dVertex
 10
85.2247602167106
 20
45.99691571650568
 30
0.0
  0
SEQEND
  5
8E
330
7C
100
AcDbEntity
  8
DIBUJOS
 62
     7
  0
POLYLINE
  5
8F
330
52
100
AcDbEntity
  8
DIBUJOS
 62
     7
100
AcDb2dPolyline
 66
     1
 10
0.0
 20
0.0
 30
0.0
  0
VERTEX
  5
90
330
8F
100
AcDbEntity
  8
DIBUJOS
 62
     7
100
AcDbVertex
100
AcDb2dVertex
 10
81.54859305982698
 20
44.60422286043388
 30
0.0
  0
VERTEX
  5
91
330
8F
100
AcDbEntity
  8
DIBUJOS
 62
     7
100
AcDbVertex
100
AcDb2dVertex
 10
81.54301379625727
 20
44.60422286043388
 30
0.0
  0
SEQEND
  5
92
330
8F
100
AcDbEntity
  8
DIBUJOS
 62
     7
  0
POLYLINE
  5
93
330
52
100
AcDbEntity
  8
DIBUJOS
 62
     7
100
AcDb2dPolyline
 66
     1
 10
0.0
 20
0.0
 30
0.0
  0
VERTEX
  5
94
330
93
100
AcDbEntity
  8
DIBUJOS
 62
     7
100
AcDbVertex
100
AcDb2dVertex
 10
81.55417232339606
 20
44.60422286043388
 30
0.0
  0
VERTEX
  5
95
330
93
100
AcDbEntity
  8
DIBUJOS
 62
     7
100
AcDbVertex
100
AcDb2dVertex
 10
81.54859305982698
 20
44.60422286043388
 30
0.0
  0
SEQEND
  5
96
330
93
100
AcDbEntity
  8
DIBUJOS
 62
     7
  0
POLYLINE
  5
97
330
52
100
AcDbEntity
  8
DIBUJOS
 62
     7
100
AcDb2dPolyline
 66
     1
 10
0.0
 20
0.0
 30
0.0
  0
VERTEX
  5
98
330
97
100
AcDbEntity
  8
DIBUJOS
 62
     7
100
AcDbVertex
100
AcDb2dVertex
 10
81.55417232339606
 20
44.60422286043388
 30
0.0
  0
VERTEX
  5
99
330
97
100
AcDbEntity
  8
DIBUJOS
 62
     7
100
AcDbVertex
100
AcDb2dVertex
 10
83.98634987992082
 20
44.60700267452311
 30
0.0
  0
VERTEX
  5
9A
330
97
100
AcDbEntity
  8
DIBUJOS
 62
     7
100
AcDbVertex
100
AcDb2dVertex
 10
84.15314824025242
 20
44.6616033810323
 30
0.0
  0
VERTEX
  5
9B
330
97
100
AcDbEntity
  8
DIBUJOS
 62
     7
100
AcDbVertex
100
AcDb2dVertex
 10
84.15984455766898
 20
44.66383143051242
 30
0.0
  0
VERTEX
  5
9C
330
97
100
AcDbEntity
  8
DIBUJOS
 62
     7
100
AcDbVertex
100
AcDb2dVertex
 10
84.2884468832293
 20
44.74777761779385
 30
0.0
  0
VERTEX
  5
9D
330
97
100
AcDbEntity
  8
DIBUJOS
 62
     7
100
AcDbVertex
100
AcDb2dVertex
 10
84.3219164589805
 20
44.7700611113169
 30
0.0
  0
VERTEX
  5
9E
330
97
100
AcDbEntity
  8
DIBUJOS
 62
     7
100
AcDbVertex
100
AcDb2dVertex
 10
84.43130665950461
 20
44.84515807381213
 30
0.0
  0
VERTEX
  5
9F
330
97
100
AcDbEntity
  8
DIBUJOS
 62
     7
100
AcDbVertex
100
AcDb2dVertex
 10
84.63344836333043
 20
45.03317186427277
 30
0.0
  0
SEQEND
  5
A0
330
97
100
AcDbEntity
  8
DIBUJOS
 62
     7
  0
POLYLINE
  5
A1
330
52
100
AcDbEntity
  8
DIBUJOS
 62
     7
100
AcDb2dPolyline
 66
     1
 10
0.0
 20
0.0
 30
0.0
  0
VERTEX
  5
A2
330
A1
100
AcDbEntity
  8
DIBUJOS
 62
     7
100
AcDbVertex
100
AcDb2dVertex
 10
81.10790030299266
 20
44.59865423609371
 30
0.0
  0
VERTEX
  5
A3
330
A1
100
AcDbEntity
  8
DIBUJOS
 62
     7
100
AcDbVertex
100
AcDb2dVertex
 10
80.85693253585121
 20
44.60694569882966
 30
0.0
  0
VERTEX
  5
A4
330
A1
100
AcDbEntity
  8
DIBUJOS
 62
     7
100
AcDbVertex
100
AcDb2dVertex
 10
80.82953769110192
 20
44.61647863193563
 30
0.0
  0
VERTEX
  5
A5
330
A1
100
AcDbEntity
  8
DIBUJOS
 62
     7
100
AcDbVertex
100
AcDb2dVertex
 10
80.812802903226
 20
44.62260801704694
 30
0.0
  0
VERTEX
  5
A6
330
A1
100
AcDbEntity
  8
DIBUJOS
 62
     7
100
AcDbVertex
100
AcDb2dVertex
 10
80.77877179771815
 20
44.63764960007907
 30
0.0
  0
VERTEX
  5
A7
330
A1
100
AcDbEntity
  8
DIBUJOS
 62
     7
100
AcDbVertex
100
AcDb2dVertex
 10
80.74659043729076
 20
44.69978309298692
 30
0.0
  0
VERTEX
  5
A8
330
A1
100
AcDbEntity
  8
DIBUJOS
 62
     7
100
AcDbVertex
100
AcDb2dVertex
 10
80.54644862019109
 20
45.4960363992307
 30
0.0
  0
VERTEX
  5
A9
330
A1
100
AcDbEntity
  8
DIBUJOS
 62
     7
100
AcDbVertex
100
AcDb2dVertex
 10
80.48114901546415
 20
45.7568801193374
 30
0.0
  0
VERTEX
  5
AA
330
A1
100
AcDbEntity
  8
DIBUJOS
 62
     7
100
AcDbVertex
100
AcDb2dVertex
 10
80.04045625863047
 20
47.31112305569079
 30
0.0
  0
VERTEX
  5
AB
330
A1
100
AcDbEntity
  8
DIBUJOS
 62
     7
100
AcDbVertex
100
AcDb2dVertex
 10
79.7116250338154
 20
48.43635101635012
 30
0.0
  0
VERTEX
  5
AC
330
A1
100
AcDbEntity
  8
DIBUJOS
 62
     7
100
AcDbVertex
100
AcDb2dVertex
 10
79.46226978795298
 20
49.30595003219995
 30
0.0
  0
VERTEX
  5
AD
330
A1
100
AcDbEntity
  8
DIBUJOS
 62
     7
100
AcDbVertex
100
AcDb2dVertex
 10
79.46784905152269
 20
49.36165726664761
 30
0.0
  0
VERTEX
  5
AE
330
A1
100
AcDbEntity
  8
DIBUJOS
 62
     7
100
AcDbVertex
100
AcDb2dVertex
 10
79.4790045758289
 20
49.37279751404885
 30
0.0
  0
VERTEX
  5
AF
330
A1
100
AcDbEntity
  8
DIBUJOS
 62
     7
100
AcDbVertex
100
AcDb2dVertex
 10
79.54066774988682
 20
49.39825065535193
 30
0.0
  0
VERTEX
  5
B0
330
A1
100
AcDbEntity
  8
DIBUJOS
 62
     7
100
AcDbVertex
100
AcDb2dVertex
 10
79.62935041457918
 20
49.40866821106468
 30
0.0
  0
VERTEX
  5
B1
330
A1
100
AcDbEntity
  8
DIBUJOS
 62
     7
100
AcDbVertex
100
AcDb2dVertex
 10
79.7635049782128
 20
49.41179287803388
 30
0.0
  0
VERTEX
  5
B2
330
A1
100
AcDbEntity
  8
DIBUJOS
 62
     7
100
AcDbVertex
100
AcDb2dVertex
 10
79.90798328143295
 20
49.36555560355792
 30
0.0
  0
VERTEX
  5
B3
330
A1
100
AcDbEntity
  8
DIBUJOS
 62
     7
100
AcDbVertex
100
AcDb2dVertex
 10
80.07533716585537
 20
49.28255101457608
 30
0.0
  0
VERTEX
  5
B4
330
A1
100
AcDbEntity
  8
DIBUJOS
 62
     7
100
AcDbVertex
100
AcDb2dVertex
 10
80.33893785109991
 20
49.11782828779388
 30
0.0
  0
VERTEX
  5
B5
330
A1
100
AcDbEntity
  8
DIBUJOS
 62
     7
100
AcDbVertex
100
AcDb2dVertex
 10
80.48311887386127
 20
48.982843874195
 30
0.0
  0
VERTEX
  5
B6
330
A1
100
AcDbEntity
  8
DIBUJOS
 62
     7
100
AcDbVertex
100
AcDb2dVertex
 10
80.64910947213643
 20
48.78678151737505
 30
0.0
  0
VERTEX
  5
B7
330
A1
100
AcDbEntity
  8
DIBUJOS
 62
     7
100
AcDbVertex
100
AcDb2dVertex
 10
81.46628841226111
 20
47.76955848017492
 30
0.0
  0
VERTEX
  5
B8
330
A1
100
AcDbEntity
  8
DIBUJOS
 62
     7
100
AcDbVertex
100
AcDb2dVertex
 10
81.49143713798512
 20
47.73942133713781
 30
0.0
  0
VERTEX
  5
B9
330
A1
100
AcDbEntity
  8
DIBUJOS
 62
     7
100
AcDbVertex
100
AcDb2dVertex
 10
81.60995595059289
 20
47.59572264118459
 30
0.0
  0
VERTEX
  5
BA
330
A1
100
AcDbEntity
  8
DIBUJOS
 62
     7
100
AcDbVertex
100
AcDb2dVertex
 10
81.6713188413588
 20
47.53444678239676
 30
0.0
  0
VERTEX
  5
BB
330
A1
100
AcDbEntity
  8
DIBUJOS
 62
     7
100
AcDbVertex
100
AcDb2dVertex
 10
81.86154230131578
 20
47.37957785183496
 30
0.0
  0
VERTEX
  5
BC
330
A1
100
AcDbEntity
  8
DIBUJOS
 62
     7
100
AcDbVertex
100
AcDb2dVertex
 10
81.9608369775551
 20
47.32721419096825
 30
0.0
  0
VERTEX
  5
BD
330
A1
100
AcDbEntity
  8
DIBUJOS
 62
     7
100
AcDbVertex
100
AcDb2dVertex
 10
82.20111165666094
 20
47.30900296015577
 30
0.0
  0
VERTEX
  5
BE
330
A1
100
AcDbEntity
  8
DIBUJOS
 62
     7
100
AcDbVertex
100
AcDb2dVertex
 10
83.76314630597838
 20
47.26434001404718
 30
0.0
  0
VERTEX
  5
BF
330
A1
100
AcDbEntity
  8
DIBUJOS
 62
     7
100
AcDbVertex
100
AcDb2dVertex
 10
84.44405668809245
 20
47.23607107400608
 30
0.0
  0
VERTEX
  5
C0
330
A1
100
AcDbEntity
  8
DIBUJOS
 62
     7
100
AcDbVertex
100
AcDb2dVertex
 10
84.70634513535062
 20
47.20245841367801
 30
0.0
  0
VERTEX
  5
C1
330
A1
100
AcDbEntity
  8
DIBUJOS
 62
     7
100
AcDbVertex
100
AcDb2dVertex
 10
84.85714440187247
 20
47.15730367737433
 30
0.0
  0
VERTEX
  5
C2
330
A1
100
AcDbEntity
  8
DIBUJOS
 62
     7
100
AcDbVertex
100
AcDb2dVertex
 10
84.95755613195865
 20
47.12387993645004
 30
0.0
  0
VERTEX
  5
C3
330
A1
100
AcDbEntity
  8
DIBUJOS
 62
     7
100
AcDbVertex
100
AcDb2dVertex
 10
85.080726332763
 20
47.03998472742027
 30
0.0
  0
VERTEX
  5
C4
330
A1
100
AcDbEntity
  8
DIBUJOS
 62
     7
100
AcDbVertex
100
AcDb2dVertex
 10
85.14108327449972
 20
46.99965193400273
 30
0.0
  0
VERTEX
  5
C5
330
A1
100
AcDbEntity
  8
DIBUJOS
 62
     7
100
AcDbVertex
100
AcDb2dVertex
 10
85.2539387442159
 20
46.8222446186583
 30
0.0
  0
VERTEX
  5
C6
330
A1
100
AcDbEntity
  8
DIBUJOS
 62
     7
100
AcDbVertex
100
AcDb2dVertex
 10
85.27282055763106
 20
46.75968230869026
 30
0.0
  0
VERTEX
  5
C7
330
A1
100
AcDbEntity
  8
DIBUJOS
 62
     7
100
AcDbVertex
100
AcDb2dVertex
 10
85.27711160587698
 20
46.73825644928756
 30
0.0
  0
VERTEX
  5
C8
330
A1
100
AcDbEntity
  8
DIBUJOS
 62
     7
100
AcDbVertex
100
AcDb2dVertex
 10
85.31959268322771
 20
46.52613894183832
 30
0.0
  0
VERTEX
  5
C9
330
A1
100
AcDbEntity
  8
DIBUJOS
 62
     7
100
AcDbVertex
100
AcDb2dVertex
 10
85.28925205938175
 20
46.22558916094039
 30
0.0
  0
VERTEX
  5
CA
330
A1
100
AcDbEntity
  8
DIBUJOS
 62
     7
100
AcDbVertex
100
AcDb2dVertex
 10
85.24540169021856
 20
46.08103283086681
 30
0.0
  0
VERTEX
  5
CB
330
A1
100
AcDbEntity
  8
DIBUJOS
 62
     7
100
AcDbVertex
100
AcDb2dVertex
 10
85.21918095314155
 20
46.00248434084553
 30
0.0
  0
SEQEND
  5
CC
330
A1
100
AcDbEntity
  8
DIBUJOS
 62
     7
  0
POLYLINE
  5
CD
330
52
100
AcDbEntity
  8
DIBUJOS
 62
     7
100
AcDb2dPolyline
 66
     1
 10
0.0
 20
0.0
 30
0.0
  0
VERTEX
  5
CE
330
CD
100
AcDbEntity
  8
DIBUJOS
 62
     7
100
AcDbVertex
100
AcDb2dVertex
 10
81.11347656372917
 20
44.59865423609371
 30
0.0
  0
VERTEX
  5
CF
330
CD
100
AcDbEntity
  8
DIBUJOS
 62
     7
100
AcDbVertex
100
AcDb2dVertex
 10
81.10790030299266
 20
44.59865423609371
 30
0.0
  0
SEQEND
  5
D0
330
CD
100
AcDbEntity
  8
DIBUJOS
 62
     7
  0
POLYLINE
  5
D1
330
52
100
AcDbEntity
  8
DIBUJOS
 62
     7
100
AcDb2dPolyline
 66
     1
 10
0.0
 20
0.0
 30
0.0
  0
VERTEX
  5
D2
330
D1
100
AcDbEntity
  8
DIBUJOS
 62
     7
100
AcDbVertex
100
AcDb2dVertex
 10
81.11905582729887
 20
44.59865423609371
 30
0.0
  0
VERTEX
  5
D3
330
D1
100
AcDbEntity
  8
DIBUJOS
 62
     7
100
AcDbVertex
100
AcDb2dVertex
 10
81.11347656372917
 20
44.59865423609371
 30
0.0
  0
SEQEND
  5
D4
330
D1
100
AcDbEntity
  8
DIBUJOS
 62
     7
  0
POLYLINE
  5
D5
330
52
100
AcDbEntity
  8
DIBUJOS
 62
     7
100
AcDb2dPolyline
 66
     1
 10
0.0
 20
0.0
 30
0.0
  0
VERTEX
  5
D6
330
D5
100
AcDbEntity
  8
DIBUJOS
 62
     7
100
AcDbVertex
100
AcDb2dVertex
 10
81.52627900838199
 20
44.59865423609371
 30
0.0
  0
VERTEX
  5
D7
330
D5
100
AcDbEntity
  8
DIBUJOS
 62
     7
100
AcDbVertex
100
AcDb2dVertex
 10
81.49838569336728
 20
44.60422286043388
 30
0.0
  0
VERTEX
  5
D8
330
D5
100
AcDbEntity
  8
DIBUJOS
 62
     7
100
AcDbVertex
100
AcDb2dVertex
 10
81.21374415783545
 20
44.60127511798553
 30
0.0
  0
VERTEX
  5
D9
330
D5
100
AcDbEntity
  8
DIBUJOS
 62
     7
100
AcDbVertex
100
AcDb2dVertex
 10
81.11905582729887
 20
44.59865423609371
 30
0.0
  0
SEQEND
  5
DA
330
D5
100
AcDbEntity
  8
DIBUJOS
 62
     7
  0
POLYLINE
  5
DB
330
52
100
AcDbEntity
  8
DIBUJOS
 62
     7
100
AcDb2dPolyline
 66
     1
 10
0.0
 20
0.0
 30
0.0
  0
VERTEX
  5
DC
330
DB
100
AcDbEntity
  8
DIBUJOS
 62
     7
100
AcDbVertex
100
AcDb2dVertex
 10
81.53185827195107
 20
44.59865423609371
 30
0.0
  0
VERTEX
  5
DD
330
DB
100
AcDbEntity
  8
DIBUJOS
 62
     7
100
AcDbVertex
100
AcDb2dVertex
 10
81.52627900838199
 20
44.59865423609371
 30
0.0
  0
SEQEND
  5
DE
330
DB
100
AcDbEntity
  8
DIBUJOS
 62
     7
  0
POLYLINE
  5
DF
330
52
100
AcDbEntity
  8
DIBUJOS
 62
     7
100
AcDb2dPolyline
 66
     1
 10
0.0
 20
0.0
 30
0.0
  0
VERTEX
  5
E0
330
DF
100
AcDbEntity
  8
DIBUJOS
 62
     7
100
AcDbVertex
100
AcDb2dVertex
 10
81.53185827195107
 20
44.59865423609371
 30
0.0
  0
VERTEX
  5
E1
330
DF
100
AcDbEntity
  8
DIBUJOS
 62
     7
100
AcDbVertex
100
AcDb2dVertex
 10
81.54301379625727
 20
44.60422286043388
 30
0.0
  0
SEQEND
  5
E2
330
DF
100
AcDbEntity
  8
DIBUJOS
 62
     7
  0
POLYLINE
  5
E3
330
52
100
AcDbEntity
  8
DIBUJOS
 62
     7
100
AcDb2dPolyline
 66
     1
 10
0.0
 20
0.0
 30
0.0
  0
VERTEX
  5
E4
330
E3
100
AcDbEntity
  8
DIBUJOS
 62
     7
100
AcDbVertex
100
AcDb2dVertex
 10
81.54859305982698
 20
44.59865423609371
 30
0.0
  0
VERTEX
  5
E5
330
E3
100
AcDbEntity
  8
DIBUJOS
 62
     7
100
AcDbVertex
100
AcDb2dVertex
 10
81.54859305982698
 20
44.60422286043388
 30
0.0
  0
SEQEND
  5
E6
330
E3
100
AcDbEntity
  8
DIBUJOS
 62
     7
  0
POLYLINE
  5
E7
330
52
100
AcDbEntity
  8
DIBUJOS
 62
     7
100
AcDb2dPolyline
 66
     1
 10
0.0
 20
0.0
 30
0.0
  0
VERTEX
  5
E8
330
E7
100
AcDbEntity
  8
DIBUJOS
 62
     7
100
AcDbVertex
100
AcDb2dVertex
 10
81.11347656372917
 20
44.59308261303264
 30
0.0
  0
VERTEX
  5
E9
330
E7
100
AcDbEntity
  8
DIBUJOS
 62
     7
100
AcDbVertex
100
AcDb2dVertex
 10
81.11347656372917
 20
44.59865423609371
 30
0.0
  0
SEQEND
  5
EA
330
E7
100
AcDbEntity
  8
DIBUJOS
 62
     7
  0
POLYLINE
  5
EB
330
52
100
AcDbEntity
  8
DIBUJOS
 62
     7
100
AcDb2dPolyline
 66
     1
 10
0.0
 20
0.0
 30
0.0
  0
VERTEX
  5
EC
330
EB
100
AcDbEntity
  8
DIBUJOS
 62
     7
100
AcDbVertex
100
AcDb2dVertex
 10
81.53185827195107
 20
44.59308261303264
 30
0.0
  0
VERTEX
  5
ED
330
EB
100
AcDbEntity
  8
DIBUJOS
 62
     7
100
AcDbVertex
100
AcDb2dVertex
 10
81.53185827195107
 20
44.59865423609371
 30
0.0
  0
SEQEND
  5
EE
330
EB
100
AcDbEntity
  8
DIBUJOS
 62
     7
  0
POLYLINE
  5
EF
330
52
100
AcDbEntity
  8
DIBUJOS
 62
     7
100
AcDb2dPolyline
 66
     1
 10
0.0
 20
0.0
 30
0.0
  0
VERTEX
  5
F0
330
EF
100
AcDbEntity
  8
DIBUJOS
 62
     7
100
AcDbVertex
100
AcDb2dVertex
 10
81.54301379625727
 20
44.59308261303264
 30
0.0
  0
VERTEX
  5
F1
330
EF
100
AcDbEntity
  8
DIBUJOS
 62
     7
100
AcDbVertex
100
AcDb2dVertex
 10
81.54859305982698
 20
44.59865423609371
 30
0.0
  0
SEQEND
  5
F2
330
EF
100
AcDbEntity
  8
DIBUJOS
 62
     7
  0
POLYLINE
  5
F3
330
52
100
AcDbEntity
  8
DIBUJOS
 62
     7
100
AcDb2dPolyline
 66
     1
 10
0.0
 20
0.0
 30
0.0
  0
VERTEX
  5
F4
330
F3
100
AcDbEntity
  8
DIBUJOS
 62
     7
100
AcDbVertex
100
AcDb2dVertex
 10
81.53743453268756
 20
44.58751098997158
 30
0.0
  0
VERTEX
  5
F5
330
F3
100
AcDbEntity
  8
DIBUJOS
 62
     7
100
AcDbVertex
100
AcDb2dVertex
 10
81.53185827195107
 20
44.59308261303264
 30
0.0
  0
SEQEND
  5
F6
330
F3
100
AcDbEntity
  8
DIBUJOS
 62
     7
  0
POLYLINE
  5
F7
330
52
100
AcDbEntity
  8
DIBUJOS
 62
     7
100
AcDb2dPolyline
 66
     1
 10
0.0
 20
0.0
 30
0.0
  0
VERTEX
  5
F8
330
F7
100
AcDbEntity
  8
DIBUJOS
 62
     7
100
AcDbVertex
100
AcDb2dVertex
 10
81.54301379625727
 20
44.58751098997158
 30
0.0
  0
VERTEX
  5
F9
330
F7
100
AcDbEntity
  8
DIBUJOS
 62
     7
100
AcDbVertex
100
AcDb2dVertex
 10
81.53743453268756
 20
44.58751098997158
 30
0.0
  0
SEQEND
  5
FA
330
F7
100
AcDbEntity
  8
DIBUJOS
 62
     7
  0
POLYLINE
  5
FB
330
52
100
AcDbEntity
  8
DIBUJOS
 62
     7
100
AcDb2dPolyline
 66
     1
 10
0.0
 20
0.0
 30
0.0
  0
VERTEX
  5
FC
330
FB
100
AcDbEntity
  8
DIBUJOS
 62
     7
100
AcDbVertex
100
AcDb2dVertex
 10
81.54301379625727
 20
44.58751098997158
 30
0.0
  0
VERTEX
  5
FD
330
FB
100
AcDbEntity
  8
DIBUJOS
 62
     7
100
AcDbVertex
100
AcDb2dVertex
 10
81.54301379625727
 20
44.59308261303264
 30
0.0
  0
SEQEND
  5
FE
330
FB
100
AcDbEntity
  8
DIBUJOS
 62
     7
  0
POLYLINE
  5
FF
330
52
100
AcDbEntity
  8
DIBUJOS
 62
     7
100
AcDb2dPolyline
 66
     1
 10
0.0
 20
0.0
 30
0.0
  0
VERTEX
  5
100
330
FF
100
AcDbEntity
  8
DIBUJOS
 62
     7
100
AcDbVertex
100
AcDb2dVertex
 10
86.35717655701194
 20
44.57637074257034
 30
0.0
  0
VERTEX
  5
101
330
FF
100
AcDbEntity
  8
DIBUJOS
 62
     7
100
AcDbVertex
100
AcDb2dVertex
 10
86.38034641583978
 20
44.59179616185212
 30
0.0
  0
VERTEX
  5
102
330
FF
100
AcDbEntity
  8
DIBUJOS
 62
     7
100
AcDbVertex
100
AcDb2dVertex
 10
86.40291871091618
 20
44.62037996756651
 30
0.0
  0
VERTEX
  5
103
330
FF
100
AcDbEntity
  8
DIBUJOS
 62
     7
100
AcDbVertex
100
AcDb2dVertex
 10
86.41522131739825
 20
44.67626712525622
 30
0.0
  0
VERTEX
  5
104
330
FF
100
AcDbEntity
  8
DIBUJOS
 62
     7
100
AcDbVertex
100
AcDb2dVertex
 10
86.41853944777719
 20
44.91618577231671
 30
0.0
  0
VERTEX
  5
105
330
FF
100
AcDbEntity
  8
DIBUJOS
 62
     7
100
AcDbVertex
100
AcDb2dVertex
 10
86.40291871091618
 20
44.97802239187568
 30
0.0
  0
VERTEX
  5
106
330
FF
100
AcDbEntity
  8
DIBUJOS
 62
     7
100
AcDbVertex
100
AcDb2dVertex
 10
86.37391134488722
 20
45.01088837074972
 30
0.0
  0
VERTEX
  5
107
330
FF
100
AcDbEntity
  8
DIBUJOS
 62
     7
100
AcDbVertex
100
AcDb2dVertex
 10
86.34601802987251
 20
45.0276032399326
 30
0.0
  0
SEQEND
  5
108
330
FF
100
AcDbEntity
  8
DIBUJOS
 62
     7
  0
POLYLINE
  5
109
330
52
100
AcDbEntity
  8
DIBUJOS
 62
     7
100
AcDb2dPolyline
 66
     1
 10
0.0
 20
0.0
 30
0.0
  0
VERTEX
  5
10A
330
109
100
AcDbEntity
  8
DIBUJOS
 62
     7
100
AcDbVertex
100
AcDb2dVertex
 10
86.2400300390492
 20
44.55965887210836
 30
0.0
  0
VERTEX
  5
10B
330
109
100
AcDbEntity
  8
DIBUJOS
 62
     7
100
AcDbVertex
100
AcDb2dVertex
 10
81.64342852917666
 20
44.56801030925801
 30
0.0
  0
VERTEX
  5
10C
330
109
100
AcDbEntity
  8
DIBUJOS
 62
     7
100
AcDbVertex
100
AcDb2dVertex
 10
81.5491515867504
 20
44.58361265306159
 30
0.0
  0
VERTEX
  5
10D
330
109
100
AcDbEntity
  8
DIBUJOS
 62
     7
100
AcDbVertex
100
AcDb2dVertex
 10
81.54301379625727
 20
44.58751098997158
 30
0.0
  0
SEQEND
  5
10E
330
109
100
AcDbEntity
  8
DIBUJOS
 62
     7
  0
POLYLINE
  5
10F
330
52
100
AcDbEntity
  8
DIBUJOS
 62
     7
100
AcDb2dPolyline
 66
     1
 10
0.0
 20
0.0
 30
0.0
  0
VERTEX
  5
110
330
10F
100
AcDbEntity
  8
DIBUJOS
 62
     7
100
AcDbVertex
100
AcDb2dVertex
 10
86.24560930261892
 20
44.55965887210836
 30
0.0
  0
VERTEX
  5
111
330
10F
100
AcDbEntity
  8
DIBUJOS
 62
     7
100
AcDbVertex
100
AcDb2dVertex
 10
86.2400300390492
 20
44.55965887210836
 30
0.0
  0
SEQEND
  5
112
330
10F
100
AcDbEntity
  8
DIBUJOS
 62
     7
  0
POLYLINE
  5
113
330
52
100
AcDbEntity
  8
DIBUJOS
 62
     7
100
AcDb2dPolyline
 66
     1
 10
0.0
 20
0.0
 30
0.0
  0
VERTEX
  5
114
330
113
100
AcDbEntity
  8
DIBUJOS
 62
     7
100
AcDbVertex
100
AcDb2dVertex
 10
86.24560930261892
 20
44.55965887210836
 30
0.0
  0
VERTEX
  5
115
330
113
100
AcDbEntity
  8
DIBUJOS
 62
     7
100
AcDbVertex
100
AcDb2dVertex
 10
86.29023440267632
 20
44.59308261303264
 30
0.0
  0
VERTEX
  5
116
330
113
100
AcDbEntity
  8
DIBUJOS
 62
     7
100
AcDbVertex
100
AcDb2dVertex
 10
86.3297757065962
 20
44.58947815075097
 30
0.0
  0
VERTEX
  5
117
330
113
100
AcDbEntity
  8
DIBUJOS
 62
     7
100
AcDbVertex
100
AcDb2dVertex
 10
86.35717655701194
 20
44.57637074257034
 30
0.0
  0
SEQEND
  5
118
330
113
100
AcDbEntity
  8
DIBUJOS
 62
     7
  0
POLYLINE
  5
119
330
52
100
AcDbEntity
  8
DIBUJOS
 62
     7
100
AcDb2dPolyline
 66
     1
 10
0.0
 20
0.0
 30
0.0
  0
VERTEX
  5
11A
330
119
100
AcDbEntity
  8
DIBUJOS
 62
     7
100
AcDbVertex
100
AcDb2dVertex
 10
86.24560930261892
 20
44.55408724904729
 30
0.0
  0
VERTEX
  5
11B
330
119
100
AcDbEntity
  8
DIBUJOS
 62
     7
100
AcDbVertex
100
AcDb2dVertex
 10
86.24560930261892
 20
44.55965887210836
 30
0.0
  0
SEQEND
  5
11C
330
119
100
AcDbEntity
  8
DIBUJOS
 62
     7
  0
POLYLINE
  5
11D
330
52
100
AcDbEntity
  8
DIBUJOS
 62
     7
100
AcDb2dPolyline
 66
     1
 10
0.0
 20
0.0
 30
0.0
  0
VERTEX
  5
11E
330
11D
100
AcDbEntity
  8
DIBUJOS
 62
     7
100
AcDbVertex
100
AcDb2dVertex
 10
86.23445077548013
 20
44.4426727801523
 30
0.0
  0
VERTEX
  5
11F
330
11D
100
AcDbEntity
  8
DIBUJOS
 62
     7
100
AcDbVertex
100
AcDb2dVertex
 10
86.23705723445674
 20
44.52607020154552
 30
0.0
  0
VERTEX
  5
120
330
11D
100
AcDbEntity
  8
DIBUJOS
 62
     7
100
AcDbVertex
100
AcDb2dVertex
 10
86.24560930261892
 20
44.55408724904729
 30
0.0
  0
SEQEND
  5
121
330
11D
100
AcDbEntity
  8
DIBUJOS
 62
     7
  0
POLYLINE
  5
122
330
52
100
AcDbEntity
  8
DIBUJOS
 62
     7
100
AcDb2dPolyline
 66
     1
 10
0.0
 20
0.0
 30
0.0
  0
VERTEX
  5
123
330
122
100
AcDbEntity
  8
DIBUJOS
 62
     7
100
AcDbVertex
100
AcDb2dVertex
 10
86.23445077548013
 20
44.43710115709123
 30
0.0
  0
VERTEX
  5
124
330
122
100
AcDbEntity
  8
DIBUJOS
 62
     7
100
AcDbVertex
100
AcDb2dVertex
 10
86.22887151191041
 20
44.43710115709123
 30
0.0
  0
SEQEND
  5
125
330
122
100
AcDbEntity
  8
DIBUJOS
 62
     7
  0
POLYLINE
  5
126
330
52
100
AcDbEntity
  8
DIBUJOS
 62
     7
100
AcDb2dPolyline
 66
     1
 10
0.0
 20
0.0
 30
0.0
  0
VERTEX
  5
127
330
126
100
AcDbEntity
  8
DIBUJOS
 62
     7
100
AcDbVertex
100
AcDb2dVertex
 10
86.23445077548013
 20
44.43710115709123
 30
0.0
  0
VERTEX
  5
128
330
126
100
AcDbEntity
  8
DIBUJOS
 62
     7
100
AcDbVertex
100
AcDb2dVertex
 10
86.23445077548013
 20
44.4426727801523
 30
0.0
  0
SEQEND
  5
129
330
126
100
AcDbEntity
  8
DIBUJOS
 62
     7
  0
POLYLINE
  5
12A
330
52
100
AcDbEntity
  8
DIBUJOS
 62
     7
100
AcDb2dPolyline
 66
     1
 10
0.0
 20
0.0
 30
0.0
  0
VERTEX
  5
12B
330
12A
100
AcDbEntity
  8
DIBUJOS
 62
     7
100
AcDbVertex
100
AcDb2dVertex
 10
86.23445077548013
 20
44.43152953403017
 30
0.0
  0
VERTEX
  5
12C
330
12A
100
AcDbEntity
  8
DIBUJOS
 62
     7
100
AcDbVertex
100
AcDb2dVertex
 10
86.23445077548013
 20
44.43710115709123
 30
0.0
  0
SEQEND
  5
12D
330
12A
100
AcDbEntity
  8
DIBUJOS
 62
     7
  0
POLYLINE
  5
12E
330
52
100
AcDbEntity
  8
DIBUJOS
 62
     7
100
AcDb2dPolyline
 66
     1
 10
0.0
 20
0.0
 30
0.0
  0
VERTEX
  5
12F
330
12E
100
AcDbEntity
  8
DIBUJOS
 62
     7
100
AcDbVertex
100
AcDb2dVertex
 10
79.78581602682456
 20
42.32578287754167
 30
0.0
  0
VERTEX
  5
130
330
12E
100
AcDbEntity
  8
DIBUJOS
 62
     7
100
AcDbVertex
100
AcDb2dVertex
 10
79.95205285739951
 20
42.71629128072456
 30
0.0
  0
VERTEX
  5
131
330
12E
100
AcDbEntity
  8
DIBUJOS
 62
     7
100
AcDbVertex
100
AcDb2dVertex
 10
80.60137944283764
 20
44.19143096372762
 30
0.0
  0
VERTEX
  5
132
330
12E
100
AcDbEntity
  8
DIBUJOS
 62
     7
100
AcDbVertex
100
AcDb2dVertex
 10
80.61030386228273
 20
44.20925835829011
 30
0.0
  0
VERTEX
  5
133
330
12E
100
AcDbEntity
  8
DIBUJOS
 62
     7
100
AcDbVertex
100
AcDb2dVertex
 10
80.69509785834047
 20
44.33682693559715
 30
0.0
  0
VERTEX
  5
134
330
12E
100
AcDbEntity
  8
DIBUJOS
 62
     7
100
AcDbVertex
100
AcDb2dVertex
 10
80.79550958842665
 20
44.43710115709123
 30
0.0
  0
VERTEX
  5
135
330
12E
100
AcDbEntity
  8
DIBUJOS
 62
     7
100
AcDbVertex
100
AcDb2dVertex
 10
80.81882658606825
 20
44.45247559812103
 30
0.0
  0
VERTEX
  5
136
330
12E
100
AcDbEntity
  8
DIBUJOS
 62
     7
100
AcDbVertex
100
AcDb2dVertex
 10
80.82254109039333
 20
44.45509947873374
 30
0.0
  0
VERTEX
  5
137
330
12E
100
AcDbEntity
  8
DIBUJOS
 62
     7
100
AcDbVertex
100
AcDb2dVertex
 10
80.946684209064
 20
44.53069123014463
 30
0.0
  0
VERTEX
  5
138
330
12E
100
AcDbEntity
  8
DIBUJOS
 62
     7
100
AcDbVertex
100
AcDb2dVertex
 10
81.11347656372917
 20
44.59308261303264
 30
0.0
  0
SEQEND
  5
139
330
12E
100
AcDbEntity
  8
DIBUJOS
 62
     7
  0
POLYLINE
  5
13A
330
52
100
AcDbEntity
  8
DIBUJOS
 62
     7
100
AcDb2dPolyline
 66
     1
 10
0.0
 20
0.0
 30
0.0
  0
VERTEX
  5
13B
330
13A
100
AcDbEntity
  8
DIBUJOS
 62
     7
100
AcDbVertex
100
AcDb2dVertex
 10
79.78581602682456
 20
42.3202112544806
 30
0.0
  0
VERTEX
  5
13C
330
13A
100
AcDbEntity
  8
DIBUJOS
 62
     7
100
AcDbVertex
100
AcDb2dVertex
 10
79.78581602682456
 20
42.32578287754167
 30
0.0
  0
SEQEND
  5
13D
330
13A
100
AcDbEntity
  8
DIBUJOS
 62
     7
  0
POLYLINE
  5
13E
330
52
100
AcDbEntity
  8
DIBUJOS
 62
     7
100
AcDb2dPolyline
 66
     1
 10
0.0
 20
0.0
 30
0.0
  0
VERTEX
  5
13F
330
13E
100
AcDbEntity
  8
DIBUJOS
 62
     7
100
AcDbVertex
100
AcDb2dVertex
 10
79.79139529039428
 20
42.3202112544806
 30
0.0
  0
VERTEX
  5
140
330
13E
100
AcDbEntity
  8
DIBUJOS
 62
     7
100
AcDbVertex
100
AcDb2dVertex
 10
79.78581602682456
 20
42.3202112544806
 30
0.0
  0
SEQEND
  5
141
330
13E
100
AcDbEntity
  8
DIBUJOS
 62
     7
  0
POLYLINE
  5
142
330
52
100
AcDbEntity
  8
DIBUJOS
 62
     7
100
AcDb2dPolyline
 66
     1
 10
0.0
 20
0.0
 30
0.0
  0
VERTEX
  5
143
330
142
100
AcDbEntity
  8
DIBUJOS
 62
     7
100
AcDbVertex
100
AcDb2dVertex
 10
86.2400300390492
 20
42.28121589049525
 30
0.0
  0
VERTEX
  5
144
330
142
100
AcDbEntity
  8
DIBUJOS
 62
     7
100
AcDbVertex
100
AcDb2dVertex
 10
86.23445077548013
 20
42.28678751355599
 30
0.0
  0
VERTEX
  5
145
330
142
100
AcDbEntity
  8
DIBUJOS
 62
     7
100
AcDbVertex
100
AcDb2dVertex
 10
86.23445077548013
 20
44.43152953403017
 30
0.0
  0
SEQEND
  5
146
330
142
100
AcDbEntity
  8
DIBUJOS
 62
     7
  0
POLYLINE
  5
147
330
52
100
AcDbEntity
  8
DIBUJOS
 62
     7
100
AcDb2dPolyline
 66
     1
 10
0.0
 20
0.0
 30
0.0
  0
VERTEX
  5
148
330
147
100
AcDbEntity
  8
DIBUJOS
 62
     7
100
AcDbVertex
100
AcDb2dVertex
 10
86.24560930261892
 20
42.28121589049525
 30
0.0
  0
VERTEX
  5
149
330
147
100
AcDbEntity
  8
DIBUJOS
 62
     7
100
AcDbVertex
100
AcDb2dVertex
 10
86.2400300390492
 20
42.28121589049525
 30
0.0
  0
SEQEND
  5
14A
330
147
100
AcDbEntity
  8
DIBUJOS
 62
     7
  0
POLYLINE
  5
14B
330
52
100
AcDbEntity
  8
DIBUJOS
 62
     7
100
AcDb2dPolyline
 66
     1
 10
0.0
 20
0.0
 30
0.0
  0
VERTEX
  5
14C
330
14B
100
AcDbEntity
  8
DIBUJOS
 62
     7
100
AcDbVertex
100
AcDb2dVertex
 10
86.37391134488722
 20
42.28121589049525
 30
0.0
  0
VERTEX
  5
14D
330
14B
100
AcDbEntity
  8
DIBUJOS
 62
     7
100
AcDbVertex
100
AcDb2dVertex
 10
86.362755820581
 20
42.28678751355599
 30
0.0
  0
VERTEX
  5
14E
330
14B
100
AcDbEntity
  8
DIBUJOS
 62
     7
100
AcDbVertex
100
AcDb2dVertex
 10
86.25676482692512
 20
42.28678751355599
 30
0.0
  0
VERTEX
  5
14F
330
14B
100
AcDbEntity
  8
DIBUJOS
 62
     7
100
AcDbVertex
100
AcDb2dVertex
 10
86.24560930261892
 20
42.28121589049525
 30
0.0
  0
SEQEND
  5
150
330
14B
100
AcDbEntity
  8
DIBUJOS
 62
     7
  0
POLYLINE
  5
151
330
52
100
AcDbEntity
  8
DIBUJOS
 62
     7
100
AcDb2dPolyline
 66
     1
 10
0.0
 20
0.0
 30
0.0
  0
VERTEX
  5
152
330
151
100
AcDbEntity
  8
DIBUJOS
 62
     7
100
AcDbVertex
100
AcDb2dVertex
 10
86.37949060845692
 20
42.28121589049525
 30
0.0
  0
VERTEX
  5
153
330
151
100
AcDbEntity
  8
DIBUJOS
 62
     7
100
AcDbVertex
100
AcDb2dVertex
 10
86.37391134488722
 20
42.28121589049525
 30
0.0
  0
SEQEND
  5
154
330
151
100
AcDbEntity
  8
DIBUJOS
 62
     7
  0
POLYLINE
  5
155
330
52
100
AcDbEntity
  8
DIBUJOS
 62
     7
100
AcDb2dPolyline
 66
     1
 10
0.0
 20
0.0
 30
0.0
  0
VERTEX
  5
156
330
155
100
AcDbEntity
  8
DIBUJOS
 62
     7
100
AcDbVertex
100
AcDb2dVertex
 10
86.37949060845692
 20
42.28121589049525
 30
0.0
  0
VERTEX
  5
157
330
155
100
AcDbEntity
  8
DIBUJOS
 62
     7
100
AcDbVertex
100
AcDb2dVertex
 10
86.38506686919342
 20
42.28678751355599
 30
0.0
  0
VERTEX
  5
158
330
155
100
AcDbEntity
  8
DIBUJOS
 62
     7
100
AcDbVertex
100
AcDb2dVertex
 10
86.38506686919342
 20
44.520663508123
 30
0.0
  0
VERTEX
  5
159
330
155
100
AcDbEntity
  8
DIBUJOS
 62
     7
100
AcDbVertex
100
AcDb2dVertex
 10
86.36704686882692
 20
44.56437286104907
 30
0.0
  0
VERTEX
  5
15A
330
155
100
AcDbEntity
  8
DIBUJOS
 62
     7
100
AcDbVertex
100
AcDb2dVertex
 10
86.35717655701194
 20
44.57637074257034
 30
0.0
  0
SEQEND
  5
15B
330
155
100
AcDbEntity
  8
DIBUJOS
 62
     7
  0
POLYLINE
  5
15C
330
52
100
AcDbEntity
  8
DIBUJOS
 62
     7
100
AcDb2dPolyline
 66
     1
 10
0.0
 20
0.0
 30
0.0
  0
VERTEX
  5
15D
330
15C
100
AcDbEntity
  8
DIBUJOS
 62
     7
100
AcDbVertex
100
AcDb2dVertex
 10
86.2400300390492
 20
42.27564426743482
 30
0.0
  0
VERTEX
  5
15E
330
15C
100
AcDbEntity
  8
DIBUJOS
 62
     7
100
AcDbVertex
100
AcDb2dVertex
 10
86.2400300390492
 20
42.28121589049525
 30
0.0
  0
SEQEND
  5
15F
330
15C
100
AcDbEntity
  8
DIBUJOS
 62
     7
  0
POLYLINE
  5
160
330
52
100
AcDbEntity
  8
DIBUJOS
 62
     7
100
AcDb2dPolyline
 66
     1
 10
0.0
 20
0.0
 30
0.0
  0
VERTEX
  5
161
330
160
100
AcDbEntity
  8
DIBUJOS
 62
     7
100
AcDbVertex
100
AcDb2dVertex
 10
86.37949060845692
 20
42.27564426743482
 30
0.0
  0
VERTEX
  5
162
330
160
100
AcDbEntity
  8
DIBUJOS
 62
     7
100
AcDbVertex
100
AcDb2dVertex
 10
86.37949060845692
 20
42.28121589049525
 30
0.0
  0
SEQEND
  5
163
330
160
100
AcDbEntity
  8
DIBUJOS
 62
     7
  0
POLYLINE
  5
164
330
52
100
AcDbEntity
  8
DIBUJOS
 62
     7
100
AcDb2dPolyline
 66
     1
 10
0.0
 20
0.0
 30
0.0
  0
VERTEX
  5
165
330
164
100
AcDbEntity
  8
DIBUJOS
 62
     7
100
AcDbVertex
100
AcDb2dVertex
 10
79.90854180835701
 20
42.2589323969722
 30
0.0
  0
VERTEX
  5
166
330
164
100
AcDbEntity
  8
DIBUJOS
 62
     7
100
AcDbVertex
100
AcDb2dVertex
 10
79.79139529039428
 20
42.3202112544806
 30
0.0
  0
SEQEND
  5
167
330
164
100
AcDbEntity
  8
DIBUJOS
 62
     7
  0
POLYLINE
  5
168
330
52
100
AcDbEntity
  8
DIBUJOS
 62
     7
100
AcDb2dPolyline
 66
     1
 10
0.0
 20
0.0
 30
0.0
  0
VERTEX
  5
169
330
168
100
AcDbEntity
  8
DIBUJOS
 62
     7
100
AcDbVertex
100
AcDb2dVertex
 10
79.91412107192608
 20
42.2589323969722
 30
0.0
  0
VERTEX
  5
16A
330
168
100
AcDbEntity
  8
DIBUJOS
 62
     7
100
AcDbVertex
100
AcDb2dVertex
 10
79.90854180835701
 20
42.2589323969722
 30
0.0
  0
SEQEND
  5
16B
330
168
100
AcDbEntity
  8
DIBUJOS
 62
     7
  0
POLYLINE
  5
16C
330
52
100
AcDbEntity
  8
DIBUJOS
 62
     7
100
AcDb2dPolyline
 66
     1
 10
0.0
 20
0.0
 30
0.0
  0
VERTEX
  5
16D
330
16C
100
AcDbEntity
  8
DIBUJOS
 62
     7
100
AcDbVertex
100
AcDb2dVertex
 10
79.91412107192608
 20
42.2589323969722
 30
0.0
  0
VERTEX
  5
16E
330
16C
100
AcDbEntity
  8
DIBUJOS
 62
     7
100
AcDbVertex
100
AcDb2dVertex
 10
79.92399138374171
 20
42.27093027849379
 30
0.0
  0
VERTEX
  5
16F
330
16C
100
AcDbEntity
  8
DIBUJOS
 62
     7
100
AcDbVertex
100
AcDb2dVertex
 10
80.16403184187871
 20
42.8221371252797
 30
0.0
  0
VERTEX
  5
170
330
16C
100
AcDbEntity
  8
DIBUJOS
 62
     7
100
AcDbVertex
100
AcDb2dVertex
 10
80.73526074867566
 20
44.11901185881798
 30
0.0
  0
VERTEX
  5
171
330
16C
100
AcDbEntity
  8
DIBUJOS
 62
     7
100
AcDbVertex
100
AcDb2dVertex
 10
80.73860890738361
 20
44.12569600725834
 30
0.0
  0
VERTEX
  5
172
330
16C
100
AcDbEntity
  8
DIBUJOS
 62
     7
100
AcDbVertex
100
AcDb2dVertex
 10
80.8178206370397
 20
44.24212433716446
 30
0.0
  0
VERTEX
  5
173
330
16C
100
AcDbEntity
  8
DIBUJOS
 62
     7
100
AcDbVertex
100
AcDb2dVertex
 10
80.86802800349876
 20
44.29226294727163
 30
0.0
  0
VERTEX
  5
174
330
16C
100
AcDbEntity
  8
DIBUJOS
 62
     7
100
AcDbVertex
100
AcDb2dVertex
 10
80.95814001666223
 20
44.35782397794
 30
0.0
  0
VERTEX
  5
175
330
16C
100
AcDbEntity
  8
DIBUJOS
 62
     7
100
AcDbVertex
100
AcDb2dVertex
 10
81.05155814887306
 20
44.40478994154688
 30
0.0
  0
VERTEX
  5
176
330
16C
100
AcDbEntity
  8
DIBUJOS
 62
     7
100
AcDbVertex
100
AcDb2dVertex
 10
81.1584049499118
 20
44.43470218053109
 30
0.0
  0
VERTEX
  5
177
330
16C
100
AcDbEntity
  8
DIBUJOS
 62
     7
100
AcDbVertex
100
AcDb2dVertex
 10
81.29756523602687
 20
44.44824140449247
 30
0.0
  0
VERTEX
  5
178
330
16C
100
AcDbEntity
  8
DIBUJOS
 62
     7
100
AcDbVertex
100
AcDb2dVertex
 10
81.30314149676336
 20
44.4426727801523
 30
0.0
  0
VERTEX
  5
179
330
16C
100
AcDbEntity
  8
DIBUJOS
 62
     7
100
AcDbVertex
100
AcDb2dVertex
 10
84.36568575165504
 20
44.4426727801523
 30
0.0
  0
VERTEX
  5
17A
330
16C
100
AcDbEntity
  8
DIBUJOS
 62
     7
100
AcDbVertex
100
AcDb2dVertex
 10
84.42147838735025
 20
44.43987797245956
 30
0.0
  0
VERTEX
  5
17B
330
16C
100
AcDbEntity
  8
DIBUJOS
 62
     7
100
AcDbVertex
100
AcDb2dVertex
 10
86.22887151191041
 20
44.43710115709123
 30
0.0
  0
SEQEND
  5
17C
330
16C
100
AcDbEntity
  8
DIBUJOS
 62
     7
  0
POLYLINE
  5
17D
330
52
100
AcDbEntity
  8
DIBUJOS
 62
     7
100
AcDb2dPolyline
 66
     1
 10
0.0
 20
0.0
 30
0.0
  0
VERTEX
  5
17E
330
17D
100
AcDbEntity
  8
DIBUJOS
 62
     7
100
AcDbVertex
100
AcDb2dVertex
 10
79.91412107192608
 20
42.25336077391145
 30
0.0
  0
VERTEX
  5
17F
330
17D
100
AcDbEntity
  8
DIBUJOS
 62
     7
100
AcDbVertex
100
AcDb2dVertex
 10
79.91412107192608
 20
42.2589323969722
 30
0.0
  0
SEQEND
  5
180
330
17D
100
AcDbEntity
  8
DIBUJOS
 62
     7
  0
POLYLINE
  5
181
330
52
100
AcDbEntity
  8
DIBUJOS
 62
     7
100
AcDb2dPolyline
 66
     1
 10
0.0
 20
0.0
 30
0.0
  0
VERTEX
  5
182
330
181
100
AcDbEntity
  8
DIBUJOS
 62
     7
100
AcDbVertex
100
AcDb2dVertex
 10
79.78581602682456
 20
42.3202112544806
 30
0.0
  0
VERTEX
  5
183
330
181
100
AcDbEntity
  8
DIBUJOS
 62
     7
100
AcDbVertex
100
AcDb2dVertex
 10
79.77354645150473
 20
42.30405714606855
 30
0.0
  0
VERTEX
  5
184
330
181
100
AcDbEntity
  8
DIBUJOS
 62
     7
100
AcDbVertex
100
AcDb2dVertex
 10
79.76908123894928
 20
42.27007564309401
 30
0.0
  0
VERTEX
  5
185
330
181
100
AcDbEntity
  8
DIBUJOS
 62
     7
100
AcDbVertex
100
AcDb2dVertex
 10
79.80199529060964
 20
42.24110500240939
 30
0.0
  0
VERTEX
  5
186
330
181
100
AcDbEntity
  8
DIBUJOS
 62
     7
100
AcDbVertex
100
AcDb2dVertex
 10
79.87507223260518
 20
42.20879678558529
 30
0.0
  0
VERTEX
  5
187
330
181
100
AcDbEntity
  8
DIBUJOS
 62
     7
100
AcDbVertex
100
AcDb2dVertex
 10
79.88622775691138
 20
42.20879678558529
 30
0.0
  0
VERTEX
  5
188
330
181
100
AcDbEntity
  8
DIBUJOS
 62
     7
100
AcDbVertex
100
AcDb2dVertex
 10
79.91300401807923
 20
42.24834691290064
 30
0.0
  0
VERTEX
  5
189
330
181
100
AcDbEntity
  8
DIBUJOS
 62
     7
100
AcDbVertex
100
AcDb2dVertex
 10
79.91412107192608
 20
42.25336077391145
 30
0.0
  0
SEQEND
  5
18A
330
181
100
AcDbEntity
  8
DIBUJOS
 62
     7
  0
POLYLINE
  5
18B
330
52
100
AcDbEntity
  8
DIBUJOS
 62
     7
100
AcDb2dPolyline
 66
     1
 10
0.0
 20
0.0
 30
0.0
  0
VERTEX
  5
18C
330
18B
100
AcDbEntity
  8
DIBUJOS
 62
     7
100
AcDbVertex
100
AcDb2dVertex
 10
86.24560930261892
 20
42.20879678558529
 30
0.0
  0
VERTEX
  5
18D
330
18B
100
AcDbEntity
  8
DIBUJOS
 62
     7
100
AcDbVertex
100
AcDb2dVertex
 10
86.24449224877206
 20
42.21381064659642
 30
0.0
  0
VERTEX
  5
18E
330
18B
100
AcDbEntity
  8
DIBUJOS
 62
     7
100
AcDbVertex
100
AcDb2dVertex
 10
86.23445077548013
 20
42.23108027910866
 30
0.0
  0
VERTEX
  5
18F
330
18B
100
AcDbEntity
  8
DIBUJOS
 62
     7
100
AcDbVertex
100
AcDb2dVertex
 10
86.23445077548013
 20
42.27007564309401
 30
0.0
  0
VERTEX
  5
190
330
18B
100
AcDbEntity
  8
DIBUJOS
 62
     7
100
AcDbVertex
100
AcDb2dVertex
 10
86.2400300390492
 20
42.27564426743482
 30
0.0
  0
SEQEND
  5
191
330
18B
100
AcDbEntity
  8
DIBUJOS
 62
     7
  0
POLYLINE
  5
192
330
52
100
AcDbEntity
  8
DIBUJOS
 62
     7
100
AcDb2dPolyline
 66
     1
 10
0.0
 20
0.0
 30
0.0
  0
VERTEX
  5
193
330
192
100
AcDbEntity
  8
DIBUJOS
 62
     7
100
AcDbVertex
100
AcDb2dVertex
 10
86.2511855633554
 20
42.20322516252454
 30
0.0
  0
VERTEX
  5
194
330
192
100
AcDbEntity
  8
DIBUJOS
 62
     7
100
AcDbVertex
100
AcDb2dVertex
 10
86.24560930261892
 20
42.20879678558529
 30
0.0
  0
SEQEND
  5
195
330
192
100
AcDbEntity
  8
DIBUJOS
 62
     7
  0
POLYLINE
  5
196
330
52
100
AcDbEntity
  8
DIBUJOS
 62
     7
100
AcDb2dPolyline
 66
     1
 10
0.0
 20
0.0
 30
0.0
  0
VERTEX
  5
197
330
196
100
AcDbEntity
  8
DIBUJOS
 62
     7
100
AcDbVertex
100
AcDb2dVertex
 10
86.2511855633554
 20
42.20322516252454
 30
0.0
  0
VERTEX
  5
198
330
196
100
AcDbEntity
  8
DIBUJOS
 62
     7
100
AcDbVertex
100
AcDb2dVertex
 10
86.30139292981511
 20
42.1920849151233
 30
0.0
  0
VERTEX
  5
199
330
196
100
AcDbEntity
  8
DIBUJOS
 62
     7
100
AcDbVertex
100
AcDb2dVertex
 10
86.362755820581
 20
42.20322516252454
 30
0.0
  0
VERTEX
  5
19A
330
196
100
AcDbEntity
  8
DIBUJOS
 62
     7
100
AcDbVertex
100
AcDb2dVertex
 10
86.37949060845692
 20
42.21993703298685
 30
0.0
  0
VERTEX
  5
19B
330
196
100
AcDbEntity
  8
DIBUJOS
 62
     7
100
AcDbVertex
100
AcDb2dVertex
 10
86.38506686919342
 20
42.27007564309401
 30
0.0
  0
VERTEX
  5
19C
330
196
100
AcDbEntity
  8
DIBUJOS
 62
     7
100
AcDbVertex
100
AcDb2dVertex
 10
86.37949060845692
 20
42.27564426743482
 30
0.0
  0
SEQEND
  5
19D
330
196
100
AcDbEntity
  8
DIBUJOS
 62
     7
  0
ENDBLK
  5
55
330
52
100
AcDbEntity
  8
0
100
AcDbBlockEnd
  0
BLOCK
  5
1A0
330
19E
100
AcDbEntity
  8
0
100
AcDbBlockBegin
  2
BLOCK_3
 70
     0
 10
0.0
 20
0.0
 30
0.0
  3
BLOCK_3
  1

  0
POLYLINE
  5
1A2
330
19E
100
AcDbEntity
  8
DIBUJOS
 62
     7
100
AcDb2dPolyline
 66
     1
 10
0.0
 20
0.0
 30
0.0
  0
VERTEX
  5
1A3
330
1A2
100
AcDbEntity
  8
DIBUJOS
 62
     7
100
AcDbVertex
100
AcDb2dVertex
 10
63.39111590042423
 20
34.7585294072117
 30
0.0
  0
VERTEX
  5
1A4
330
1A2
100
AcDbEntity
  8
DIBUJOS
 62
     7
100
AcDbVertex
100
AcDb2dVertex
 10
63.38553738756282
 20
34.7585294072117
 30
0.0
  0
SEQEND
  5
1A5
330
1A2
100
AcDbEntity
  8
DIBUJOS
 62
     7
  0
POLYLINE
  5
1A6
330
19E
100
AcDbEntity
  8
DIBUJOS
 62
     7
100
AcDb2dPolyline
 66
     1
 10
0.0
 20
0.0
 30
0.0
  0
VERTEX
  5
1A7
330
1A6
100
AcDbEntity
  8
DIBUJOS
 62
     7
100
AcDbVertex
100
AcDb2dVertex
 10
63.39669441328531
 20
34.7585294072117
 30
0.0
  0
VERTEX
  5
1A8
330
1A6
100
AcDbEntity
  8
DIBUJOS
 62
     7
100
AcDbVertex
100
AcDb2dVertex
 10
63.39111590042423
 20
34.7585294072117
 30
0.0
  0
SEQEND
  5
1A9
330
1A6
100
AcDbEntity
  8
DIBUJOS
 62
     7
  0
POLYLINE
  5
1AA
330
19E
100
AcDbEntity
  8
DIBUJOS
 62
     7
100
AcDb2dPolyline
 66
     1
 10
0.0
 20
0.0
 30
0.0
  0
VERTEX
  5
1AB
330
1AA
100
AcDbEntity
  8
DIBUJOS
 62
     7
100
AcDbVertex
100
AcDb2dVertex
 10
66.1524257157644
 20
34.7585294072117
 30
0.0
  0
VERTEX
  5
1AC
330
1AA
100
AcDbEntity
  8
DIBUJOS
 62
     7
100
AcDbVertex
100
AcDb2dVertex
 10
66.146846452195
 20
34.7585294072117
 30
0.0
  0
SEQEND
  5
1AD
330
1AA
100
AcDbEntity
  8
DIBUJOS
 62
     7
  0
POLYLINE
  5
1AE
330
19E
100
AcDbEntity
  8
DIBUJOS
 62
     7
100
AcDb2dPolyline
 66
     1
 10
0.0
 20
0.0
 30
0.0
  0
VERTEX
  5
1AF
330
1AE
100
AcDbEntity
  8
DIBUJOS
 62
     7
100
AcDbVertex
100
AcDb2dVertex
 10
66.15800347791718
 20
34.7585294072117
 30
0.0
  0
VERTEX
  5
1B0
330
1AE
100
AcDbEntity
  8
DIBUJOS
 62
     7
100
AcDbVertex
100
AcDb2dVertex
 10
66.1524257157644
 20
34.7585294072117
 30
0.0
  0
SEQEND
  5
1B1
330
1AE
100
AcDbEntity
  8
DIBUJOS
 62
     7
  0
POLYLINE
  5
1B2
330
19E
100
AcDbEntity
  8
DIBUJOS
 62
     7
100
AcDb2dPolyline
 66
     1
 10
0.0
 20
0.0
 30
0.0
  0
VERTEX
  5
1B3
330
1B2
100
AcDbEntity
  8
DIBUJOS
 62
     7
100
AcDbVertex
100
AcDb2dVertex
 10
63.39111590042423
 20
34.75295928351092
 30
0.0
  0
VERTEX
  5
1B4
330
1B2
100
AcDbEntity
  8
DIBUJOS
 62
     7
100
AcDbVertex
100
AcDb2dVertex
 10
63.39111590042423
 20
34.7585294072117
 30
0.0
  0
SEQEND
  5
1B5
330
1B2
100
AcDbEntity
  8
DIBUJOS
 62
     7
  0
POLYLINE
  5
1B6
330
19E
100
AcDbEntity
  8
DIBUJOS
 62
     7
100
AcDb2dPolyline
 66
     1
 10
0.0
 20
0.0
 30
0.0
  0
VERTEX
  5
1B7
330
1B6
100
AcDbEntity
  8
DIBUJOS
 62
     7
100
AcDbVertex
100
AcDb2dVertex
 10
66.11895463859659
 20
34.75295928351092
 30
0.0
  0
VERTEX
  5
1B8
330
1B6
100
AcDbEntity
  8
DIBUJOS
 62
     7
100
AcDbVertex
100
AcDb2dVertex
 10
66.05115667687842
 20
34.79066969567668
 30
0.0
  0
VERTEX
  5
1B9
330
1B6
100
AcDbEntity
  8
DIBUJOS
 62
     7
100
AcDbVertex
100
AcDb2dVertex
 10
65.91199639076336
 20
34.8571318419153
 30
0.0
  0
VERTEX
  5
1BA
330
1B6
100
AcDbEntity
  8
DIBUJOS
 62
     7
100
AcDbVertex
100
AcDb2dVertex
 10
65.85174905242833
 20
34.88220114696841
 30
0.0
  0
VERTEX
  5
1BB
330
1B6
100
AcDbEntity
  8
DIBUJOS
 62
     7
100
AcDbVertex
100
AcDb2dVertex
 10
65.6777694171633
 20
34.95154056571936
 30
0.0
  0
VERTEX
  5
1BC
330
1B6
100
AcDbEntity
  8
DIBUJOS
 62
     7
100
AcDbVertex
100
AcDb2dVertex
 10
65.56160632698317
 20
34.98332700514136
 30
0.0
  0
VERTEX
  5
1BD
330
1B6
100
AcDbEntity
  8
DIBUJOS
 62
     7
100
AcDbVertex
100
AcDb2dVertex
 10
65.3544423850951
 20
35.0346231214393
 30
0.0
  0
VERTEX
  5
1BE
330
1B6
100
AcDbEntity
  8
DIBUJOS
 62
     7
100
AcDbVertex
100
AcDb2dVertex
 10
65.02017302985794
 20
35.0675235856012
 30
0.0
  0
VERTEX
  5
1BF
330
1B6
100
AcDbEntity
  8
DIBUJOS
 62
     7
100
AcDbVertex
100
AcDb2dVertex
 10
64.48448265069601
 20
35.07049231909453
 30
0.0
  0
VERTEX
  5
1C0
330
1B6
100
AcDbEntity
  8
DIBUJOS
 62
     7
100
AcDbVertex
100
AcDb2dVertex
 10
64.15565743154706
 20
35.03466810224917
 30
0.0
  0
VERTEX
  5
1C1
330
1B6
100
AcDbEntity
  8
DIBUJOS
 62
     7
100
AcDbVertex
100
AcDb2dVertex
 10
63.977340204126
 20
34.99053592970471
 30
0.0
  0
VERTEX
  5
1C2
330
1B6
100
AcDbEntity
  8
DIBUJOS
 62
     7
100
AcDbVertex
100
AcDb2dVertex
 10
63.84903666044109
 20
34.9571106894195
 30
0.0
  0
VERTEX
  5
1C3
330
1B6
100
AcDbEntity
  8
DIBUJOS
 62
     7
100
AcDbVertex
100
AcDb2dVertex
 10
63.66501555188444
 20
34.88554322118874
 30
0.0
  0
VERTEX
  5
1C4
330
1B6
100
AcDbEntity
  8
DIBUJOS
 62
     7
100
AcDbVertex
100
AcDb2dVertex
 10
63.60923192468825
 20
34.86270346497605
 30
0.0
  0
VERTEX
  5
1C5
330
1B6
100
AcDbEntity
  8
DIBUJOS
 62
     7
100
AcDbVertex
100
AcDb2dVertex
 10
63.45891536355867
 20
34.79066969567668
 30
0.0
  0
VERTEX
  5
1C6
330
1B6
100
AcDbEntity
  8
DIBUJOS
 62
     7
100
AcDbVertex
100
AcDb2dVertex
 10
63.39669441328531
 20
34.7585294072117
 30
0.0
  0
SEQEND
  5
1C7
330
1B6
100
AcDbEntity
  8
DIBUJOS
 62
     7
  0
POLYLINE
  5
1C8
330
19E
100
AcDbEntity
  8
DIBUJOS
 62
     7
100
AcDb2dPolyline
 66
     1
 10
0.0
 20
0.0
 30
0.0
  0
VERTEX
  5
1C9
330
1C8
100
AcDbEntity
  8
DIBUJOS
 62
     7
100
AcDbVertex
100
AcDb2dVertex
 10
66.11895463859659
 20
34.75295928351092
 30
0.0
  0
VERTEX
  5
1CA
330
1C8
100
AcDbEntity
  8
DIBUJOS
 62
     7
100
AcDbVertex
100
AcDb2dVertex
 10
66.13011166431909
 20
34.76410103027244
 30
0.0
  0
VERTEX
  5
1CB
330
1C8
100
AcDbEntity
  8
DIBUJOS
 62
     7
100
AcDbVertex
100
AcDb2dVertex
 10
66.14182721696532
 20
34.7596434319516
 30
0.0
  0
VERTEX
  5
1CC
330
1C8
100
AcDbEntity
  8
DIBUJOS
 62
     7
100
AcDbVertex
100
AcDb2dVertex
 10
66.146846452195
 20
34.7585294072117
 30
0.0
  0
SEQEND
  5
1CD
330
1C8
100
AcDbEntity
  8
DIBUJOS
 62
     7
  0
POLYLINE
  5
1CE
330
19E
100
AcDbEntity
  8
DIBUJOS
 62
     7
100
AcDb2dPolyline
 66
     1
 10
0.0
 20
0.0
 30
0.0
  0
VERTEX
  5
1CF
330
1CE
100
AcDbEntity
  8
DIBUJOS
 62
     7
100
AcDbVertex
100
AcDb2dVertex
 10
66.1524257157644
 20
34.75295928351092
 30
0.0
  0
VERTEX
  5
1D0
330
1CE
100
AcDbEntity
  8
DIBUJOS
 62
     7
100
AcDbVertex
100
AcDb2dVertex
 10
66.1524257157644
 20
34.7585294072117
 30
0.0
  0
SEQEND
  5
1D1
330
1CE
100
AcDbEntity
  8
DIBUJOS
 62
     7
  0
POLYLINE
  5
1D2
330
19E
100
AcDbEntity
  8
DIBUJOS
 62
     7
100
AcDb2dPolyline
 66
     1
 10
0.0
 20
0.0
 30
0.0
  0
VERTEX
  5
1D3
330
1D2
100
AcDbEntity
  8
DIBUJOS
 62
     7
100
AcDbVertex
100
AcDb2dVertex
 10
66.18031752936217
 20
34.75295928351092
 30
0.0
  0
VERTEX
  5
1D4
330
1D2
100
AcDbEntity
  8
DIBUJOS
 62
     7
100
AcDbVertex
100
AcDb2dVertex
 10
66.16358274148689
 20
34.76131521874175
 30
0.0
  0
VERTEX
  5
1D5
330
1D2
100
AcDbEntity
  8
DIBUJOS
 62
     7
100
AcDbVertex
100
AcDb2dVertex
 10
66.15800347791718
 20
34.7585294072117
 30
0.0
  0
SEQEND
  5
1D6
330
1D2
100
AcDbEntity
  8
DIBUJOS
 62
     7
  0
POLYLINE
  5
1D7
330
19E
100
AcDbEntity
  8
DIBUJOS
 62
     7
100
AcDb2dPolyline
 66
     1
 10
0.0
 20
0.0
 30
0.0
  0
VERTEX
  5
1D8
330
1D7
100
AcDbEntity
  8
DIBUJOS
 62
     7
100
AcDbVertex
100
AcDb2dVertex
 10
66.15800347791718
 20
34.74738915981014
 30
0.0
  0
VERTEX
  5
1D9
330
1D7
100
AcDbEntity
  8
DIBUJOS
 62
     7
100
AcDbVertex
100
AcDb2dVertex
 10
66.1524257157644
 20
34.75295928351092
 30
0.0
  0
SEQEND
  5
1DA
330
1D7
100
AcDbEntity
  8
DIBUJOS
 62
     7
  0
POLYLINE
  5
1DB
330
19E
100
AcDbEntity
  8
DIBUJOS
 62
     7
100
AcDb2dPolyline
 66
     1
 10
0.0
 20
0.0
 30
0.0
  0
VERTEX
  5
1DC
330
1DB
100
AcDbEntity
  8
DIBUJOS
 62
     7
100
AcDbVertex
100
AcDb2dVertex
 10
66.18031752936217
 20
34.74738915981014
 30
0.0
  0
VERTEX
  5
1DD
330
1DB
100
AcDbEntity
  8
DIBUJOS
 62
     7
100
AcDbVertex
100
AcDb2dVertex
 10
66.17473976720939
 20
34.74738915981014
 30
0.0
  0
SEQEND
  5
1DE
330
1DB
100
AcDbEntity
  8
DIBUJOS
 62
     7
  0
POLYLINE
  5
1DF
330
19E
100
AcDbEntity
  8
DIBUJOS
 62
     7
100
AcDb2dPolyline
 66
     1
 10
0.0
 20
0.0
 30
0.0
  0
VERTEX
  5
1E0
330
1DF
100
AcDbEntity
  8
DIBUJOS
 62
     7
100
AcDbVertex
100
AcDb2dVertex
 10
66.18031752936217
 20
34.74738915981014
 30
0.0
  0
VERTEX
  5
1E1
330
1DF
100
AcDbEntity
  8
DIBUJOS
 62
     7
100
AcDbVertex
100
AcDb2dVertex
 10
66.18031752936217
 20
34.75295928351092
 30
0.0
  0
SEQEND
  5
1E2
330
1DF
100
AcDbEntity
  8
DIBUJOS
 62
     7
  0
POLYLINE
  5
1E3
330
19E
100
AcDbEntity
  8
DIBUJOS
 62
     7
100
AcDb2dPolyline
 66
     1
 10
0.0
 20
0.0
 30
0.0
  0
VERTEX
  5
1E4
330
1E3
100
AcDbEntity
  8
DIBUJOS
 62
     7
100
AcDbVertex
100
AcDb2dVertex
 10
66.18589529151528
 20
34.74738915981014
 30
0.0
  0
VERTEX
  5
1E5
330
1E3
100
AcDbEntity
  8
DIBUJOS
 62
     7
100
AcDbVertex
100
AcDb2dVertex
 10
66.18031752936217
 20
34.74738915981014
 30
0.0
  0
SEQEND
  5
1E6
330
1E3
100
AcDbEntity
  8
DIBUJOS
 62
     7
  0
POLYLINE
  5
1E7
330
19E
100
AcDbEntity
  8
DIBUJOS
 62
     7
100
AcDb2dPolyline
 66
     1
 10
0.0
 20
0.0
 30
0.0
  0
VERTEX
  5
1E8
330
1E7
100
AcDbEntity
  8
DIBUJOS
 62
     7
100
AcDbVertex
100
AcDb2dVertex
 10
63.35206706110363
 20
34.74181753674939
 30
0.0
  0
VERTEX
  5
1E9
330
1E7
100
AcDbEntity
  8
DIBUJOS
 62
     7
100
AcDbVertex
100
AcDb2dVertex
 10
63.35764557396472
 20
34.7585294072117
 30
0.0
  0
VERTEX
  5
1EA
330
1E7
100
AcDbEntity
  8
DIBUJOS
 62
     7
100
AcDbVertex
100
AcDb2dVertex
 10
63.37438111254863
 20
34.76410103027244
 30
0.0
  0
VERTEX
  5
1EB
330
1E7
100
AcDbEntity
  8
DIBUJOS
 62
     7
100
AcDbVertex
100
AcDb2dVertex
 10
63.38553738756282
 20
34.7585294072117
 30
0.0
  0
SEQEND
  5
1EC
330
1E7
100
AcDbEntity
  8
DIBUJOS
 62
     7
  0
POLYLINE
  5
1ED
330
19E
100
AcDbEntity
  8
DIBUJOS
 62
     7
100
AcDb2dPolyline
 66
     1
 10
0.0
 20
0.0
 30
0.0
  0
VERTEX
  5
1EE
330
1ED
100
AcDbEntity
  8
DIBUJOS
 62
     7
100
AcDbVertex
100
AcDb2dVertex
 10
66.1412686900419
 20
34.74181753674939
 30
0.0
  0
VERTEX
  5
1EF
330
1ED
100
AcDbEntity
  8
DIBUJOS
 62
     7
100
AcDbVertex
100
AcDb2dVertex
 10
66.13011166431909
 20
34.74181753674939
 30
0.0
  0
VERTEX
  5
1F0
330
1ED
100
AcDbEntity
  8
DIBUJOS
 62
     7
100
AcDbVertex
100
AcDb2dVertex
 10
66.11895463859659
 20
34.75295928351092
 30
0.0
  0
SEQEND
  5
1F1
330
1ED
100
AcDbEntity
  8
DIBUJOS
 62
     7
  0
POLYLINE
  5
1F2
330
19E
100
AcDbEntity
  8
DIBUJOS
 62
     7
100
AcDb2dPolyline
 66
     1
 10
0.0
 20
0.0
 30
0.0
  0
VERTEX
  5
1F3
330
1F2
100
AcDbEntity
  8
DIBUJOS
 62
     7
100
AcDbVertex
100
AcDb2dVertex
 10
66.1412686900419
 20
34.74181753674939
 30
0.0
  0
VERTEX
  5
1F4
330
1F2
100
AcDbEntity
  8
DIBUJOS
 62
     7
100
AcDbVertex
100
AcDb2dVertex
 10
66.1524257157644
 20
34.75295928351092
 30
0.0
  0
SEQEND
  5
1F5
330
1F2
100
AcDbEntity
  8
DIBUJOS
 62
     7
  0
POLYLINE
  5
1F6
330
19E
100
AcDbEntity
  8
DIBUJOS
 62
     7
100
AcDb2dPolyline
 66
     1
 10
0.0
 20
0.0
 30
0.0
  0
VERTEX
  5
1F7
330
1F6
100
AcDbEntity
  8
DIBUJOS
 62
     7
100
AcDbVertex
100
AcDb2dVertex
 10
66.15800347791718
 20
34.74181753674939
 30
0.0
  0
VERTEX
  5
1F8
330
1F6
100
AcDbEntity
  8
DIBUJOS
 62
     7
100
AcDbVertex
100
AcDb2dVertex
 10
66.15800347791718
 20
34.74738915981014
 30
0.0
  0
SEQEND
  5
1F9
330
1F6
100
AcDbEntity
  8
DIBUJOS
 62
     7
  0
POLYLINE
  5
1FA
330
19E
100
AcDbEntity
  8
DIBUJOS
 62
     7
100
AcDb2dPolyline
 66
     1
 10
0.0
 20
0.0
 30
0.0
  0
VERTEX
  5
1FB
330
1FA
100
AcDbEntity
  8
DIBUJOS
 62
     7
100
AcDbVertex
100
AcDb2dVertex
 10
66.16358274148689
 20
34.74181753674939
 30
0.0
  0
VERTEX
  5
1FC
330
1FA
100
AcDbEntity
  8
DIBUJOS
 62
     7
100
AcDbVertex
100
AcDb2dVertex
 10
66.15800347791718
 20
34.74181753674939
 30
0.0
  0
SEQEND
  5
1FD
330
1FA
100
AcDbEntity
  8
DIBUJOS
 62
     7
  0
POLYLINE
  5
1FE
330
19E
100
AcDbEntity
  8
DIBUJOS
 62
     7
100
AcDb2dPolyline
 66
     1
 10
0.0
 20
0.0
 30
0.0
  0
VERTEX
  5
1FF
330
1FE
100
AcDbEntity
  8
DIBUJOS
 62
     7
100
AcDbVertex
100
AcDb2dVertex
 10
66.16358274148689
 20
34.74181753674939
 30
0.0
  0
VERTEX
  5
200
330
1FE
100
AcDbEntity
  8
DIBUJOS
 62
     7
100
AcDbVertex
100
AcDb2dVertex
 10
66.17473976720939
 20
34.74738915981014
 30
0.0
  0
SEQEND
  5
201
330
1FE
100
AcDbEntity
  8
DIBUJOS
 62
     7
  0
POLYLINE
  5
202
330
19E
100
AcDbEntity
  8
DIBUJOS
 62
     7
100
AcDb2dPolyline
 66
     1
 10
0.0
 20
0.0
 30
0.0
  0
VERTEX
  5
203
330
202
100
AcDbEntity
  8
DIBUJOS
 62
     7
100
AcDbVertex
100
AcDb2dVertex
 10
63.35206706110363
 20
34.74181753674939
 30
0.0
  0
VERTEX
  5
204
330
202
100
AcDbEntity
  8
DIBUJOS
 62
     7
100
AcDbVertex
100
AcDb2dVertex
 10
63.35764557396472
 20
34.73624741304862
 30
0.0
  0
VERTEX
  5
205
330
202
100
AcDbEntity
  8
DIBUJOS
 62
     7
100
AcDbVertex
100
AcDb2dVertex
 10
63.39111590042423
 20
34.75295928351092
 30
0.0
  0
SEQEND
  5
206
330
202
100
AcDbEntity
  8
DIBUJOS
 62
     7
  0
POLYLINE
  5
207
330
19E
100
AcDbEntity
  8
DIBUJOS
 62
     7
100
AcDb2dPolyline
 66
     1
 10
0.0
 20
0.0
 30
0.0
  0
VERTEX
  5
208
330
207
100
AcDbEntity
  8
DIBUJOS
 62
     7
100
AcDbVertex
100
AcDb2dVertex
 10
66.146846452195
 20
34.73624741304862
 30
0.0
  0
VERTEX
  5
209
330
207
100
AcDbEntity
  8
DIBUJOS
 62
     7
100
AcDbVertex
100
AcDb2dVertex
 10
66.1412686900419
 20
34.74181753674939
 30
0.0
  0
SEQEND
  5
20A
330
207
100
AcDbEntity
  8
DIBUJOS
 62
     7
  0
POLYLINE
  5
20B
330
19E
100
AcDbEntity
  8
DIBUJOS
 62
     7
100
AcDb2dPolyline
 66
     1
 10
0.0
 20
0.0
 30
0.0
  0
VERTEX
  5
20C
330
20B
100
AcDbEntity
  8
DIBUJOS
 62
     7
100
AcDbVertex
100
AcDb2dVertex
 10
66.1524257157644
 20
34.73624741304862
 30
0.0
  0
VERTEX
  5
20D
330
20B
100
AcDbEntity
  8
DIBUJOS
 62
     7
100
AcDbVertex
100
AcDb2dVertex
 10
66.146846452195
 20
34.73624741304862
 30
0.0
  0
SEQEND
  5
20E
330
20B
100
AcDbEntity
  8
DIBUJOS
 62
     7
  0
POLYLINE
  5
20F
330
19E
100
AcDbEntity
  8
DIBUJOS
 62
     7
100
AcDb2dPolyline
 66
     1
 10
0.0
 20
0.0
 30
0.0
  0
VERTEX
  5
210
330
20F
100
AcDbEntity
  8
DIBUJOS
 62
     7
100
AcDbVertex
100
AcDb2dVertex
 10
66.1524257157644
 20
34.73624741304862
 30
0.0
  0
VERTEX
  5
211
330
20F
100
AcDbEntity
  8
DIBUJOS
 62
     7
100
AcDbVertex
100
AcDb2dVertex
 10
66.15800347791718
 20
34.74181753674939
 30
0.0
  0
SEQEND
  5
212
330
20F
100
AcDbEntity
  8
DIBUJOS
 62
     7
  0
POLYLINE
  5
213
330
19E
100
AcDbEntity
  8
DIBUJOS
 62
     7
100
AcDb2dPolyline
 66
     1
 10
0.0
 20
0.0
 30
0.0
  0
VERTEX
  5
214
330
213
100
AcDbEntity
  8
DIBUJOS
 62
     7
100
AcDbVertex
100
AcDb2dVertex
 10
66.1524257157644
 20
34.73067578998723
 30
0.0
  0
VERTEX
  5
215
330
213
100
AcDbEntity
  8
DIBUJOS
 62
     7
100
AcDbVertex
100
AcDb2dVertex
 10
66.1524257157644
 20
34.73624741304862
 30
0.0
  0
SEQEND
  5
216
330
213
100
AcDbEntity
  8
DIBUJOS
 62
     7
  0
POLYLINE
  5
217
330
19E
100
AcDbEntity
  8
DIBUJOS
 62
     7
100
AcDb2dPolyline
 66
     1
 10
0.0
 20
0.0
 30
0.0
  0
VERTEX
  5
218
330
217
100
AcDbEntity
  8
DIBUJOS
 62
     7
100
AcDbVertex
100
AcDb2dVertex
 10
66.2137886065303
 20
34.71953404322571
 30
0.0
  0
VERTEX
  5
219
330
217
100
AcDbEntity
  8
DIBUJOS
 62
     7
100
AcDbVertex
100
AcDb2dVertex
 10
66.2137886065303
 20
34.72510566628709
 30
0.0
  0
VERTEX
  5
21A
330
217
100
AcDbEntity
  8
DIBUJOS
 62
     7
100
AcDbVertex
100
AcDb2dVertex
 10
66.19791112745385
 20
34.73753236486885
 30
0.0
  0
VERTEX
  5
21B
330
217
100
AcDbEntity
  8
DIBUJOS
 62
     7
100
AcDbVertex
100
AcDb2dVertex
 10
66.18589529151528
 20
34.74738915981014
 30
0.0
  0
SEQEND
  5
21C
330
217
100
AcDbEntity
  8
DIBUJOS
 62
     7
  0
POLYLINE
  5
21D
330
19E
100
AcDbEntity
  8
DIBUJOS
 62
     7
100
AcDb2dPolyline
 66
     1
 10
0.0
 20
0.0
 30
0.0
  0
VERTEX
  5
21E
330
21D
100
AcDbEntity
  8
DIBUJOS
 62
     7
100
AcDbVertex
100
AcDb2dVertex
 10
66.20263158080748
 20
34.70839229646482
 30
0.0
  0
VERTEX
  5
21F
330
21D
100
AcDbEntity
  8
DIBUJOS
 62
     7
100
AcDbVertex
100
AcDb2dVertex
 10
66.2137886065303
 20
34.71953404322571
 30
0.0
  0
SEQEND
  5
220
330
21D
100
AcDbEntity
  8
DIBUJOS
 62
     7
  0
POLYLINE
  5
221
330
19E
100
AcDbEntity
  8
DIBUJOS
 62
     7
100
AcDb2dPolyline
 66
     1
 10
0.0
 20
0.0
 30
0.0
  0
VERTEX
  5
222
330
221
100
AcDbEntity
  8
DIBUJOS
 62
     7
100
AcDbVertex
100
AcDb2dVertex
 10
66.19705231723809
 20
34.70282217276404
 30
0.0
  0
VERTEX
  5
223
330
221
100
AcDbEntity
  8
DIBUJOS
 62
     7
100
AcDbVertex
100
AcDb2dVertex
 10
66.1524257157644
 20
34.73067578998723
 30
0.0
  0
SEQEND
  5
224
330
221
100
AcDbEntity
  8
DIBUJOS
 62
     7
  0
POLYLINE
  5
225
330
19E
100
AcDbEntity
  8
DIBUJOS
 62
     7
100
AcDb2dPolyline
 66
     1
 10
0.0
 20
0.0
 30
0.0
  0
VERTEX
  5
226
330
225
100
AcDbEntity
  8
DIBUJOS
 62
     7
100
AcDbVertex
100
AcDb2dVertex
 10
66.20263158080748
 20
34.70282217276404
 30
0.0
  0
VERTEX
  5
227
330
225
100
AcDbEntity
  8
DIBUJOS
 62
     7
100
AcDbVertex
100
AcDb2dVertex
 10
66.19705231723809
 20
34.70282217276404
 30
0.0
  0
SEQEND
  5
228
330
225
100
AcDbEntity
  8
DIBUJOS
 62
     7
  0
POLYLINE
  5
229
330
19E
100
AcDbEntity
  8
DIBUJOS
 62
     7
100
AcDb2dPolyline
 66
     1
 10
0.0
 20
0.0
 30
0.0
  0
VERTEX
  5
22A
330
229
100
AcDbEntity
  8
DIBUJOS
 62
     7
100
AcDbVertex
100
AcDb2dVertex
 10
66.20263158080748
 20
34.70282217276404
 30
0.0
  0
VERTEX
  5
22B
330
229
100
AcDbEntity
  8
DIBUJOS
 62
     7
100
AcDbVertex
100
AcDb2dVertex
 10
66.20263158080748
 20
34.70839229646482
 30
0.0
  0
SEQEND
  5
22C
330
229
100
AcDbEntity
  8
DIBUJOS
 62
     7
  0
POLYLINE
  5
22D
330
19E
100
AcDbEntity
  8
DIBUJOS
 62
     7
100
AcDb2dPolyline
 66
     1
 10
0.0
 20
0.0
 30
0.0
  0
VERTEX
  5
22E
330
22D
100
AcDbEntity
  8
DIBUJOS
 62
     7
100
AcDbVertex
100
AcDb2dVertex
 10
66.21936636868308
 20
34.70282217276404
 30
0.0
  0
VERTEX
  5
22F
330
22D
100
AcDbEntity
  8
DIBUJOS
 62
     7
100
AcDbVertex
100
AcDb2dVertex
 10
66.2137886065303
 20
34.71953404322571
 30
0.0
  0
SEQEND
  5
230
330
22D
100
AcDbEntity
  8
DIBUJOS
 62
     7
  0
POLYLINE
  5
231
330
19E
100
AcDbEntity
  8
DIBUJOS
 62
     7
100
AcDb2dPolyline
 66
     1
 10
0.0
 20
0.0
 30
0.0
  0
VERTEX
  5
232
330
231
100
AcDbEntity
  8
DIBUJOS
 62
     7
100
AcDbVertex
100
AcDb2dVertex
 10
66.2137886065303
 20
34.69725204906327
 30
0.0
  0
VERTEX
  5
233
330
231
100
AcDbEntity
  8
DIBUJOS
 62
     7
100
AcDbVertex
100
AcDb2dVertex
 10
66.20263158080748
 20
34.70282217276404
 30
0.0
  0
SEQEND
  5
234
330
231
100
AcDbEntity
  8
DIBUJOS
 62
     7
  0
POLYLINE
  5
235
330
19E
100
AcDbEntity
  8
DIBUJOS
 62
     7
100
AcDb2dPolyline
 66
     1
 10
0.0
 20
0.0
 30
0.0
  0
VERTEX
  5
236
330
235
100
AcDbEntity
  8
DIBUJOS
 62
     7
100
AcDbVertex
100
AcDb2dVertex
 10
66.21936636868308
 20
34.69725204906327
 30
0.0
  0
VERTEX
  5
237
330
235
100
AcDbEntity
  8
DIBUJOS
 62
     7
100
AcDbVertex
100
AcDb2dVertex
 10
66.2137886065303
 20
34.69725204906327
 30
0.0
  0
SEQEND
  5
238
330
235
100
AcDbEntity
  8
DIBUJOS
 62
     7
  0
POLYLINE
  5
239
330
19E
100
AcDbEntity
  8
DIBUJOS
 62
     7
100
AcDb2dPolyline
 66
     1
 10
0.0
 20
0.0
 30
0.0
  0
VERTEX
  5
23A
330
239
100
AcDbEntity
  8
DIBUJOS
 62
     7
100
AcDbVertex
100
AcDb2dVertex
 10
66.21936636868308
 20
34.69725204906327
 30
0.0
  0
VERTEX
  5
23B
330
239
100
AcDbEntity
  8
DIBUJOS
 62
     7
100
AcDbVertex
100
AcDb2dVertex
 10
66.21936636868308
 20
34.70282217276404
 30
0.0
  0
SEQEND
  5
23C
330
239
100
AcDbEntity
  8
DIBUJOS
 62
     7
  0
POLYLINE
  5
23D
330
19E
100
AcDbEntity
  8
DIBUJOS
 62
     7
100
AcDb2dPolyline
 66
     1
 10
0.0
 20
0.0
 30
0.0
  0
VERTEX
  5
23E
330
23D
100
AcDbEntity
  8
DIBUJOS
 62
     7
100
AcDbVertex
100
AcDb2dVertex
 10
67.42988038762526
 20
29.46073377730468
 30
0.0
  0
VERTEX
  5
23F
330
23D
100
AcDbEntity
  8
DIBUJOS
 62
     7
100
AcDbVertex
100
AcDb2dVertex
 10
67.42988038762526
 20
29.46630465068512
 30
0.0
  0
SEQEND
  5
240
330
23D
100
AcDbEntity
  8
DIBUJOS
 62
     7
  0
POLYLINE
  5
241
330
19E
100
AcDbEntity
  8
DIBUJOS
 62
     7
100
AcDb2dPolyline
 66
     1
 10
0.0
 20
0.0
 30
0.0
  0
VERTEX
  5
242
330
241
100
AcDbEntity
  8
DIBUJOS
 62
     7
100
AcDbVertex
100
AcDb2dVertex
 10
67.43545814977804
 20
29.46073377730468
 30
0.0
  0
VERTEX
  5
243
330
241
100
AcDbEntity
  8
DIBUJOS
 62
     7
100
AcDbVertex
100
AcDb2dVertex
 10
67.42988038762526
 20
29.46073377730468
 30
0.0
  0
SEQEND
  5
244
330
241
100
AcDbEntity
  8
DIBUJOS
 62
     7
  0
POLYLINE
  5
245
330
19E
100
AcDbEntity
  8
DIBUJOS
 62
     7
100
AcDb2dPolyline
 66
     1
 10
0.0
 20
0.0
 30
0.0
  0
VERTEX
  5
246
330
245
100
AcDbEntity
  8
DIBUJOS
 62
     7
100
AcDbVertex
100
AcDb2dVertex
 10
67.42988038762526
 20
29.4551629039236
 30
0.0
  0
VERTEX
  5
247
330
245
100
AcDbEntity
  8
DIBUJOS
 62
     7
100
AcDbVertex
100
AcDb2dVertex
 10
67.42988038762526
 20
29.46073377730468
 30
0.0
  0
SEQEND
  5
248
330
245
100
AcDbEntity
  8
DIBUJOS
 62
     7
  0
POLYLINE
  5
249
330
19E
100
AcDbEntity
  8
DIBUJOS
 62
     7
100
AcDb2dPolyline
 66
     1
 10
0.0
 20
0.0
 30
0.0
  0
VERTEX
  5
24A
330
249
100
AcDbEntity
  8
DIBUJOS
 62
     7
100
AcDbVertex
100
AcDb2dVertex
 10
62.01882876204593
 20
29.37160130257245
 30
0.0
  0
VERTEX
  5
24B
330
249
100
AcDbEntity
  8
DIBUJOS
 62
     7
100
AcDbVertex
100
AcDb2dVertex
 10
62.06657380550954
 20
29.45106665144684
 30
0.0
  0
VERTEX
  5
24C
330
249
100
AcDbEntity
  8
DIBUJOS
 62
     7
100
AcDbVertex
100
AcDb2dVertex
 10
62.13400692302751
 20
29.63391889390285
 30
0.0
  0
VERTEX
  5
24D
330
249
100
AcDbEntity
  8
DIBUJOS
 62
     7
100
AcDbVertex
100
AcDb2dVertex
 10
62.16025768843386
 20
29.73878040838751
 30
0.0
  0
VERTEX
  5
24E
330
249
100
AcDbEntity
  8
DIBUJOS
 62
     7
100
AcDbVertex
100
AcDb2dVertex
 10
62.37818978918134
 20
31.11491657779353
 30
0.0
  0
VERTEX
  5
24F
330
249
100
AcDbEntity
  8
DIBUJOS
 62
     7
100
AcDbVertex
100
AcDb2dVertex
 10
62.41166011564084
 20
31.33217614156369
 30
0.0
  0
VERTEX
  5
250
330
249
100
AcDbEntity
  8
DIBUJOS
 62
     7
100
AcDbVertex
100
AcDb2dVertex
 10
62.45755391260771
 20
31.58925721687129
 30
0.0
  0
VERTEX
  5
251
330
249
100
AcDbEntity
  8
DIBUJOS
 62
     7
100
AcDbVertex
100
AcDb2dVertex
 10
62.49496170373624
 20
31.7331140953413
 30
0.0
  0
VERTEX
  5
252
330
249
100
AcDbEntity
  8
DIBUJOS
 62
     7
100
AcDbVertex
100
AcDb2dVertex
 10
62.54989327709109
 20
31.89459970312833
 30
0.0
  0
VERTEX
  5
253
330
249
100
AcDbEntity
  8
DIBUJOS
 62
     7
100
AcDbVertex
100
AcDb2dVertex
 10
62.56997547296667
 20
31.93471059121419
 30
0.0
  0
VERTEX
  5
254
330
249
100
AcDbEntity
  8
DIBUJOS
 62
     7
100
AcDbVertex
100
AcDb2dVertex
 10
62.66729503585201
 20
32.06670977835596
 30
0.0
  0
VERTEX
  5
255
330
249
100
AcDbEntity
  8
DIBUJOS
 62
     7
100
AcDbVertex
100
AcDb2dVertex
 10
62.69244376157538
 20
32.09684692139307
 30
0.0
  0
VERTEX
  5
256
330
249
100
AcDbEntity
  8
DIBUJOS
 62
     7
100
AcDbVertex
100
AcDb2dVertex
 10
62.76075670913909
 20
32.17926675983757
 30
0.0
  0
VERTEX
  5
257
330
249
100
AcDbEntity
  8
DIBUJOS
 62
     7
100
AcDbVertex
100
AcDb2dVertex
 10
62.96715718075752
 20
32.38538532652586
 30
0.0
  0
VERTEX
  5
258
330
249
100
AcDbEntity
  8
DIBUJOS
 62
     7
100
AcDbVertex
100
AcDb2dVertex
 10
63.09097073851547
 20
32.47872950448172
 30
0.0
  0
VERTEX
  5
259
330
249
100
AcDbEntity
  8
DIBUJOS
 62
     7
100
AcDbVertex
100
AcDb2dVertex
 10
63.13551401137529
 20
32.51217573581094
 30
0.0
  0
VERTEX
  5
25A
330
249
100
AcDbEntity
  8
DIBUJOS
 62
     7
100
AcDbVertex
100
AcDb2dVertex
 10
63.29156298055349
 20
32.61807105925778
 30
0.0
  0
VERTEX
  5
25B
330
249
100
AcDbEntity
  8
DIBUJOS
 62
     7
100
AcDbVertex
100
AcDb2dVertex
 10
63.32503330701267
 20
32.64035455278147
 30
0.0
  0
VERTEX
  5
25C
330
249
100
AcDbEntity
  8
DIBUJOS
 62
     7
100
AcDbVertex
100
AcDb2dVertex
 10
63.55344754678344
 20
32.76865331857876
 30
0.0
  0
VERTEX
  5
25D
330
249
100
AcDbEntity
  8
DIBUJOS
 62
     7
100
AcDbVertex
100
AcDb2dVertex
 10
63.66501555188444
 20
32.81823266727538
 30
0.0
  0
VERTEX
  5
25E
330
249
100
AcDbEntity
  8
DIBUJOS
 62
     7
100
AcDbVertex
100
AcDb2dVertex
 10
63.88250773760922
 20
32.89592802125652
 30
0.0
  0
VERTEX
  5
25F
330
249
100
AcDbEntity
  8
DIBUJOS
 62
     7
100
AcDbVertex
100
AcDb2dVertex
 10
63.89825909770254
 20
32.89986084345534
 30
0.0
  0
VERTEX
  5
260
330
249
100
AcDbEntity
  8
DIBUJOS
 62
     7
100
AcDbVertex
100
AcDb2dVertex
 10
64.0943711130206
 20
32.94020263303492
 30
0.0
  0
VERTEX
  5
261
330
249
100
AcDbEntity
  8
DIBUJOS
 62
     7
100
AcDbVertex
100
AcDb2dVertex
 10
64.12150921555543
 20
32.94472020576978
 30
0.0
  0
VERTEX
  5
262
330
249
100
AcDbEntity
  8
DIBUJOS
 62
     7
100
AcDbVertex
100
AcDb2dVertex
 10
64.35043919188038
 20
32.96177393039213
 30
0.0
  0
VERTEX
  5
263
330
249
100
AcDbEntity
  8
DIBUJOS
 62
     7
100
AcDbVertex
100
AcDb2dVertex
 10
64.48437154587803
 20
32.96740852658747
 30
0.0
  0
VERTEX
  5
264
330
249
100
AcDbEntity
  8
DIBUJOS
 62
     7
100
AcDbVertex
100
AcDb2dVertex
 10
65.0312865145029
 20
32.96739803106514
 30
0.0
  0
VERTEX
  5
265
330
249
100
AcDbEntity
  8
DIBUJOS
 62
     7
100
AcDbVertex
100
AcDb2dVertex
 10
65.24299224118617
 20
32.9565606544549
 30
0.0
  0
VERTEX
  5
266
330
249
100
AcDbEntity
  8
DIBUJOS
 62
     7
100
AcDbVertex
100
AcDb2dVertex
 10
65.41645388777178
 20
32.93914858270904
 30
0.0
  0
VERTEX
  5
267
330
249
100
AcDbEntity
  8
DIBUJOS
 62
     7
100
AcDbVertex
100
AcDb2dVertex
 10
65.54480847961632
 20
32.91674963843914
 30
0.0
  0
VERTEX
  5
268
330
249
100
AcDbEntity
  8
DIBUJOS
 62
     7
100
AcDbVertex
100
AcDb2dVertex
 10
65.73460253446592
 20
32.86057010548107
 30
0.0
  0
VERTEX
  5
269
330
249
100
AcDbEntity
  8
DIBUJOS
 62
     7
100
AcDbVertex
100
AcDb2dVertex
 10
65.89079789174892
 20
32.79929274733264
 30
0.0
  0
VERTEX
  5
26A
330
249
100
AcDbEntity
  8
DIBUJOS
 62
     7
100
AcDbVertex
100
AcDb2dVertex
 10
66.11251806622772
 20
32.68492004046696
 30
0.0
  0
VERTEX
  5
26B
330
249
100
AcDbEntity
  8
DIBUJOS
 62
     7
100
AcDbVertex
100
AcDb2dVertex
 10
66.27570852280301
 20
32.58147617119253
 30
0.0
  0
VERTEX
  5
26C
330
249
100
AcDbEntity
  8
DIBUJOS
 62
     7
100
AcDbVertex
100
AcDb2dVertex
 10
66.51930133228748
 20
32.4007072899434
 30
0.0
  0
VERTEX
  5
26D
330
249
100
AcDbEntity
  8
DIBUJOS
 62
     7
100
AcDbVertex
100
AcDb2dVertex
 10
66.7493138298814
 20
32.17926675983757
 30
0.0
  0
VERTEX
  5
26E
330
249
100
AcDbEntity
  8
DIBUJOS
 62
     7
100
AcDbVertex
100
AcDb2dVertex
 10
66.91237516464066
 20
31.974005827269
 30
0.0
  0
VERTEX
  5
26F
330
249
100
AcDbEntity
  8
DIBUJOS
 62
     7
100
AcDbVertex
100
AcDb2dVertex
 10
66.93211428685498
 20
31.94443694180511
 30
0.0
  0
VERTEX
  5
270
330
249
100
AcDbEntity
  8
DIBUJOS
 62
     7
100
AcDbVertex
100
AcDb2dVertex
 10
66.96575652549912
 20
31.87788783266602
 30
0.0
  0
VERTEX
  5
271
330
249
100
AcDbEntity
  8
DIBUJOS
 62
     7
100
AcDbVertex
100
AcDb2dVertex
 10
66.97970318300614
 20
31.84557811648196
 30
0.0
  0
VERTEX
  5
272
330
249
100
AcDbEntity
  8
DIBUJOS
 62
     7
100
AcDbVertex
100
AcDb2dVertex
 10
67.04136035139891
 20
31.63382345423772
 30
0.0
  0
VERTEX
  5
273
330
249
100
AcDbEntity
  8
DIBUJOS
 62
     7
100
AcDbVertex
100
AcDb2dVertex
 10
67.0525173771214
 20
31.58925721687129
 30
0.0
  0
VERTEX
  5
274
330
249
100
AcDbEntity
  8
DIBUJOS
 62
     7
100
AcDbVertex
100
AcDb2dVertex
 10
67.34834896953733
 20
29.75084201272431
 30
0.0
  0
VERTEX
  5
275
330
249
100
AcDbEntity
  8
DIBUJOS
 62
     7
100
AcDbVertex
100
AcDb2dVertex
 10
67.42988038762526
 20
29.46630465068512
 30
0.0
  0
SEQEND
  5
276
330
249
100
AcDbEntity
  8
DIBUJOS
 62
     7
  0
POLYLINE
  5
277
330
19E
100
AcDbEntity
  8
DIBUJOS
 62
     7
100
AcDb2dPolyline
 66
     1
 10
0.0
 20
0.0
 30
0.0
  0
VERTEX
  5
278
330
277
100
AcDbEntity
  8
DIBUJOS
 62
     7
100
AcDbVertex
100
AcDb2dVertex
 10
62.01882876204593
 20
29.36603117887167
 30
0.0
  0
VERTEX
  5
279
330
277
100
AcDbEntity
  8
DIBUJOS
 62
     7
100
AcDbVertex
100
AcDb2dVertex
 10
62.01325099989283
 20
29.36603117887167
 30
0.0
  0
SEQEND
  5
27A
330
277
100
AcDbEntity
  8
DIBUJOS
 62
     7
  0
POLYLINE
  5
27B
330
19E
100
AcDbEntity
  8
DIBUJOS
 62
     7
100
AcDb2dPolyline
 66
     1
 10
0.0
 20
0.0
 30
0.0
  0
VERTEX
  5
27C
330
27B
100
AcDbEntity
  8
DIBUJOS
 62
     7
100
AcDbVertex
100
AcDb2dVertex
 10
62.01882876204593
 20
29.36603117887167
 30
0.0
  0
VERTEX
  5
27D
330
27B
100
AcDbEntity
  8
DIBUJOS
 62
     7
100
AcDbVertex
100
AcDb2dVertex
 10
62.01882876204593
 20
29.37160130257245
 30
0.0
  0
SEQEND
  5
27E
330
27B
100
AcDbEntity
  8
DIBUJOS
 62
     7
  0
POLYLINE
  5
27F
330
19E
100
AcDbEntity
  8
DIBUJOS
 62
     7
100
AcDb2dPolyline
 66
     1
 10
0.0
 20
0.0
 30
0.0
  0
VERTEX
  5
280
330
27F
100
AcDbEntity
  8
DIBUJOS
 62
     7
100
AcDbVertex
100
AcDb2dVertex
 10
63.35206706110363
 20
34.74181753674939
 30
0.0
  0
VERTEX
  5
281
330
27F
100
AcDbEntity
  8
DIBUJOS
 62
     7
100
AcDbVertex
100
AcDb2dVertex
 10
63.07763740963239
 20
34.53705739053826
 30
0.0
  0
VERTEX
  5
282
330
27F
100
AcDbEntity
  8
DIBUJOS
 62
     7
100
AcDbVertex
100
AcDb2dVertex
 10
62.93493528208548
 20
34.42289909220219
 30
0.0
  0
VERTEX
  5
283
330
27F
100
AcDbEntity
  8
DIBUJOS
 62
     7
100
AcDbVertex
100
AcDb2dVertex
 10
62.73721149619638
 20
34.24740346130432
 30
0.0
  0
VERTEX
  5
284
330
27F
100
AcDbEntity
  8
DIBUJOS
 62
     7
100
AcDbVertex
100
AcDb2dVertex
 10
62.55015527426338
 20
34.03315086471719
 30
0.0
  0
VERTEX
  5
285
330
27F
100
AcDbEntity
  8
DIBUJOS
 62
     7
100
AcDbVertex
100
AcDb2dVertex
 10
62.46090056989971
 20
33.92730651952202
 30
0.0
  0
VERTEX
  5
286
330
27F
100
AcDbEntity
  8
DIBUJOS
 62
     7
100
AcDbVertex
100
AcDb2dVertex
 10
62.254237350401
 20
33.55468848403685
 30
0.0
  0
VERTEX
  5
287
330
27F
100
AcDbEntity
  8
DIBUJOS
 62
     7
100
AcDbVertex
100
AcDb2dVertex
 10
62.08744349431892
 20
33.15359309742115
 30
0.0
  0
VERTEX
  5
288
330
27F
100
AcDbEntity
  8
DIBUJOS
 62
     7
100
AcDbVertex
100
AcDb2dVertex
 10
62.01110472506157
 20
32.90389412279687
 30
0.0
  0
VERTEX
  5
289
330
27F
100
AcDbEntity
  8
DIBUJOS
 62
     7
100
AcDbVertex
100
AcDb2dVertex
 10
61.97194027667349
 20
32.70329470155706
 30
0.0
  0
VERTEX
  5
28A
330
27F
100
AcDbEntity
  8
DIBUJOS
 62
     7
100
AcDbVertex
100
AcDb2dVertex
 10
61.88171190373455
 20
32.15664890895624
 30
0.0
  0
VERTEX
  5
28B
330
27F
100
AcDbEntity
  8
DIBUJOS
 62
     7
100
AcDbVertex
100
AcDb2dVertex
 10
61.83787129377804
 20
31.79515612726784
 30
0.0
  0
VERTEX
  5
28C
330
27F
100
AcDbEntity
  8
DIBUJOS
 62
     7
100
AcDbVertex
100
AcDb2dVertex
 10
61.67603136130981
 20
30.09045837722392
 30
0.0
  0
VERTEX
  5
28D
330
27F
100
AcDbEntity
  8
DIBUJOS
 62
     7
100
AcDbVertex
100
AcDb2dVertex
 10
61.6648503129241
 20
29.95674317216178
 30
0.0
  0
VERTEX
  5
28E
330
27F
100
AcDbEntity
  8
DIBUJOS
 62
     7
100
AcDbVertex
100
AcDb2dVertex
 10
61.61718409382455
 20
29.37717217595289
 30
0.0
  0
VERTEX
  5
28F
330
27F
100
AcDbEntity
  8
DIBUJOS
 62
     7
100
AcDbVertex
100
AcDb2dVertex
 10
61.62050072278689
 20
29.28209323807166
 30
0.0
  0
VERTEX
  5
290
330
27F
100
AcDbEntity
  8
DIBUJOS
 62
     7
100
AcDbVertex
100
AcDb2dVertex
 10
61.62276260668563
 20
29.25461521061575
 30
0.0
  0
VERTEX
  5
291
330
27F
100
AcDbEntity
  8
DIBUJOS
 62
     7
100
AcDbVertex
100
AcDb2dVertex
 10
61.65623293314513
 20
29.22119072001148
 30
0.0
  0
VERTEX
  5
292
330
27F
100
AcDbEntity
  8
DIBUJOS
 62
     7
100
AcDbVertex
100
AcDb2dVertex
 10
61.68412474674323
 20
29.22119072001148
 30
0.0
  0
VERTEX
  5
293
330
27F
100
AcDbEntity
  8
DIBUJOS
 62
     7
100
AcDbVertex
100
AcDb2dVertex
 10
61.85104772464101
 20
29.25118692317526
 30
0.0
  0
VERTEX
  5
294
330
27F
100
AcDbEntity
  8
DIBUJOS
 62
     7
100
AcDbVertex
100
AcDb2dVertex
 10
61.87992671956195
 20
29.26464293263738
 30
0.0
  0
VERTEX
  5
295
330
27F
100
AcDbEntity
  8
DIBUJOS
 62
     7
100
AcDbVertex
100
AcDb2dVertex
 10
61.96862364771083
 20
29.31032319474371
 30
0.0
  0
VERTEX
  5
296
330
27F
100
AcDbEntity
  8
DIBUJOS
 62
     7
100
AcDbVertex
100
AcDb2dVertex
 10
62.01325099989283
 20
29.36603117887167
 30
0.0
  0
SEQEND
  5
297
330
27F
100
AcDbEntity
  8
DIBUJOS
 62
     7
  0
POLYLINE
  5
298
330
19E
100
AcDbEntity
  8
DIBUJOS
 62
     7
100
AcDb2dPolyline
 66
     1
 10
0.0
 20
0.0
 30
0.0
  0
VERTEX
  5
299
330
298
100
AcDbEntity
  8
DIBUJOS
 62
     7
100
AcDbVertex
100
AcDb2dVertex
 10
67.43545814977804
 20
29.46073377730468
 30
0.0
  0
VERTEX
  5
29A
330
298
100
AcDbEntity
  8
DIBUJOS
 62
     7
100
AcDbVertex
100
AcDb2dVertex
 10
67.49810775445147
 20
29.36688806331172
 30
0.0
  0
VERTEX
  5
29B
330
298
100
AcDbEntity
  8
DIBUJOS
 62
     7
100
AcDbVertex
100
AcDb2dVertex
 10
67.54144764201797
 20
29.31032319474371
 30
0.0
  0
VERTEX
  5
29C
330
298
100
AcDbEntity
  8
DIBUJOS
 62
     7
100
AcDbVertex
100
AcDb2dVertex
 10
67.61898829515266
 20
29.27021380601782
 30
0.0
  0
VERTEX
  5
29D
330
298
100
AcDbEntity
  8
DIBUJOS
 62
     7
100
AcDbVertex
100
AcDb2dVertex
 10
67.68133761653341
 20
29.24561679947512
 30
0.0
  0
VERTEX
  5
29E
330
298
100
AcDbEntity
  8
DIBUJOS
 62
     7
100
AcDbVertex
100
AcDb2dVertex
 10
67.73712124372929
 20
29.2344750527136
 30
0.0
  0
VERTEX
  5
29F
330
298
100
AcDbEntity
  8
DIBUJOS
 62
     7
100
AcDbVertex
100
AcDb2dVertex
 10
67.84826059443056
 20
29.22119072001148
 30
0.0
  0
VERTEX
  5
2A0
330
298
100
AcDbEntity
  8
DIBUJOS
 62
     7
100
AcDbVertex
100
AcDb2dVertex
 10
67.85941611873709
 20
29.22676159339256
 30
0.0
  0
VERTEX
  5
2A1
330
298
100
AcDbEntity
  8
DIBUJOS
 62
     7
100
AcDbVertex
100
AcDb2dVertex
 10
67.8873094337518
 20
29.25461521061575
 30
0.0
  0
VERTEX
  5
2A2
330
298
100
AcDbEntity
  8
DIBUJOS
 62
     7
100
AcDbVertex
100
AcDb2dVertex
 10
67.89288719590458
 20
29.28246957751988
 30
0.0
  0
VERTEX
  5
2A3
330
298
100
AcDbEntity
  8
DIBUJOS
 62
     7
100
AcDbVertex
100
AcDb2dVertex
 10
67.88429008524825
 20
29.4665010668913
 30
0.0
  0
VERTEX
  5
2A4
330
298
100
AcDbEntity
  8
DIBUJOS
 62
     7
100
AcDbVertex
100
AcDb2dVertex
 10
67.84572019777872
 20
29.95632035254307
 30
0.0
  0
VERTEX
  5
2A5
330
298
100
AcDbEntity
  8
DIBUJOS
 62
     7
100
AcDbVertex
100
AcDb2dVertex
 10
67.70073591721075
 20
31.51609742794844
 30
0.0
  0
VERTEX
  5
2A6
330
298
100
AcDbEntity
  8
DIBUJOS
 62
     7
100
AcDbVertex
100
AcDb2dVertex
 10
67.64503486791982
 20
32.03412717858824
 30
0.0
  0
VERTEX
  5
2A7
330
298
100
AcDbEntity
  8
DIBUJOS
 62
     7
100
AcDbVertex
100
AcDb2dVertex
 10
67.56602282665372
 20
32.55288336931643
 30
0.0
  0
VERTEX
  5
2A8
330
298
100
AcDbEntity
  8
DIBUJOS
 62
     7
100
AcDbVertex
100
AcDb2dVertex
 10
67.50583254214413
 20
32.86961274775192
 30
0.0
  0
VERTEX
  5
2A9
330
298
100
AcDbEntity
  8
DIBUJOS
 62
     7
100
AcDbVertex
100
AcDb2dVertex
 10
67.47060180488387
 20
33.00429578992042
 30
0.0
  0
VERTEX
  5
2AA
330
298
100
AcDbEntity
  8
DIBUJOS
 62
     7
100
AcDbVertex
100
AcDb2dVertex
 10
67.42820630827129
 20
33.13688122695885
 30
0.0
  0
VERTEX
  5
2AB
330
298
100
AcDbEntity
  8
DIBUJOS
 62
     7
100
AcDbVertex
100
AcDb2dVertex
 10
67.32277384153849
 20
33.39870702809544
 30
0.0
  0
VERTEX
  5
2AC
330
298
100
AcDbEntity
  8
DIBUJOS
 62
     7
100
AcDbVertex
100
AcDb2dVertex
 10
67.28037834492656
 20
33.50009377496848
 30
0.0
  0
VERTEX
  5
2AD
330
298
100
AcDbEntity
  8
DIBUJOS
 62
     7
100
AcDbVertex
100
AcDb2dVertex
 10
67.09946666986049
 20
33.83849640726514
 30
0.0
  0
VERTEX
  5
2AE
330
298
100
AcDbEntity
  8
DIBUJOS
 62
     7
100
AcDbVertex
100
AcDb2dVertex
 10
67.0605889920162
 20
33.90564675990503
 30
0.0
  0
VERTEX
  5
2AF
330
298
100
AcDbEntity
  8
DIBUJOS
 62
     7
100
AcDbVertex
100
AcDb2dVertex
 10
66.95433675189602
 20
34.03872248777794
 30
0.0
  0
VERTEX
  5
2B0
330
298
100
AcDbEntity
  8
DIBUJOS
 62
     7
100
AcDbVertex
100
AcDb2dVertex
 10
66.80646975172294
 20
34.21373682400306
 30
0.0
  0
VERTEX
  5
2B1
330
298
100
AcDbEntity
  8
DIBUJOS
 62
     7
100
AcDbVertex
100
AcDb2dVertex
 10
66.53612620515075
 20
34.45632883056795
 30
0.0
  0
VERTEX
  5
2B2
330
298
100
AcDbEntity
  8
DIBUJOS
 62
     7
100
AcDbVertex
100
AcDb2dVertex
 10
66.21936636868308
 20
34.69725204906327
 30
0.0
  0
SEQEND
  5
2B3
330
298
100
AcDbEntity
  8
DIBUJOS
 62
     7
  0
POLYLINE
  5
2B4
330
19E
100
AcDbEntity
  8
DIBUJOS
 62
     7
100
AcDb2dPolyline
 66
     1
 10
0.0
 20
0.0
 30
0.0
  0
VERTEX
  5
2B5
330
2B4
100
AcDbEntity
  8
DIBUJOS
 62
     7
100
AcDbVertex
100
AcDb2dVertex
 10
62.28101361156854
 20
28.31872722464758
 30
0.0
  0
VERTEX
  5
2B6
330
2B4
100
AcDbEntity
  8
DIBUJOS
 62
     7
100
AcDbVertex
100
AcDb2dVertex
 10
62.16522812762818
 20
28.45351297299971
 30
0.0
  0
VERTEX
  5
2B7
330
2B4
100
AcDbEntity
  8
DIBUJOS
 62
     7
100
AcDbVertex
100
AcDb2dVertex
 10
62.10975679505593
 20
28.55882729431073
 30
0.0
  0
VERTEX
  5
2B8
330
2B4
100
AcDbEntity
  8
DIBUJOS
 62
     7
100
AcDbVertex
100
AcDb2dVertex
 10
62.0924634802569
 20
28.59782265829609
 30
0.0
  0
VERTEX
  5
2B9
330
2B4
100
AcDbEntity
  8
DIBUJOS
 62
     7
100
AcDbVertex
100
AcDb2dVertex
 10
62.06542522191675
 20
28.69246003455359
 30
0.0
  0
VERTEX
  5
2BA
330
2B4
100
AcDbEntity
  8
DIBUJOS
 62
     7
100
AcDbVertex
100
AcDb2dVertex
 10
62.04475221866351
 20
28.78060892889629
 30
0.0
  0
VERTEX
  5
2BB
330
2B4
100
AcDbEntity
  8
DIBUJOS
 62
     7
100
AcDbVertex
100
AcDb2dVertex
 10
62.00767248703174
 20
29.10977550143586
 30
0.0
  0
VERTEX
  5
2BC
330
2B4
100
AcDbEntity
  8
DIBUJOS
 62
     7
100
AcDbVertex
100
AcDb2dVertex
 10
62.00767248703174
 20
29.17105435894491
 30
0.0
  0
VERTEX
  5
2BD
330
2B4
100
AcDbEntity
  8
DIBUJOS
 62
     7
100
AcDbVertex
100
AcDb2dVertex
 10
62.02440727490734
 20
29.36046030549059
 30
0.0
  0
VERTEX
  5
2BE
330
2B4
100
AcDbEntity
  8
DIBUJOS
 62
     7
100
AcDbVertex
100
AcDb2dVertex
 10
62.01882876204593
 20
29.36603117887167
 30
0.0
  0
SEQEND
  5
2BF
330
2B4
100
AcDbEntity
  8
DIBUJOS
 62
     7
  0
POLYLINE
  5
2C0
330
19E
100
AcDbEntity
  8
DIBUJOS
 62
     7
100
AcDb2dPolyline
 66
     1
 10
0.0
 20
0.0
 30
0.0
  0
VERTEX
  5
2C1
330
2C0
100
AcDbEntity
  8
DIBUJOS
 62
     7
100
AcDbVertex
100
AcDb2dVertex
 10
67.13422446093549
 20
28.31872722464758
 30
0.0
  0
VERTEX
  5
2C2
330
2C0
100
AcDbEntity
  8
DIBUJOS
 62
     7
100
AcDbVertex
100
AcDb2dVertex
 10
67.20116511385417
 20
28.38000608215598
 30
0.0
  0
VERTEX
  5
2C3
330
2C0
100
AcDbEntity
  8
DIBUJOS
 62
     7
100
AcDbVertex
100
AcDb2dVertex
 10
67.23887468969166
 20
28.43114551529678
 30
0.0
  0
VERTEX
  5
2C4
330
2C0
100
AcDbEntity
  8
DIBUJOS
 62
     7
100
AcDbVertex
100
AcDb2dVertex
 10
67.26673497354413
 20
28.46470869673411
 30
0.0
  0
VERTEX
  5
2C5
330
2C0
100
AcDbEntity
  8
DIBUJOS
 62
     7
100
AcDbVertex
100
AcDb2dVertex
 10
67.29990276458669
 20
28.5309736770869
 30
0.0
  0
VERTEX
  5
2C6
330
2C0
100
AcDbEntity
  8
DIBUJOS
 62
     7
100
AcDbVertex
100
AcDb2dVertex
 10
67.32500644781622
 20
28.58556688679402
 30
0.0
  0
VERTEX
  5
2C7
330
2C0
100
AcDbEntity
  8
DIBUJOS
 62
     7
100
AcDbVertex
100
AcDb2dVertex
 10
67.34817330381149
 20
28.65248183985901
 30
0.0
  0
VERTEX
  5
2C8
330
2C0
100
AcDbEntity
  8
DIBUJOS
 62
     7
100
AcDbVertex
100
AcDb2dVertex
 10
67.3760651174096
 20
28.76946718213476
 30
0.0
  0
VERTEX
  5
2C9
330
2C0
100
AcDbEntity
  8
DIBUJOS
 62
     7
100
AcDbVertex
100
AcDb2dVertex
 10
67.40452746926336
 20
29.00929061981273
 30
0.0
  0
VERTEX
  5
2CA
330
2C0
100
AcDbEntity
  8
DIBUJOS
 62
     7
100
AcDbVertex
100
AcDb2dVertex
 10
67.42988038762526
 20
29.4551629039236
 30
0.0
  0
SEQEND
  5
2CB
330
2C0
100
AcDbEntity
  8
DIBUJOS
 62
     7
  0
POLYLINE
  5
2CC
330
19E
100
AcDbEntity
  8
DIBUJOS
 62
     7
100
AcDb2dPolyline
 66
     1
 10
0.0
 20
0.0
 30
0.0
  0
VERTEX
  5
2CD
330
2CC
100
AcDbEntity
  8
DIBUJOS
 62
     7
100
AcDbVertex
100
AcDb2dVertex
 10
62.28101361156854
 20
28.3131563512665
 30
0.0
  0
VERTEX
  5
2CE
330
2CC
100
AcDbEntity
  8
DIBUJOS
 62
     7
100
AcDbVertex
100
AcDb2dVertex
 10
62.27543584941544
 20
28.3131563512665
 30
0.0
  0
SEQEND
  5
2CF
330
2CC
100
AcDbEntity
  8
DIBUJOS
 62
     7
  0
POLYLINE
  5
2D0
330
19E
100
AcDbEntity
  8
DIBUJOS
 62
     7
100
AcDb2dPolyline
 66
     1
 10
0.0
 20
0.0
 30
0.0
  0
VERTEX
  5
2D1
330
2D0
100
AcDbEntity
  8
DIBUJOS
 62
     7
100
AcDbVertex
100
AcDb2dVertex
 10
62.28101361156854
 20
28.3131563512665
 30
0.0
  0
VERTEX
  5
2D2
330
2D0
100
AcDbEntity
  8
DIBUJOS
 62
     7
100
AcDbVertex
100
AcDb2dVertex
 10
62.28101361156854
 20
28.31872722464758
 30
0.0
  0
SEQEND
  5
2D3
330
2D0
100
AcDbEntity
  8
DIBUJOS
 62
     7
  0
POLYLINE
  5
2D4
330
19E
100
AcDbEntity
  8
DIBUJOS
 62
     7
100
AcDb2dPolyline
 66
     1
 10
0.0
 20
0.0
 30
0.0
  0
VERTEX
  5
2D5
330
2D4
100
AcDbEntity
  8
DIBUJOS
 62
     7
100
AcDbVertex
100
AcDb2dVertex
 10
62.28659212442962
 20
28.3131563512665
 30
0.0
  0
VERTEX
  5
2D6
330
2D4
100
AcDbEntity
  8
DIBUJOS
 62
     7
100
AcDbVertex
100
AcDb2dVertex
 10
62.28101361156854
 20
28.3131563512665
 30
0.0
  0
SEQEND
  5
2D7
330
2D4
100
AcDbEntity
  8
DIBUJOS
 62
     7
  0
POLYLINE
  5
2D8
330
19E
100
AcDbEntity
  8
DIBUJOS
 62
     7
100
AcDb2dPolyline
 66
     1
 10
0.0
 20
0.0
 30
0.0
  0
VERTEX
  5
2D9
330
2D8
100
AcDbEntity
  8
DIBUJOS
 62
     7
100
AcDbVertex
100
AcDb2dVertex
 10
67.13422446093549
 20
28.3131563512665
 30
0.0
  0
VERTEX
  5
2DA
330
2D8
100
AcDbEntity
  8
DIBUJOS
 62
     7
100
AcDbVertex
100
AcDb2dVertex
 10
67.12864669878239
 20
28.3131563512665
 30
0.0
  0
SEQEND
  5
2DB
330
2D8
100
AcDbEntity
  8
DIBUJOS
 62
     7
  0
POLYLINE
  5
2DC
330
19E
100
AcDbEntity
  8
DIBUJOS
 62
     7
100
AcDb2dPolyline
 66
     1
 10
0.0
 20
0.0
 30
0.0
  0
VERTEX
  5
2DD
330
2DC
100
AcDbEntity
  8
DIBUJOS
 62
     7
100
AcDbVertex
100
AcDb2dVertex
 10
67.13422446093549
 20
28.3131563512665
 30
0.0
  0
VERTEX
  5
2DE
330
2DC
100
AcDbEntity
  8
DIBUJOS
 62
     7
100
AcDbVertex
100
AcDb2dVertex
 10
67.13422446093549
 20
28.31872722464758
 30
0.0
  0
SEQEND
  5
2DF
330
2DC
100
AcDbEntity
  8
DIBUJOS
 62
     7
  0
POLYLINE
  5
2E0
330
19E
100
AcDbEntity
  8
DIBUJOS
 62
     7
100
AcDb2dPolyline
 66
     1
 10
0.0
 20
0.0
 30
0.0
  0
VERTEX
  5
2E1
330
2E0
100
AcDbEntity
  8
DIBUJOS
 62
     7
100
AcDbVertex
100
AcDb2dVertex
 10
67.1398022230886
 20
28.3131563512665
 30
0.0
  0
VERTEX
  5
2E2
330
2E0
100
AcDbEntity
  8
DIBUJOS
 62
     7
100
AcDbVertex
100
AcDb2dVertex
 10
67.13422446093549
 20
28.3131563512665
 30
0.0
  0
SEQEND
  5
2E3
330
2E0
100
AcDbEntity
  8
DIBUJOS
 62
     7
  0
POLYLINE
  5
2E4
330
19E
100
AcDbEntity
  8
DIBUJOS
 62
     7
100
AcDb2dPolyline
 66
     1
 10
0.0
 20
0.0
 30
0.0
  0
VERTEX
  5
2E5
330
2E4
100
AcDbEntity
  8
DIBUJOS
 62
     7
100
AcDbVertex
100
AcDb2dVertex
 10
62.51530664749241
 20
28.17388751546769
 30
0.0
  0
VERTEX
  5
2E6
330
2E4
100
AcDbEntity
  8
DIBUJOS
 62
     7
100
AcDbVertex
100
AcDb2dVertex
 10
62.4589644933728
 20
28.20062710795162
 30
0.0
  0
VERTEX
  5
2E7
330
2E4
100
AcDbEntity
  8
DIBUJOS
 62
     7
100
AcDbVertex
100
AcDb2dVertex
 10
62.38251386858916
 20
28.24209491715403
 30
0.0
  0
VERTEX
  5
2E8
330
2E4
100
AcDbEntity
  8
DIBUJOS
 62
     7
100
AcDbVertex
100
AcDb2dVertex
 10
62.28659212442962
 20
28.3131563512665
 30
0.0
  0
SEQEND
  5
2E9
330
2E4
100
AcDbEntity
  8
DIBUJOS
 62
     7
  0
POLYLINE
  5
2EA
330
19E
100
AcDbEntity
  8
DIBUJOS
 62
     7
100
AcDb2dPolyline
 66
     1
 10
0.0
 20
0.0
 30
0.0
  0
VERTEX
  5
2EB
330
2EA
100
AcDbEntity
  8
DIBUJOS
 62
     7
100
AcDbVertex
100
AcDb2dVertex
 10
62.52088516035414
 20
28.16831664208661
 30
0.0
  0
VERTEX
  5
2EC
330
2EA
100
AcDbEntity
  8
DIBUJOS
 62
     7
100
AcDbVertex
100
AcDb2dVertex
 10
62.51530664749241
 20
28.17388751546769
 30
0.0
  0
SEQEND
  5
2ED
330
2EA
100
AcDbEntity
  8
DIBUJOS
 62
     7
  0
POLYLINE
  5
2EE
330
19E
100
AcDbEntity
  8
DIBUJOS
 62
     7
100
AcDb2dPolyline
 66
     1
 10
0.0
 20
0.0
 30
0.0
  0
VERTEX
  5
2EF
330
2EE
100
AcDbEntity
  8
DIBUJOS
 62
     7
100
AcDbVertex
100
AcDb2dVertex
 10
62.52088516035414
 20
28.16274576870617
 30
0.0
  0
VERTEX
  5
2F0
330
2EE
100
AcDbEntity
  8
DIBUJOS
 62
     7
100
AcDbVertex
100
AcDb2dVertex
 10
62.52088516035414
 20
28.16831664208661
 30
0.0
  0
SEQEND
  5
2F1
330
2EE
100
AcDbEntity
  8
DIBUJOS
 62
     7
  0
POLYLINE
  5
2F2
330
19E
100
AcDbEntity
  8
DIBUJOS
 62
     7
100
AcDb2dPolyline
 66
     1
 10
0.0
 20
0.0
 30
0.0
  0
VERTEX
  5
2F3
330
2F2
100
AcDbEntity
  8
DIBUJOS
 62
     7
100
AcDbVertex
100
AcDb2dVertex
 10
66.87203961141289
 20
28.16274576870617
 30
0.0
  0
VERTEX
  5
2F4
330
2F2
100
AcDbEntity
  8
DIBUJOS
 62
     7
100
AcDbVertex
100
AcDb2dVertex
 10
66.87203961141289
 20
28.16831664208661
 30
0.0
  0
VERTEX
  5
2F5
330
2F2
100
AcDbEntity
  8
DIBUJOS
 62
     7
100
AcDbVertex
100
AcDb2dVertex
 10
66.89937439950384
 20
28.18112942595862
 30
0.0
  0
VERTEX
  5
2F6
330
2F2
100
AcDbEntity
  8
DIBUJOS
 62
     7
100
AcDbVertex
100
AcDb2dVertex
 10
66.90606771408751
 20
28.18391448780901
 30
0.0
  0
VERTEX
  5
2F7
330
2F2
100
AcDbEntity
  8
DIBUJOS
 62
     7
100
AcDbVertex
100
AcDb2dVertex
 10
67.07386601778217
 20
28.27282430752958
 30
0.0
  0
VERTEX
  5
2F8
330
2F2
100
AcDbEntity
  8
DIBUJOS
 62
     7
100
AcDbVertex
100
AcDb2dVertex
 10
67.12864669878239
 20
28.3131563512665
 30
0.0
  0
SEQEND
  5
2F9
330
2F2
100
AcDbEntity
  8
DIBUJOS
 62
     7
  0
POLYLINE
  5
2FA
330
19E
100
AcDbEntity
  8
DIBUJOS
 62
     7
100
AcDb2dPolyline
 66
     1
 10
0.0
 20
0.0
 30
0.0
  0
VERTEX
  5
2FB
330
2FA
100
AcDbEntity
  8
DIBUJOS
 62
     7
100
AcDbVertex
100
AcDb2dVertex
 10
62.51530664749241
 20
28.15717489532508
 30
0.0
  0
VERTEX
  5
2FC
330
2FA
100
AcDbEntity
  8
DIBUJOS
 62
     7
100
AcDbVertex
100
AcDb2dVertex
 10
61.71203607875535
 20
28.15994121517173
 30
0.0
  0
VERTEX
  5
2FD
330
2FA
100
AcDbEntity
  8
DIBUJOS
 62
     7
100
AcDbVertex
100
AcDb2dVertex
 10
61.69019572420392
 20
28.16471217980493
 30
0.0
  0
VERTEX
  5
2FE
330
2FA
100
AcDbEntity
  8
DIBUJOS
 62
     7
100
AcDbVertex
100
AcDb2dVertex
 10
61.68356697052843
 20
28.16664560497676
 30
0.0
  0
VERTEX
  5
2FF
330
2FA
100
AcDbEntity
  8
DIBUJOS
 62
     7
100
AcDbVertex
100
AcDb2dVertex
 10
61.67296772102073
 20
28.16831664208661
 30
0.0
  0
VERTEX
  5
300
330
2FA
100
AcDbEntity
  8
DIBUJOS
 62
     7
100
AcDbVertex
100
AcDb2dVertex
 10
61.64507590742264
 20
28.19617025931108
 30
0.0
  0
VERTEX
  5
301
330
2FA
100
AcDbEntity
  8
DIBUJOS
 62
     7
100
AcDbVertex
100
AcDb2dVertex
 10
61.63949739456123
 20
28.21288287945304
 30
0.0
  0
VERTEX
  5
302
330
2FA
100
AcDbEntity
  8
DIBUJOS
 62
     7
100
AcDbVertex
100
AcDb2dVertex
 10
61.63949739456123
 20
28.25744911681884
 30
0.0
  0
VERTEX
  5
303
330
2FA
100
AcDbEntity
  8
DIBUJOS
 62
     7
100
AcDbVertex
100
AcDb2dVertex
 10
61.6461914598532
 20
28.26803310153075
 30
0.0
  0
VERTEX
  5
304
330
2FA
100
AcDbEntity
  8
DIBUJOS
 62
     7
100
AcDbVertex
100
AcDb2dVertex
 10
61.66738920815965
 20
28.29644448080483
 30
0.0
  0
VERTEX
  5
305
330
2FA
100
AcDbEntity
  8
DIBUJOS
 62
     7
100
AcDbVertex
100
AcDb2dVertex
 10
61.70088656011526
 20
28.3048274045221
 30
0.0
  0
VERTEX
  5
306
330
2FA
100
AcDbEntity
  8
DIBUJOS
 62
     7
100
AcDbVertex
100
AcDb2dVertex
 10
62.27543584941544
 20
28.3131563512665
 30
0.0
  0
SEQEND
  5
307
330
2FA
100
AcDbEntity
  8
DIBUJOS
 62
     7
  0
POLYLINE
  5
308
330
19E
100
AcDbEntity
  8
DIBUJOS
 62
     7
100
AcDb2dPolyline
 66
     1
 10
0.0
 20
0.0
 30
0.0
  0
VERTEX
  5
309
330
308
100
AcDbEntity
  8
DIBUJOS
 62
     7
100
AcDbVertex
100
AcDb2dVertex
 10
62.52088516035414
 20
28.15717489532508
 30
0.0
  0
VERTEX
  5
30A
330
308
100
AcDbEntity
  8
DIBUJOS
 62
     7
100
AcDbVertex
100
AcDb2dVertex
 10
62.51530664749241
 20
28.15717489532508
 30
0.0
  0
SEQEND
  5
30B
330
308
100
AcDbEntity
  8
DIBUJOS
 62
     7
  0
POLYLINE
  5
30C
330
19E
100
AcDbEntity
  8
DIBUJOS
 62
     7
100
AcDb2dPolyline
 66
     1
 10
0.0
 20
0.0
 30
0.0
  0
VERTEX
  5
30D
330
30C
100
AcDbEntity
  8
DIBUJOS
 62
     7
100
AcDbVertex
100
AcDb2dVertex
 10
62.52088516035414
 20
28.15717489532508
 30
0.0
  0
VERTEX
  5
30E
330
30C
100
AcDbEntity
  8
DIBUJOS
 62
     7
100
AcDbVertex
100
AcDb2dVertex
 10
62.52088516035414
 20
28.16274576870617
 30
0.0
  0
SEQEND
  5
30F
330
30C
100
AcDbEntity
  8
DIBUJOS
 62
     7
  0
POLYLINE
  5
310
330
19E
100
AcDbEntity
  8
DIBUJOS
 62
     7
100
AcDb2dPolyline
 66
     1
 10
0.0
 20
0.0
 30
0.0
  0
VERTEX
  5
311
330
310
100
AcDbEntity
  8
DIBUJOS
 62
     7
100
AcDbVertex
100
AcDb2dVertex
 10
62.52646367321523
 20
28.15717489532508
 30
0.0
  0
VERTEX
  5
312
330
310
100
AcDbEntity
  8
DIBUJOS
 62
     7
100
AcDbVertex
100
AcDb2dVertex
 10
62.52088516035414
 20
28.15717489532508
 30
0.0
  0
SEQEND
  5
313
330
310
100
AcDbEntity
  8
DIBUJOS
 62
     7
  0
POLYLINE
  5
314
330
19E
100
AcDbEntity
  8
DIBUJOS
 62
     7
100
AcDb2dPolyline
 66
     1
 10
0.0
 20
0.0
 30
0.0
  0
VERTEX
  5
315
330
314
100
AcDbEntity
  8
DIBUJOS
 62
     7
100
AcDbVertex
100
AcDb2dVertex
 10
66.87203961141289
 20
28.15717489532508
 30
0.0
  0
VERTEX
  5
316
330
314
100
AcDbEntity
  8
DIBUJOS
 62
     7
100
AcDbVertex
100
AcDb2dVertex
 10
66.86646184925978
 20
28.15717489532508
 30
0.0
  0
SEQEND
  5
317
330
314
100
AcDbEntity
  8
DIBUJOS
 62
     7
  0
POLYLINE
  5
318
330
19E
100
AcDbEntity
  8
DIBUJOS
 62
     7
100
AcDb2dPolyline
 66
     1
 10
0.0
 20
0.0
 30
0.0
  0
VERTEX
  5
319
330
318
100
AcDbEntity
  8
DIBUJOS
 62
     7
100
AcDbVertex
100
AcDb2dVertex
 10
66.87203961141289
 20
28.15717489532508
 30
0.0
  0
VERTEX
  5
31A
330
318
100
AcDbEntity
  8
DIBUJOS
 62
     7
100
AcDbVertex
100
AcDb2dVertex
 10
66.87203961141289
 20
28.16274576870617
 30
0.0
  0
SEQEND
  5
31B
330
318
100
AcDbEntity
  8
DIBUJOS
 62
     7
  0
POLYLINE
  5
31C
330
19E
100
AcDbEntity
  8
DIBUJOS
 62
     7
100
AcDb2dPolyline
 66
     1
 10
0.0
 20
0.0
 30
0.0
  0
VERTEX
  5
31D
330
31C
100
AcDbEntity
  8
DIBUJOS
 62
     7
100
AcDbVertex
100
AcDb2dVertex
 10
66.87761737356598
 20
28.15717489532508
 30
0.0
  0
VERTEX
  5
31E
330
31C
100
AcDbEntity
  8
DIBUJOS
 62
     7
100
AcDbVertex
100
AcDb2dVertex
 10
66.87203961141289
 20
28.15717489532508
 30
0.0
  0
SEQEND
  5
31F
330
31C
100
AcDbEntity
  8
DIBUJOS
 62
     7
  0
POLYLINE
  5
320
330
19E
100
AcDbEntity
  8
DIBUJOS
 62
     7
100
AcDb2dPolyline
 66
     1
 10
0.0
 20
0.0
 30
0.0
  0
VERTEX
  5
321
330
320
100
AcDbEntity
  8
DIBUJOS
 62
     7
100
AcDbVertex
100
AcDb2dVertex
 10
66.87761737356598
 20
28.15717489532508
 30
0.0
  0
VERTEX
  5
322
330
320
100
AcDbEntity
  8
DIBUJOS
 62
     7
100
AcDbVertex
100
AcDb2dVertex
 10
67.82035226525167
 20
28.15994421389167
 30
0.0
  0
VERTEX
  5
323
330
320
100
AcDbEntity
  8
DIBUJOS
 62
     7
100
AcDbVertex
100
AcDb2dVertex
 10
67.8421888662622
 20
28.16471217980493
 30
0.0
  0
VERTEX
  5
324
330
320
100
AcDbEntity
  8
DIBUJOS
 62
     7
100
AcDbVertex
100
AcDb2dVertex
 10
67.84881761993769
 20
28.16664560497676
 30
0.0
  0
VERTEX
  5
325
330
320
100
AcDbEntity
  8
DIBUJOS
 62
     7
100
AcDbVertex
100
AcDb2dVertex
 10
67.85941611873709
 20
28.16831664208661
 30
0.0
  0
VERTEX
  5
326
330
320
100
AcDbEntity
  8
DIBUJOS
 62
     7
100
AcDbVertex
100
AcDb2dVertex
 10
67.8873094337518
 20
28.19617025931108
 30
0.0
  0
VERTEX
  5
327
330
320
100
AcDbEntity
  8
DIBUJOS
 62
     7
100
AcDbVertex
100
AcDb2dVertex
 10
67.89846495805767
 20
28.22959474991535
 30
0.0
  0
VERTEX
  5
328
330
320
100
AcDbEntity
  8
DIBUJOS
 62
     7
100
AcDbVertex
100
AcDb2dVertex
 10
67.89485555288542
 20
28.2467991602524
 30
0.0
  0
VERTEX
  5
329
330
320
100
AcDbEntity
  8
DIBUJOS
 62
     7
100
AcDbVertex
100
AcDb2dVertex
 10
67.88173017018208
 20
28.27973186066223
 30
0.0
  0
VERTEX
  5
32A
330
320
100
AcDbEntity
  8
DIBUJOS
 62
     7
100
AcDbVertex
100
AcDb2dVertex
 10
67.85327982966024
 20
28.30034356739512
 30
0.0
  0
VERTEX
  5
32B
330
320
100
AcDbEntity
  8
DIBUJOS
 62
     7
100
AcDbVertex
100
AcDb2dVertex
 10
67.1398022230886
 20
28.3131563512665
 30
0.0
  0
SEQEND
  5
32C
330
320
100
AcDbEntity
  8
DIBUJOS
 62
     7
  0
POLYLINE
  5
32D
330
19E
100
AcDbEntity
  8
DIBUJOS
 62
     7
100
AcDb2dPolyline
 66
     1
 10
0.0
 20
0.0
 30
0.0
  0
VERTEX
  5
32E
330
32D
100
AcDbEntity
  8
DIBUJOS
 62
     7
100
AcDbVertex
100
AcDb2dVertex
 10
62.52646367321523
 20
28.15717489532508
 30
0.0
  0
VERTEX
  5
32F
330
32D
100
AcDbEntity
  8
DIBUJOS
 62
     7
100
AcDbVertex
100
AcDb2dVertex
 10
62.6543378117921
 20
28.1271786921613
 30
0.0
  0
VERTEX
  5
330
330
32D
100
AcDbEntity
  8
DIBUJOS
 62
     7
100
AcDbVertex
100
AcDb2dVertex
 10
62.76660697838012
 20
28.09834224422825
 30
0.0
  0
VERTEX
  5
331
330
32D
100
AcDbEntity
  8
DIBUJOS
 62
     7
100
AcDbVertex
100
AcDb2dVertex
 10
62.81069006709522
 20
28.09345133076637
 30
0.0
  0
VERTEX
  5
332
330
32D
100
AcDbEntity
  8
DIBUJOS
 62
     7
100
AcDbVertex
100
AcDb2dVertex
 10
63.09553804738988
 20
28.07074651698457
 30
0.0
  0
VERTEX
  5
333
330
32D
100
AcDbEntity
  8
DIBUJOS
 62
     7
100
AcDbVertex
100
AcDb2dVertex
 10
63.28504908523686
 20
28.06533907388208
 30
0.0
  0
VERTEX
  5
334
330
32D
100
AcDbEntity
  8
DIBUJOS
 62
     7
100
AcDbVertex
100
AcDb2dVertex
 10
66.20832044777856
 20
28.0653780572508
 30
0.0
  0
VERTEX
  5
335
330
32D
100
AcDbEntity
  8
DIBUJOS
 62
     7
100
AcDbVertex
100
AcDb2dVertex
 10
66.45353328562447
 20
28.07626041467221
 30
0.0
  0
VERTEX
  5
336
330
32D
100
AcDbEntity
  8
DIBUJOS
 62
     7
100
AcDbVertex
100
AcDb2dVertex
 10
66.58158609276006
 20
28.09258470048366
 30
0.0
  0
VERTEX
  5
337
330
32D
100
AcDbEntity
  8
DIBUJOS
 62
     7
100
AcDbVertex
100
AcDb2dVertex
 10
66.60942535678255
 20
28.09803937343693
 30
0.0
  0
VERTEX
  5
338
330
32D
100
AcDbEntity
  8
DIBUJOS
 62
     7
100
AcDbVertex
100
AcDb2dVertex
 10
66.74429459465172
 20
28.12765024099141
 30
0.0
  0
VERTEX
  5
339
330
32D
100
AcDbEntity
  8
DIBUJOS
 62
     7
100
AcDbVertex
100
AcDb2dVertex
 10
66.75433456652705
 20
28.13099231521175
 30
0.0
  0
VERTEX
  5
33A
330
32D
100
AcDbEntity
  8
DIBUJOS
 62
     7
100
AcDbVertex
100
AcDb2dVertex
 10
66.82771329323153
 20
28.15477516908528
 30
0.0
  0
VERTEX
  5
33B
330
32D
100
AcDbEntity
  8
DIBUJOS
 62
     7
100
AcDbVertex
100
AcDb2dVertex
 10
66.86646184925978
 20
28.15717489532508
 30
0.0
  0
SEQEND
  5
33C
330
32D
100
AcDbEntity
  8
DIBUJOS
 62
     7
  0
ENDBLK
  5
1A1
330
19E
100
AcDbEntity
  8
0
100
AcDbBlockEnd
  0
BLOCK
  5
33F
330
33D
100
AcDbEntity
  8
0
100
AcDbBlockBegin
  2
BLOCK_4
 70
     0
 10
0.0
 20
0.0
 30
0.0
  3
BLOCK_4
  1

  0
POLYLINE
  5
341
330
33D
100
AcDbEntity
  8
DIBUJOS
 62
     7
100
AcDb2dPolyline
 66
     1
 10
0.0
 20
0.0
 30
0.0
  0
VERTEX
  5
342
330
341
100
AcDbEntity
  8
DIBUJOS
 62
     7
100
AcDbVertex
100
AcDb2dVertex
 10
67.3294686575391
 20
45.03317186427277
 30
0.0
  0
VERTEX
  5
343
330
341
100
AcDbEntity
  8
DIBUJOS
 62
     7
100
AcDbVertex
100
AcDb2dVertex
 10
67.32388939396938
 20
45.03317186427277
 30
0.0
  0
SEQEND
  5
344
330
341
100
AcDbEntity
  8
DIBUJOS
 62
     7
  0
POLYLINE
  5
345
330
33D
100
AcDbEntity
  8
DIBUJOS
 62
     7
100
AcDb2dPolyline
 66
     1
 10
0.0
 20
0.0
 30
0.0
  0
VERTEX
  5
346
330
345
100
AcDbEntity
  8
DIBUJOS
 62
     7
100
AcDbVertex
100
AcDb2dVertex
 10
67.3294686575391
 20
45.03317186427277
 30
0.0
  0
VERTEX
  5
347
330
345
100
AcDbEntity
  8
DIBUJOS
 62
     7
100
AcDbVertex
100
AcDb2dVertex
 10
67.35227367216643
 20
45.0423479496155
 30
0.0
  0
VERTEX
  5
348
330
345
100
AcDbEntity
  8
DIBUJOS
 62
     7
100
AcDbVertex
100
AcDb2dVertex
 10
67.37967452258218
 20
45.04988673345532
 30
0.0
  0
VERTEX
  5
349
330
345
100
AcDbEntity
  8
DIBUJOS
 62
     7
100
AcDbVertex
100
AcDb2dVertex
 10
67.41872336190309
 20
45.08887909872043
 30
0.0
  0
VERTEX
  5
34A
330
345
100
AcDbEntity
  8
DIBUJOS
 62
     7
100
AcDbVertex
100
AcDb2dVertex
 10
67.42185231380768
 20
45.13929059241125
 30
0.0
  0
VERTEX
  5
34B
330
345
100
AcDbEntity
  8
DIBUJOS
 62
     7
100
AcDbVertex
100
AcDb2dVertex
 10
67.42674993430407
 20
45.18331181229035
 30
0.0
  0
VERTEX
  5
34C
330
345
100
AcDbEntity
  8
DIBUJOS
 62
     7
100
AcDbVertex
100
AcDb2dVertex
 10
67.42988038762526
 20
45.60696207665183
 30
0.0
  0
VERTEX
  5
34D
330
345
100
AcDbEntity
  8
DIBUJOS
 62
     7
100
AcDbVertex
100
AcDb2dVertex
 10
67.42189885771812
 20
45.65122919162815
 30
0.0
  0
VERTEX
  5
34E
330
345
100
AcDbEntity
  8
DIBUJOS
 62
     7
100
AcDbVertex
100
AcDb2dVertex
 10
67.40868188861083
 20
45.71336268453601
 30
0.0
  0
VERTEX
  5
34F
330
345
100
AcDbEntity
  8
DIBUJOS
 62
     7
100
AcDbVertex
100
AcDb2dVertex
 10
67.40198857402717
 20
45.72951979166895
 30
0.0
  0
VERTEX
  5
350
330
345
100
AcDbEntity
  8
DIBUJOS
 62
     7
100
AcDbVertex
100
AcDb2dVertex
 10
67.34564641990724
 20
45.77297125461455
 30
0.0
  0
VERTEX
  5
351
330
345
100
AcDbEntity
  8
DIBUJOS
 62
     7
100
AcDbVertex
100
AcDb2dVertex
 10
67.34118270876871
 20
45.77519930409498
 30
0.0
  0
VERTEX
  5
352
330
345
100
AcDbEntity
  8
DIBUJOS
 62
     7
100
AcDbVertex
100
AcDb2dVertex
 10
67.21176361265326
 20
45.83369235007302
 30
0.0
  0
VERTEX
  5
353
330
345
100
AcDbEntity
  8
DIBUJOS
 62
     7
100
AcDbVertex
100
AcDb2dVertex
 10
67.19502882477765
 20
45.83981873646376
 30
0.0
  0
VERTEX
  5
354
330
345
100
AcDbEntity
  8
DIBUJOS
 62
     7
100
AcDbVertex
100
AcDb2dVertex
 10
66.99420686602095
 20
45.90053983192191
 30
0.0
  0
VERTEX
  5
355
330
345
100
AcDbEntity
  8
DIBUJOS
 62
     7
100
AcDbVertex
100
AcDb2dVertex
 10
66.98416539272934
 20
45.90388340550253
 30
0.0
  0
VERTEX
  5
356
330
345
100
AcDbEntity
  8
DIBUJOS
 62
     7
100
AcDbVertex
100
AcDb2dVertex
 10
66.71064334750857
 20
45.94903514308596
 30
0.0
  0
VERTEX
  5
357
330
345
100
AcDbEntity
  8
DIBUJOS
 62
     7
100
AcDbVertex
100
AcDb2dVertex
 10
66.19724900279455
 20
45.99389900348095
 30
0.0
  0
VERTEX
  5
358
330
345
100
AcDbEntity
  8
DIBUJOS
 62
     7
100
AcDbVertex
100
AcDb2dVertex
 10
65.51090949875709
 20
46.03591108049071
 30
0.0
  0
SEQEND
  5
359
330
345
100
AcDbEntity
  8
DIBUJOS
 62
     7
  0
POLYLINE
  5
35A
330
33D
100
AcDbEntity
  8
DIBUJOS
 62
     7
100
AcDb2dPolyline
 66
     1
 10
0.0
 20
0.0
 30
0.0
  0
VERTEX
  5
35B
330
35A
100
AcDbEntity
  8
DIBUJOS
 62
     7
100
AcDbVertex
100
AcDb2dVertex
 10
62.15271081859193
 20
45.0276032399326
 30
0.0
  0
VERTEX
  5
35C
330
35A
100
AcDbEntity
  8
DIBUJOS
 62
     7
100
AcDbVertex
100
AcDb2dVertex
 10
62.14657452951541
 20
45.0315015768429
 30
0.0
  0
VERTEX
  5
35D
330
35A
100
AcDbEntity
  8
DIBUJOS
 62
     7
100
AcDbVertex
100
AcDb2dVertex
 10
62.05229908850544
 20
45.05545535779613
 30
0.0
  0
VERTEX
  5
35E
330
35A
100
AcDbEntity
  8
DIBUJOS
 62
     7
100
AcDbVertex
100
AcDb2dVertex
 10
62.02887023533787
 20
45.08275271232968
 30
0.0
  0
VERTEX
  5
35F
330
35A
100
AcDbEntity
  8
DIBUJOS
 62
     7
100
AcDbVertex
100
AcDb2dVertex
 10
62.01594078748301
 20
45.15582253963149
 30
0.0
  0
VERTEX
  5
360
330
35A
100
AcDbEntity
  8
DIBUJOS
 62
     7
100
AcDbVertex
100
AcDb2dVertex
 10
62.00767248703174
 20
45.46212086811165
 30
0.0
  0
VERTEX
  5
361
330
35A
100
AcDbEntity
  8
DIBUJOS
 62
     7
100
AcDbVertex
100
AcDb2dVertex
 10
62.02127832300243
 20
45.68467992103887
 30
0.0
  0
VERTEX
  5
362
330
35A
100
AcDbEntity
  8
DIBUJOS
 62
     7
100
AcDbVertex
100
AcDb2dVertex
 10
62.03427683601434
 20
45.71923417966749
 30
0.0
  0
VERTEX
  5
363
330
35A
100
AcDbEntity
  8
DIBUJOS
 62
     7
100
AcDbVertex
100
AcDb2dVertex
 10
62.07963312588809
 20
45.76405605797317
 30
0.0
  0
VERTEX
  5
364
330
35A
100
AcDbEntity
  8
DIBUJOS
 62
     7
100
AcDbVertex
100
AcDb2dVertex
 10
62.09079015161123
 20
45.76962768103424
 30
0.0
  0
VERTEX
  5
365
330
35A
100
AcDbEntity
  8
DIBUJOS
 62
     7
100
AcDbVertex
100
AcDb2dVertex
 10
62.22578776058747
 20
45.82812072701227
 30
0.0
  0
VERTEX
  5
366
330
35A
100
AcDbEntity
  8
DIBUJOS
 62
     7
100
AcDbVertex
100
AcDb2dVertex
 10
62.24252329917137
 20
45.83425011212326
 30
0.0
  0
VERTEX
  5
367
330
35A
100
AcDbEntity
  8
DIBUJOS
 62
     7
100
AcDbVertex
100
AcDb2dVertex
 10
62.44327994631192
 20
45.88910570989204
 30
0.0
  0
VERTEX
  5
368
330
35A
100
AcDbEntity
  8
DIBUJOS
 62
     7
100
AcDbVertex
100
AcDb2dVertex
 10
62.49801408340233
 20
45.90388340550253
 30
0.0
  0
VERTEX
  5
369
330
35A
100
AcDbEntity
  8
DIBUJOS
 62
     7
100
AcDbVertex
100
AcDb2dVertex
 10
62.60489616772759
 20
45.92772623378977
 30
0.0
  0
VERTEX
  5
36A
330
35A
100
AcDbEntity
  8
DIBUJOS
 62
     7
100
AcDbVertex
100
AcDb2dVertex
 10
62.71579454108688
 20
45.94354748420414
 30
0.0
  0
VERTEX
  5
36B
330
35A
100
AcDbEntity
  8
DIBUJOS
 62
     7
100
AcDbVertex
100
AcDb2dVertex
 10
63.09564464795866
 20
45.98319956802281
 30
0.0
  0
VERTEX
  5
36C
330
35A
100
AcDbEntity
  8
DIBUJOS
 62
     7
100
AcDbVertex
100
AcDb2dVertex
 10
63.16779596670599
 20
45.98834537274428
 30
0.0
  0
VERTEX
  5
36D
330
35A
100
AcDbEntity
  8
DIBUJOS
 62
     7
100
AcDbVertex
100
AcDb2dVertex
 10
63.9157145654795
 20
46.03339815254432
 30
0.0
  0
VERTEX
  5
36E
330
35A
100
AcDbEntity
  8
DIBUJOS
 62
     7
100
AcDbVertex
100
AcDb2dVertex
 10
63.97126997737362
 20
46.03591108049071
 30
0.0
  0
SEQEND
  5
36F
330
35A
100
AcDbEntity
  8
DIBUJOS
 62
     7
  0
POLYLINE
  5
370
330
33D
100
AcDbEntity
  8
DIBUJOS
 62
     7
100
AcDb2dPolyline
 66
     1
 10
0.0
 20
0.0
 30
0.0
  0
VERTEX
  5
371
330
370
100
AcDbEntity
  8
DIBUJOS
 62
     7
100
AcDbVertex
100
AcDb2dVertex
 10
62.15271081859193
 20
45.0276032399326
 30
0.0
  0
VERTEX
  5
372
330
370
100
AcDbEntity
  8
DIBUJOS
 62
     7
100
AcDbVertex
100
AcDb2dVertex
 10
67.32388939396938
 20
45.03317186427277
 30
0.0
  0
SEQEND
  5
373
330
370
100
AcDbEntity
  8
DIBUJOS
 62
     7
  0
POLYLINE
  5
374
330
33D
100
AcDbEntity
  8
DIBUJOS
 62
     7
100
AcDb2dPolyline
 66
     1
 10
0.0
 20
0.0
 30
0.0
  0
VERTEX
  5
375
330
374
100
AcDbEntity
  8
DIBUJOS
 62
     7
100
AcDbVertex
100
AcDb2dVertex
 10
67.3294686575391
 20
45.0276032399326
 30
0.0
  0
VERTEX
  5
376
330
374
100
AcDbEntity
  8
DIBUJOS
 62
     7
100
AcDbVertex
100
AcDb2dVertex
 10
67.3294686575391
 20
45.03317186427277
 30
0.0
  0
SEQEND
  5
377
330
374
100
AcDbEntity
  8
DIBUJOS
 62
     7
  0
POLYLINE
  5
378
330
33D
100
AcDbEntity
  8
DIBUJOS
 62
     7
100
AcDb2dPolyline
 66
     1
 10
0.0
 20
0.0
 30
0.0
  0
VERTEX
  5
379
330
378
100
AcDbEntity
  8
DIBUJOS
 62
     7
100
AcDbVertex
100
AcDb2dVertex
 10
62.10250495354884
 20
44.60979448349494
 30
0.0
  0
VERTEX
  5
37A
330
378
100
AcDbEntity
  8
DIBUJOS
 62
     7
100
AcDbVertex
100
AcDb2dVertex
 10
62.098041993118
 20
44.62149249294644
 30
0.0
  0
VERTEX
  5
37B
330
378
100
AcDbEntity
  8
DIBUJOS
 62
     7
100
AcDbVertex
100
AcDb2dVertex
 10
62.08019165281183
 20
44.74349244591299
 30
0.0
  0
VERTEX
  5
37C
330
378
100
AcDbEntity
  8
DIBUJOS
 62
     7
100
AcDbVertex
100
AcDb2dVertex
 10
62.08019165281183
 20
44.84933829046813
 30
0.0
  0
VERTEX
  5
37D
330
378
100
AcDbEntity
  8
DIBUJOS
 62
     7
100
AcDbVertex
100
AcDb2dVertex
 10
62.09349345194931
 20
44.96032394230295
 30
0.0
  0
VERTEX
  5
37E
330
378
100
AcDbEntity
  8
DIBUJOS
 62
     7
100
AcDbVertex
100
AcDb2dVertex
 10
62.10679600179476
 20
44.9894625113467
 30
0.0
  0
VERTEX
  5
37F
330
378
100
AcDbEntity
  8
DIBUJOS
 62
     7
100
AcDbVertex
100
AcDb2dVertex
 10
62.12426047807041
 20
45.00643227178916
 30
0.0
  0
VERTEX
  5
380
330
378
100
AcDbEntity
  8
DIBUJOS
 62
     7
100
AcDbVertex
100
AcDb2dVertex
 10
62.15271081859193
 20
45.0276032399326
 30
0.0
  0
SEQEND
  5
381
330
378
100
AcDbEntity
  8
DIBUJOS
 62
     7
  0
POLYLINE
  5
382
330
33D
100
AcDbEntity
  8
DIBUJOS
 62
     7
100
AcDb2dPolyline
 66
     1
 10
0.0
 20
0.0
 30
0.0
  0
VERTEX
  5
383
330
382
100
AcDbEntity
  8
DIBUJOS
 62
     7
100
AcDbVertex
100
AcDb2dVertex
 10
67.4131440983337
 20
44.60979448349494
 30
0.0
  0
VERTEX
  5
384
330
382
100
AcDbEntity
  8
DIBUJOS
 62
     7
100
AcDbVertex
100
AcDb2dVertex
 10
67.42098449509321
 20
44.65398363173285
 30
0.0
  0
VERTEX
  5
385
330
382
100
AcDbEntity
  8
DIBUJOS
 62
     7
100
AcDbVertex
100
AcDb2dVertex
 10
67.42988038762526
 20
44.71564032804977
 30
0.0
  0
VERTEX
  5
386
330
382
100
AcDbEntity
  8
DIBUJOS
 62
     7
100
AcDbVertex
100
AcDb2dVertex
 10
67.42988038762526
 20
44.87719040833135
 30
0.0
  0
VERTEX
  5
387
330
382
100
AcDbEntity
  8
DIBUJOS
 62
     7
100
AcDbVertex
100
AcDb2dVertex
 10
67.42178625148354
 20
44.93824136306661
 30
0.0
  0
VERTEX
  5
388
330
382
100
AcDbEntity
  8
DIBUJOS
 62
     7
100
AcDbVertex
100
AcDb2dVertex
 10
67.42086888602604
 20
44.94446970596132
 30
0.0
  0
VERTEX
  5
389
330
382
100
AcDbEntity
  8
DIBUJOS
 62
     7
100
AcDbVertex
100
AcDb2dVertex
 10
67.41185738442618
 20
44.97660699570508
 30
0.0
  0
VERTEX
  5
38A
330
382
100
AcDbEntity
  8
DIBUJOS
 62
     7
100
AcDbVertex
100
AcDb2dVertex
 10
67.40198857402717
 20
44.99417650028709
 30
0.0
  0
VERTEX
  5
38B
330
382
100
AcDbEntity
  8
DIBUJOS
 62
     7
100
AcDbVertex
100
AcDb2dVertex
 10
67.35693106602915
 20
45.01988753157097
 30
0.0
  0
VERTEX
  5
38C
330
382
100
AcDbEntity
  8
DIBUJOS
 62
     7
100
AcDbVertex
100
AcDb2dVertex
 10
67.3294686575391
 20
45.0276032399326
 30
0.0
  0
SEQEND
  5
38D
330
382
100
AcDbEntity
  8
DIBUJOS
 62
     7
  0
POLYLINE
  5
38E
330
33D
100
AcDbEntity
  8
DIBUJOS
 62
     7
100
AcDb2dPolyline
 66
     1
 10
0.0
 20
0.0
 30
0.0
  0
VERTEX
  5
38F
330
38E
100
AcDbEntity
  8
DIBUJOS
 62
     7
100
AcDbVertex
100
AcDb2dVertex
 10
62.10250495354884
 20
44.60422286043388
 30
0.0
  0
VERTEX
  5
390
330
38E
100
AcDbEntity
  8
DIBUJOS
 62
     7
100
AcDbVertex
100
AcDb2dVertex
 10
62.09692644068743
 20
44.60422286043388
 30
0.0
  0
SEQEND
  5
391
330
38E
100
AcDbEntity
  8
DIBUJOS
 62
     7
  0
POLYLINE
  5
392
330
33D
100
AcDbEntity
  8
DIBUJOS
 62
     7
100
AcDb2dPolyline
 66
     1
 10
0.0
 20
0.0
 30
0.0
  0
VERTEX
  5
393
330
392
100
AcDbEntity
  8
DIBUJOS
 62
     7
100
AcDbVertex
100
AcDb2dVertex
 10
62.10250495354884
 20
44.60422286043388
 30
0.0
  0
VERTEX
  5
394
330
392
100
AcDbEntity
  8
DIBUJOS
 62
     7
100
AcDbVertex
100
AcDb2dVertex
 10
62.10250495354884
 20
44.60979448349494
 30
0.0
  0
SEQEND
  5
395
330
392
100
AcDbEntity
  8
DIBUJOS
 62
     7
  0
POLYLINE
  5
396
330
33D
100
AcDbEntity
  8
DIBUJOS
 62
     7
100
AcDb2dPolyline
 66
     1
 10
0.0
 20
0.0
 30
0.0
  0
VERTEX
  5
397
330
396
100
AcDbEntity
  8
DIBUJOS
 62
     7
100
AcDbVertex
100
AcDb2dVertex
 10
62.10808346641026
 20
44.60422286043388
 30
0.0
  0
VERTEX
  5
398
330
396
100
AcDbEntity
  8
DIBUJOS
 62
     7
100
AcDbVertex
100
AcDb2dVertex
 10
62.10250495354884
 20
44.60422286043388
 30
0.0
  0
SEQEND
  5
399
330
396
100
AcDbEntity
  8
DIBUJOS
 62
     7
  0
POLYLINE
  5
39A
330
33D
100
AcDbEntity
  8
DIBUJOS
 62
     7
100
AcDb2dPolyline
 66
     1
 10
0.0
 20
0.0
 30
0.0
  0
VERTEX
  5
39B
330
39A
100
AcDbEntity
  8
DIBUJOS
 62
     7
100
AcDbVertex
100
AcDb2dVertex
 10
67.4131440983337
 20
44.60979448349494
 30
0.0
  0
VERTEX
  5
39C
330
39A
100
AcDbEntity
  8
DIBUJOS
 62
     7
100
AcDbVertex
100
AcDb2dVertex
 10
67.41872336190309
 20
44.60422286043388
 30
0.0
  0
VERTEX
  5
39D
330
39A
100
AcDbEntity
  8
DIBUJOS
 62
     7
100
AcDbVertex
100
AcDb2dVertex
 10
67.70880002502346
 20
44.60422286043388
 30
0.0
  0
VERTEX
  5
39E
330
39A
100
AcDbEntity
  8
DIBUJOS
 62
     7
100
AcDbVertex
100
AcDb2dVertex
 10
67.76458365221966
 20
44.632077977018
 30
0.0
  0
VERTEX
  5
39F
330
39A
100
AcDbEntity
  8
DIBUJOS
 62
     7
100
AcDbVertex
100
AcDb2dVertex
 10
67.77574067794215
 20
44.64321822441924
 30
0.0
  0
VERTEX
  5
3A0
330
39A
100
AcDbEntity
  8
DIBUJOS
 62
     7
100
AcDbVertex
100
AcDb2dVertex
 10
67.80694912050323
 20
44.77172240258473
 30
0.0
  0
VERTEX
  5
3A1
330
39A
100
AcDbEntity
  8
DIBUJOS
 62
     7
100
AcDbVertex
100
AcDb2dVertex
 10
67.81147288830041
 20
44.79882484027303
 30
0.0
  0
VERTEX
  5
3A2
330
39A
100
AcDbEntity
  8
DIBUJOS
 62
     7
100
AcDbVertex
100
AcDb2dVertex
 10
67.8451962034335
 20
45.11093468947033
 30
0.0
  0
VERTEX
  5
3A3
330
39A
100
AcDbEntity
  8
DIBUJOS
 62
     7
100
AcDbVertex
100
AcDb2dVertex
 10
67.87346637397968
 20
45.60705803571432
 30
0.0
  0
VERTEX
  5
3A4
330
39A
100
AcDbEntity
  8
DIBUJOS
 62
     7
100
AcDbVertex
100
AcDb2dVertex
 10
67.87883844207795
 20
45.75727595047
 30
0.0
  0
VERTEX
  5
3A5
330
39A
100
AcDbEntity
  8
DIBUJOS
 62
     7
100
AcDbVertex
100
AcDb2dVertex
 10
67.89288719590458
 20
46.13618530198479
 30
0.0
  0
VERTEX
  5
3A6
330
39A
100
AcDbEntity
  8
DIBUJOS
 62
     7
100
AcDbVertex
100
AcDb2dVertex
 10
67.89288719590458
 20
46.79910349101522
 30
0.0
  0
VERTEX
  5
3A7
330
39A
100
AcDbEntity
  8
DIBUJOS
 62
     7
100
AcDbVertex
100
AcDb2dVertex
 10
67.88466543936343
 20
46.91038901492013
 30
0.0
  0
VERTEX
  5
3A8
330
39A
100
AcDbEntity
  8
DIBUJOS
 62
     7
100
AcDbVertex
100
AcDb2dVertex
 10
67.86817087812183
 20
47.07734278990366
 30
0.0
  0
VERTEX
  5
3A9
330
39A
100
AcDbEntity
  8
DIBUJOS
 62
     7
100
AcDbVertex
100
AcDb2dVertex
 10
67.84658651507658
 20
47.16064725095527
 30
0.0
  0
VERTEX
  5
3AA
330
39A
100
AcDbEntity
  8
DIBUJOS
 62
     7
100
AcDbVertex
100
AcDb2dVertex
 10
67.82594654298589
 20
47.20577200005162
 30
0.0
  0
VERTEX
  5
3AB
330
39A
100
AcDbEntity
  8
DIBUJOS
 62
     7
100
AcDbVertex
100
AcDb2dVertex
 10
67.78745472917211
 20
47.23473964201536
 30
0.0
  0
VERTEX
  5
3AC
330
39A
100
AcDbEntity
  8
DIBUJOS
 62
     7
100
AcDbVertex
100
AcDb2dVertex
 10
67.75293416189788
 20
47.24837182631865
 30
0.0
  0
VERTEX
  5
3AD
330
39A
100
AcDbEntity
  8
DIBUJOS
 62
     7
100
AcDbVertex
100
AcDb2dVertex
 10
67.54144764201797
 20
47.30604322282481
 30
0.0
  0
VERTEX
  5
3AE
330
39A
100
AcDbEntity
  8
DIBUJOS
 62
     7
100
AcDbVertex
100
AcDb2dVertex
 10
67.51913359057298
 20
47.32832671634786
 30
0.0
  0
VERTEX
  5
3AF
330
39A
100
AcDbEntity
  8
DIBUJOS
 62
     7
100
AcDbVertex
100
AcDb2dVertex
 10
67.28093687184999
 20
48.01966078273323
 30
0.0
  0
VERTEX
  5
3B0
330
39A
100
AcDbEntity
  8
DIBUJOS
 62
     7
100
AcDbVertex
100
AcDb2dVertex
 10
67.2775887131417
 20
48.02968550603428
 30
0.0
  0
VERTEX
  5
3B1
330
39A
100
AcDbEntity
  8
DIBUJOS
 62
     7
100
AcDbVertex
100
AcDb2dVertex
 10
67.15542295994993
 20
48.30265305393176
 30
0.0
  0
VERTEX
  5
3B2
330
39A
100
AcDbEntity
  8
DIBUJOS
 62
     7
100
AcDbVertex
100
AcDb2dVertex
 10
67.06616825558592
 20
48.49206124951835
 30
0.0
  0
VERTEX
  5
3B3
330
39A
100
AcDbEntity
  8
DIBUJOS
 62
     7
100
AcDbVertex
100
AcDb2dVertex
 10
66.87624658033693
 20
48.72544868289378
 30
0.0
  0
VERTEX
  5
3B4
330
39A
100
AcDbEntity
  8
DIBUJOS
 62
     7
100
AcDbVertex
100
AcDb2dVertex
 10
66.82320604101515
 20
48.78900956685517
 30
0.0
  0
VERTEX
  5
3B5
330
39A
100
AcDbEntity
  8
DIBUJOS
 62
     7
100
AcDbVertex
100
AcDb2dVertex
 10
66.53633189920623
 20
49.00936156134725
 30
0.0
  0
VERTEX
  5
3B6
330
39A
100
AcDbEntity
  8
DIBUJOS
 62
     7
100
AcDbVertex
100
AcDb2dVertex
 10
66.51974124731052
 20
49.02055278700014
 30
0.0
  0
VERTEX
  5
3B7
330
39A
100
AcDbEntity
  8
DIBUJOS
 62
     7
100
AcDbVertex
100
AcDb2dVertex
 10
66.25339447135802
 20
49.18450484256276
 30
0.0
  0
VERTEX
  5
3B8
330
39A
100
AcDbEntity
  8
DIBUJOS
 62
     7
100
AcDbVertex
100
AcDb2dVertex
 10
66.01910143543384
 20
49.27976520304571
 30
0.0
  0
VERTEX
  5
3B9
330
39A
100
AcDbEntity
  8
DIBUJOS
 62
     7
100
AcDbVertex
100
AcDb2dVertex
 10
65.87393398205795
 20
49.313662741841
 30
0.0
  0
VERTEX
  5
3BA
330
39A
100
AcDbEntity
  8
DIBUJOS
 62
     7
100
AcDbVertex
100
AcDb2dVertex
 10
65.71780168426618
 20
49.3469095582438
 30
0.0
  0
VERTEX
  5
3BB
330
39A
100
AcDbEntity
  8
DIBUJOS
 62
     7
100
AcDbVertex
100
AcDb2dVertex
 10
65.54968508028209
 20
49.37035055795762
 30
0.0
  0
VERTEX
  5
3BC
330
39A
100
AcDbEntity
  8
DIBUJOS
 62
     7
100
AcDbVertex
100
AcDb2dVertex
 10
65.50560349298361
 20
49.37524447014007
 30
0.0
  0
VERTEX
  5
3BD
330
39A
100
AcDbEntity
  8
DIBUJOS
 62
     7
100
AcDbVertex
100
AcDb2dVertex
 10
65.203950908948
 20
49.39802875002025
 30
0.0
  0
VERTEX
  5
3BE
330
39A
100
AcDbEntity
  8
DIBUJOS
 62
     7
100
AcDbVertex
100
AcDb2dVertex
 10
65.10363376809836
 20
49.40349241913589
 30
0.0
  0
VERTEX
  5
3BF
330
39A
100
AcDbEntity
  8
DIBUJOS
 62
     7
100
AcDbVertex
100
AcDb2dVertex
 10
64.6908838730221
 20
49.41179287803388
 30
0.0
  0
VERTEX
  5
3C0
330
39A
100
AcDbEntity
  8
DIBUJOS
 62
     7
100
AcDbVertex
100
AcDb2dVertex
 10
64.11606057521836
 20
49.38642070218979
 30
0.0
  0
VERTEX
  5
3C1
330
39A
100
AcDbEntity
  8
DIBUJOS
 62
     7
100
AcDbVertex
100
AcDb2dVertex
 10
64.06635167902341
 20
49.38145781943096
 30
0.0
  0
VERTEX
  5
3C2
330
39A
100
AcDbEntity
  8
DIBUJOS
 62
     7
100
AcDbVertex
100
AcDb2dVertex
 10
63.82016141906104
 20
49.35248118130487
 30
0.0
  0
VERTEX
  5
3C3
330
39A
100
AcDbEntity
  8
DIBUJOS
 62
     7
100
AcDbVertex
100
AcDb2dVertex
 10
63.67046569363814
 20
49.3205178173617
 30
0.0
  0
VERTEX
  5
3C4
330
39A
100
AcDbEntity
  8
DIBUJOS
 62
     7
100
AcDbVertex
100
AcDb2dVertex
 10
63.48539134143419
 20
49.27921043971634
 30
0.0
  0
VERTEX
  5
3C5
330
39A
100
AcDbEntity
  8
DIBUJOS
 62
     7
100
AcDbVertex
100
AcDb2dVertex
 10
63.26337088366306
 20
49.18729065409313
 30
0.0
  0
VERTEX
  5
3C6
330
39A
100
AcDbEntity
  8
DIBUJOS
 62
     7
100
AcDbVertex
100
AcDb2dVertex
 10
63.02766201201565
 20
49.04540918288392
 30
0.0
  0
VERTEX
  5
3C7
330
39A
100
AcDbEntity
  8
DIBUJOS
 62
     7
100
AcDbVertex
100
AcDb2dVertex
 10
62.69939381837383
 20
48.80457892473054
 30
0.0
  0
VERTEX
  5
3C8
330
39A
100
AcDbEntity
  8
DIBUJOS
 62
     7
100
AcDbVertex
100
AcDb2dVertex
 10
62.44725044214317
 20
48.49874539795903
 30
0.0
  0
VERTEX
  5
3C9
330
39A
100
AcDbEntity
  8
DIBUJOS
 62
     7
100
AcDbVertex
100
AcDb2dVertex
 10
62.36357425064057
 20
48.32048044849424
 30
0.0
  0
VERTEX
  5
3CA
330
39A
100
AcDbEntity
  8
DIBUJOS
 62
     7
100
AcDbVertex
100
AcDb2dVertex
 10
62.23248182587943
 20
48.02968550603428
 30
0.0
  0
VERTEX
  5
3CB
330
39A
100
AcDbEntity
  8
DIBUJOS
 62
     7
100
AcDbVertex
100
AcDb2dVertex
 10
61.99093694844784
 20
47.32832671634786
 30
0.0
  0
VERTEX
  5
3CC
330
39A
100
AcDbEntity
  8
DIBUJOS
 62
     7
100
AcDbVertex
100
AcDb2dVertex
 10
61.96862364771083
 20
47.30604322282481
 30
0.0
  0
VERTEX
  5
3CD
330
39A
100
AcDbEntity
  8
DIBUJOS
 62
     7
100
AcDbVertex
100
AcDb2dVertex
 10
61.77288698650827
 20
47.25230314915655
 30
0.0
  0
VERTEX
  5
3CE
330
39A
100
AcDbEntity
  8
DIBUJOS
 62
     7
100
AcDbVertex
100
AcDb2dVertex
 10
61.7226158098487
 20
47.23473964201536
 30
0.0
  0
VERTEX
  5
3CF
330
39A
100
AcDbEntity
  8
DIBUJOS
 62
     7
100
AcDbVertex
100
AcDb2dVertex
 10
61.68412474674323
 20
47.20577200005162
 30
0.0
  0
VERTEX
  5
3D0
330
39A
100
AcDbEntity
  8
DIBUJOS
 62
     7
100
AcDbVertex
100
AcDb2dVertex
 10
61.66571587951366
 20
47.16733139939564
 30
0.0
  0
VERTEX
  5
3D1
330
39A
100
AcDbEntity
  8
DIBUJOS
 62
     7
100
AcDbVertex
100
AcDb2dVertex
 10
61.64190041160729
 20
47.07734278990366
 30
0.0
  0
VERTEX
  5
3D2
330
39A
100
AcDbEntity
  8
DIBUJOS
 62
     7
100
AcDbVertex
100
AcDb2dVertex
 10
61.63709437751518
 20
47.0389471700585
 30
0.0
  0
VERTEX
  5
3D3
330
39A
100
AcDbEntity
  8
DIBUJOS
 62
     7
100
AcDbVertex
100
AcDb2dVertex
 10
61.6201193630059
 20
46.79366681038601
 30
0.0
  0
VERTEX
  5
3D4
330
39A
100
AcDbEntity
  8
DIBUJOS
 62
     7
100
AcDbVertex
100
AcDb2dVertex
 10
61.61718409382455
 20
46.16960904290939
 30
0.0
  0
VERTEX
  5
3D5
330
39A
100
AcDbEntity
  8
DIBUJOS
 62
     7
100
AcDbVertex
100
AcDb2dVertex
 10
61.6365966579584
 20
45.62934752667883
 30
0.0
  0
VERTEX
  5
3D6
330
39A
100
AcDbEntity
  8
DIBUJOS
 62
     7
100
AcDbVertex
100
AcDb2dVertex
 10
61.66435034124241
 20
45.12808737187542
 30
0.0
  0
VERTEX
  5
3D7
330
39A
100
AcDbEntity
  8
DIBUJOS
 62
     7
100
AcDbVertex
100
AcDb2dVertex
 10
61.69859840142838
 20
44.79882484027303
 30
0.0
  0
VERTEX
  5
3D8
330
39A
100
AcDbEntity
  8
DIBUJOS
 62
     7
100
AcDbVertex
100
AcDb2dVertex
 10
61.73042542757123
 20
44.66605947999254
 30
0.0
  0
VERTEX
  5
3D9
330
39A
100
AcDbEntity
  8
DIBUJOS
 62
     7
100
AcDbVertex
100
AcDb2dVertex
 10
61.73990912464805
 20
44.63764960007907
 30
0.0
  0
VERTEX
  5
3DA
330
39A
100
AcDbEntity
  8
DIBUJOS
 62
     7
100
AcDbVertex
100
AcDb2dVertex
 10
61.7839779499063
 20
44.61425058245518
 30
0.0
  0
VERTEX
  5
3DB
330
39A
100
AcDbEntity
  8
DIBUJOS
 62
     7
100
AcDbVertex
100
AcDb2dVertex
 10
61.80132231286528
 20
44.60695769371227
 30
0.0
  0
VERTEX
  5
3DC
330
39A
100
AcDbEntity
  8
DIBUJOS
 62
     7
100
AcDbVertex
100
AcDb2dVertex
 10
62.09692644068743
 20
44.60422286043388
 30
0.0
  0
SEQEND
  5
3DD
330
39A
100
AcDbEntity
  8
DIBUJOS
 62
     7
  0
POLYLINE
  5
3DE
330
33D
100
AcDbEntity
  8
DIBUJOS
 62
     7
100
AcDb2dPolyline
 66
     1
 10
0.0
 20
0.0
 30
0.0
  0
VERTEX
  5
3DF
330
3DE
100
AcDbEntity
  8
DIBUJOS
 62
     7
100
AcDbVertex
100
AcDb2dVertex
 10
62.28659212442962
 20
44.55965887210836
 30
0.0
  0
VERTEX
  5
3E0
330
3DE
100
AcDbEntity
  8
DIBUJOS
 62
     7
100
AcDbVertex
100
AcDb2dVertex
 10
62.20869188205288
 20
44.56778540520575
 30
0.0
  0
VERTEX
  5
3E1
330
3DE
100
AcDbEntity
  8
DIBUJOS
 62
     7
100
AcDbVertex
100
AcDb2dVertex
 10
62.13653305622346
 20
44.58305489101134
 30
0.0
  0
VERTEX
  5
3E2
330
3DE
100
AcDbEntity
  8
DIBUJOS
 62
     7
100
AcDbVertex
100
AcDb2dVertex
 10
62.10808346641026
 20
44.60422286043388
 30
0.0
  0
SEQEND
  5
3E3
330
3DE
100
AcDbEntity
  8
DIBUJOS
 62
     7
  0
POLYLINE
  5
3E4
330
33D
100
AcDbEntity
  8
DIBUJOS
 62
     7
100
AcDb2dPolyline
 66
     1
 10
0.0
 20
0.0
 30
0.0
  0
VERTEX
  5
3E5
330
3E4
100
AcDbEntity
  8
DIBUJOS
 62
     7
100
AcDbVertex
100
AcDb2dVertex
 10
62.29217063729104
 20
44.55965887210836
 30
0.0
  0
VERTEX
  5
3E6
330
3E4
100
AcDbEntity
  8
DIBUJOS
 62
     7
100
AcDbVertex
100
AcDb2dVertex
 10
62.28659212442962
 20
44.55965887210836
 30
0.0
  0
SEQEND
  5
3E7
330
3E4
100
AcDbEntity
  8
DIBUJOS
 62
     7
  0
POLYLINE
  5
3E8
330
33D
100
AcDbEntity
  8
DIBUJOS
 62
     7
100
AcDb2dPolyline
 66
     1
 10
0.0
 20
0.0
 30
0.0
  0
VERTEX
  5
3E9
330
3E8
100
AcDbEntity
  8
DIBUJOS
 62
     7
100
AcDbVertex
100
AcDb2dVertex
 10
62.29774915015244
 20
44.55965887210836
 30
0.0
  0
VERTEX
  5
3EA
330
3E8
100
AcDbEntity
  8
DIBUJOS
 62
     7
100
AcDbVertex
100
AcDb2dVertex
 10
62.29217063729104
 20
44.55965887210836
 30
0.0
  0
SEQEND
  5
3EB
330
3E8
100
AcDbEntity
  8
DIBUJOS
 62
     7
  0
POLYLINE
  5
3EC
330
33D
100
AcDbEntity
  8
DIBUJOS
 62
     7
100
AcDb2dPolyline
 66
     1
 10
0.0
 20
0.0
 30
0.0
  0
VERTEX
  5
3ED
330
3EC
100
AcDbEntity
  8
DIBUJOS
 62
     7
100
AcDbVertex
100
AcDb2dVertex
 10
67.24021395317509
 20
44.55965887210836
 30
0.0
  0
VERTEX
  5
3EE
330
3EC
100
AcDbEntity
  8
DIBUJOS
 62
     7
100
AcDbVertex
100
AcDb2dVertex
 10
67.21269899510847
 20
44.56191690879549
 30
0.0
  0
VERTEX
  5
3EF
330
3EC
100
AcDbEntity
  8
DIBUJOS
 62
     7
100
AcDbVertex
100
AcDb2dVertex
 10
67.1570955378873
 20
44.57804103000053
 30
0.0
  0
VERTEX
  5
3F0
330
3EC
100
AcDbEntity
  8
DIBUJOS
 62
     7
100
AcDbVertex
100
AcDb2dVertex
 10
66.96687207792966
 20
44.59865423609371
 30
0.0
  0
VERTEX
  5
3F1
330
3EC
100
AcDbEntity
  8
DIBUJOS
 62
     7
100
AcDbVertex
100
AcDb2dVertex
 10
66.53743093605567
 20
44.57925851060467
 30
0.0
  0
VERTEX
  5
3F2
330
3EC
100
AcDbEntity
  8
DIBUJOS
 62
     7
100
AcDbVertex
100
AcDb2dVertex
 10
62.97822412149235
 20
44.57925251316353
 30
0.0
  0
VERTEX
  5
3F3
330
3EC
100
AcDbEntity
  8
DIBUJOS
 62
     7
100
AcDbVertex
100
AcDb2dVertex
 10
62.57666953825863
 20
44.59865423609371
 30
0.0
  0
VERTEX
  5
3F4
330
3EC
100
AcDbEntity
  8
DIBUJOS
 62
     7
100
AcDbVertex
100
AcDb2dVertex
 10
62.37528905257851
 20
44.57804103000053
 30
0.0
  0
VERTEX
  5
3F5
330
3EC
100
AcDbEntity
  8
DIBUJOS
 62
     7
100
AcDbVertex
100
AcDb2dVertex
 10
62.36524757928657
 20
44.57470045514047
 30
0.0
  0
VERTEX
  5
3F6
330
3EC
100
AcDbEntity
  8
DIBUJOS
 62
     7
100
AcDbVertex
100
AcDb2dVertex
 10
62.32526410821875
 20
44.56191690879549
 30
0.0
  0
VERTEX
  5
3F7
330
3EC
100
AcDbEntity
  8
DIBUJOS
 62
     7
100
AcDbVertex
100
AcDb2dVertex
 10
62.29774915015244
 20
44.55965887210836
 30
0.0
  0
SEQEND
  5
3F8
330
3EC
100
AcDbEntity
  8
DIBUJOS
 62
     7
  0
POLYLINE
  5
3F9
330
33D
100
AcDbEntity
  8
DIBUJOS
 62
     7
100
AcDb2dPolyline
 66
     1
 10
0.0
 20
0.0
 30
0.0
  0
VERTEX
  5
3FA
330
3F9
100
AcDbEntity
  8
DIBUJOS
 62
     7
100
AcDbVertex
100
AcDb2dVertex
 10
67.24579321674416
 20
44.55965887210836
 30
0.0
  0
VERTEX
  5
3FB
330
3F9
100
AcDbEntity
  8
DIBUJOS
 62
     7
100
AcDbVertex
100
AcDb2dVertex
 10
67.24021395317509
 20
44.55965887210836
 30
0.0
  0
SEQEND
  5
3FC
330
3F9
100
AcDbEntity
  8
DIBUJOS
 62
     7
  0
POLYLINE
  5
3FD
330
33D
100
AcDbEntity
  8
DIBUJOS
 62
     7
100
AcDb2dPolyline
 66
     1
 10
0.0
 20
0.0
 30
0.0
  0
VERTEX
  5
3FE
330
3FD
100
AcDbEntity
  8
DIBUJOS
 62
     7
100
AcDbVertex
100
AcDb2dVertex
 10
67.25137097889727
 20
44.55965887210836
 30
0.0
  0
VERTEX
  5
3FF
330
3FD
100
AcDbEntity
  8
DIBUJOS
 62
     7
100
AcDbVertex
100
AcDb2dVertex
 10
67.24579321674416
 20
44.55965887210836
 30
0.0
  0
SEQEND
  5
400
330
3FD
100
AcDbEntity
  8
DIBUJOS
 62
     7
  0
POLYLINE
  5
401
330
33D
100
AcDbEntity
  8
DIBUJOS
 62
     7
100
AcDb2dPolyline
 66
     1
 10
0.0
 20
0.0
 30
0.0
  0
VERTEX
  5
402
330
401
100
AcDbEntity
  8
DIBUJOS
 62
     7
100
AcDbVertex
100
AcDb2dVertex
 10
67.25137097889727
 20
44.55965887210836
 30
0.0
  0
VERTEX
  5
403
330
401
100
AcDbEntity
  8
DIBUJOS
 62
     7
100
AcDbVertex
100
AcDb2dVertex
 10
67.34029086739072
 20
44.57313812165572
 30
0.0
  0
VERTEX
  5
404
330
401
100
AcDbEntity
  8
DIBUJOS
 62
     7
100
AcDbVertex
100
AcDb2dVertex
 10
67.3842478371227
 20
44.58884841940409
 30
0.0
  0
VERTEX
  5
405
330
401
100
AcDbEntity
  8
DIBUJOS
 62
     7
100
AcDbVertex
100
AcDb2dVertex
 10
67.4131440983337
 20
44.60979448349494
 30
0.0
  0
SEQEND
  5
406
330
401
100
AcDbEntity
  8
DIBUJOS
 62
     7
  0
POLYLINE
  5
407
330
33D
100
AcDbEntity
  8
DIBUJOS
 62
     7
100
AcDb2dPolyline
 66
     1
 10
0.0
 20
0.0
 30
0.0
  0
VERTEX
  5
408
330
407
100
AcDbEntity
  8
DIBUJOS
 62
     7
100
AcDbVertex
100
AcDb2dVertex
 10
62.29217063729104
 20
44.55408724904729
 30
0.0
  0
VERTEX
  5
409
330
407
100
AcDbEntity
  8
DIBUJOS
 62
     7
100
AcDbVertex
100
AcDb2dVertex
 10
62.29217063729104
 20
44.55965887210836
 30
0.0
  0
SEQEND
  5
40A
330
407
100
AcDbEntity
  8
DIBUJOS
 62
     7
  0
POLYLINE
  5
40B
330
33D
100
AcDbEntity
  8
DIBUJOS
 62
     7
100
AcDb2dPolyline
 66
     1
 10
0.0
 20
0.0
 30
0.0
  0
VERTEX
  5
40C
330
40B
100
AcDbEntity
  8
DIBUJOS
 62
     7
100
AcDbVertex
100
AcDb2dVertex
 10
67.24579321674416
 20
44.55408724904729
 30
0.0
  0
VERTEX
  5
40D
330
40B
100
AcDbEntity
  8
DIBUJOS
 62
     7
100
AcDbVertex
100
AcDb2dVertex
 10
67.24579321674416
 20
44.55965887210836
 30
0.0
  0
SEQEND
  5
40E
330
40B
100
AcDbEntity
  8
DIBUJOS
 62
     7
  0
POLYLINE
  5
40F
330
33D
100
AcDbEntity
  8
DIBUJOS
 62
     7
100
AcDb2dPolyline
 66
     1
 10
0.0
 20
0.0
 30
0.0
  0
VERTEX
  5
410
330
40F
100
AcDbEntity
  8
DIBUJOS
 62
     7
100
AcDbVertex
100
AcDb2dVertex
 10
63.42458622688341
 20
44.43710115709123
 30
0.0
  0
VERTEX
  5
411
330
40F
100
AcDbEntity
  8
DIBUJOS
 62
     7
100
AcDbVertex
100
AcDb2dVertex
 10
63.35206706110363
 20
44.43710115709123
 30
0.0
  0
SEQEND
  5
412
330
40F
100
AcDbEntity
  8
DIBUJOS
 62
     7
  0
POLYLINE
  5
413
330
33D
100
AcDbEntity
  8
DIBUJOS
 62
     7
100
AcDb2dPolyline
 66
     1
 10
0.0
 20
0.0
 30
0.0
  0
VERTEX
  5
414
330
413
100
AcDbEntity
  8
DIBUJOS
 62
     7
100
AcDbVertex
100
AcDb2dVertex
 10
66.18589529151528
 20
44.43710115709123
 30
0.0
  0
VERTEX
  5
415
330
413
100
AcDbEntity
  8
DIBUJOS
 62
     7
100
AcDbVertex
100
AcDb2dVertex
 10
66.11895463859659
 20
44.43710115709123
 30
0.0
  0
SEQEND
  5
416
330
413
100
AcDbEntity
  8
DIBUJOS
 62
     7
  0
POLYLINE
  5
417
330
33D
100
AcDbEntity
  8
DIBUJOS
 62
     7
100
AcDb2dPolyline
 66
     1
 10
0.0
 20
0.0
 30
0.0
  0
VERTEX
  5
418
330
417
100
AcDbEntity
  8
DIBUJOS
 62
     7
100
AcDbVertex
100
AcDb2dVertex
 10
63.30744045962962
 20
44.43152953403017
 30
0.0
  0
VERTEX
  5
419
330
417
100
AcDbEntity
  8
DIBUJOS
 62
     7
100
AcDbVertex
100
AcDb2dVertex
 10
63.30186194676853
 20
44.43152953403017
 30
0.0
  0
SEQEND
  5
41A
330
417
100
AcDbEntity
  8
DIBUJOS
 62
     7
  0
POLYLINE
  5
41B
330
33D
100
AcDbEntity
  8
DIBUJOS
 62
     7
100
AcDb2dPolyline
 66
     1
 10
0.0
 20
0.0
 30
0.0
  0
VERTEX
  5
41C
330
41B
100
AcDbEntity
  8
DIBUJOS
 62
     7
100
AcDbVertex
100
AcDb2dVertex
 10
63.31301822178305
 20
44.43152953403017
 30
0.0
  0
VERTEX
  5
41D
330
41B
100
AcDbEntity
  8
DIBUJOS
 62
     7
100
AcDbVertex
100
AcDb2dVertex
 10
63.30744045962962
 20
44.43152953403017
 30
0.0
  0
SEQEND
  5
41E
330
41B
100
AcDbEntity
  8
DIBUJOS
 62
     7
  0
POLYLINE
  5
41F
330
33D
100
AcDbEntity
  8
DIBUJOS
 62
     7
100
AcDb2dPolyline
 66
     1
 10
0.0
 20
0.0
 30
0.0
  0
VERTEX
  5
420
330
41F
100
AcDbEntity
  8
DIBUJOS
 62
     7
100
AcDbVertex
100
AcDb2dVertex
 10
63.31301822178305
 20
44.43152953403017
 30
0.0
  0
VERTEX
  5
421
330
41F
100
AcDbEntity
  8
DIBUJOS
 62
     7
100
AcDbVertex
100
AcDb2dVertex
 10
63.32975376036631
 20
44.43710115709123
 30
0.0
  0
SEQEND
  5
422
330
41F
100
AcDbEntity
  8
DIBUJOS
 62
     7
  0
POLYLINE
  5
423
330
33D
100
AcDbEntity
  8
DIBUJOS
 62
     7
100
AcDb2dPolyline
 66
     1
 10
0.0
 20
0.0
 30
0.0
  0
VERTEX
  5
424
330
423
100
AcDbEntity
  8
DIBUJOS
 62
     7
100
AcDbVertex
100
AcDb2dVertex
 10
63.45805730405122
 20
44.43152953403017
 30
0.0
  0
VERTEX
  5
425
330
423
100
AcDbEntity
  8
DIBUJOS
 62
     7
100
AcDbVertex
100
AcDb2dVertex
 10
63.44132176546731
 20
44.43710115709123
 30
0.0
  0
SEQEND
  5
426
330
423
100
AcDbEntity
  8
DIBUJOS
 62
     7
  0
POLYLINE
  5
427
330
33D
100
AcDbEntity
  8
DIBUJOS
 62
     7
100
AcDb2dPolyline
 66
     1
 10
0.0
 20
0.0
 30
0.0
  0
VERTEX
  5
428
330
427
100
AcDbEntity
  8
DIBUJOS
 62
     7
100
AcDbVertex
100
AcDb2dVertex
 10
63.46363506620432
 20
44.43152953403017
 30
0.0
  0
VERTEX
  5
429
330
427
100
AcDbEntity
  8
DIBUJOS
 62
     7
100
AcDbVertex
100
AcDb2dVertex
 10
63.45805730405122
 20
44.43152953403017
 30
0.0
  0
SEQEND
  5
42A
330
427
100
AcDbEntity
  8
DIBUJOS
 62
     7
  0
POLYLINE
  5
42B
330
33D
100
AcDbEntity
  8
DIBUJOS
 62
     7
100
AcDb2dPolyline
 66
     1
 10
0.0
 20
0.0
 30
0.0
  0
VERTEX
  5
42C
330
42B
100
AcDbEntity
  8
DIBUJOS
 62
     7
100
AcDbVertex
100
AcDb2dVertex
 10
63.46921357906573
 20
44.43152953403017
 30
0.0
  0
VERTEX
  5
42D
330
42B
100
AcDbEntity
  8
DIBUJOS
 62
     7
100
AcDbVertex
100
AcDb2dVertex
 10
63.46363506620432
 20
44.43152953403017
 30
0.0
  0
SEQEND
  5
42E
330
42B
100
AcDbEntity
  8
DIBUJOS
 62
     7
  0
POLYLINE
  5
42F
330
33D
100
AcDbEntity
  8
DIBUJOS
 62
     7
100
AcDb2dPolyline
 66
     1
 10
0.0
 20
0.0
 30
0.0
  0
VERTEX
  5
430
330
42F
100
AcDbEntity
  8
DIBUJOS
 62
     7
100
AcDbVertex
100
AcDb2dVertex
 10
66.06875027496979
 20
44.43152953403017
 30
0.0
  0
VERTEX
  5
431
330
42F
100
AcDbEntity
  8
DIBUJOS
 62
     7
100
AcDbVertex
100
AcDb2dVertex
 10
66.0631710114004
 20
44.43710115709123
 30
0.0
  0
VERTEX
  5
432
330
42F
100
AcDbEntity
  8
DIBUJOS
 62
     7
100
AcDbVertex
100
AcDb2dVertex
 10
63.47479209192682
 20
44.43710115709123
 30
0.0
  0
VERTEX
  5
433
330
42F
100
AcDbEntity
  8
DIBUJOS
 62
     7
100
AcDbVertex
100
AcDb2dVertex
 10
63.46921357906573
 20
44.43152953403017
 30
0.0
  0
SEQEND
  5
434
330
42F
100
AcDbEntity
  8
DIBUJOS
 62
     7
  0
POLYLINE
  5
435
330
33D
100
AcDbEntity
  8
DIBUJOS
 62
     7
100
AcDb2dPolyline
 66
     1
 10
0.0
 20
0.0
 30
0.0
  0
VERTEX
  5
436
330
435
100
AcDbEntity
  8
DIBUJOS
 62
     7
100
AcDbVertex
100
AcDb2dVertex
 10
66.07432803712321
 20
44.43152953403017
 30
0.0
  0
VERTEX
  5
437
330
435
100
AcDbEntity
  8
DIBUJOS
 62
     7
100
AcDbVertex
100
AcDb2dVertex
 10
66.06875027496979
 20
44.43152953403017
 30
0.0
  0
SEQEND
  5
438
330
435
100
AcDbEntity
  8
DIBUJOS
 62
     7
  0
POLYLINE
  5
439
330
33D
100
AcDbEntity
  8
DIBUJOS
 62
     7
100
AcDb2dPolyline
 66
     1
 10
0.0
 20
0.0
 30
0.0
  0
VERTEX
  5
43A
330
439
100
AcDbEntity
  8
DIBUJOS
 62
     7
100
AcDbVertex
100
AcDb2dVertex
 10
66.07990579927599
 20
44.43152953403017
 30
0.0
  0
VERTEX
  5
43B
330
439
100
AcDbEntity
  8
DIBUJOS
 62
     7
100
AcDbVertex
100
AcDb2dVertex
 10
66.07432803712321
 20
44.43152953403017
 30
0.0
  0
SEQEND
  5
43C
330
439
100
AcDbEntity
  8
DIBUJOS
 62
     7
  0
POLYLINE
  5
43D
330
33D
100
AcDbEntity
  8
DIBUJOS
 62
     7
100
AcDb2dPolyline
 66
     1
 10
0.0
 20
0.0
 30
0.0
  0
VERTEX
  5
43E
330
43D
100
AcDbEntity
  8
DIBUJOS
 62
     7
100
AcDbVertex
100
AcDb2dVertex
 10
66.07990579927599
 20
44.43152953403017
 30
0.0
  0
VERTEX
  5
43F
330
43D
100
AcDbEntity
  8
DIBUJOS
 62
     7
100
AcDbVertex
100
AcDb2dVertex
 10
66.09664208856789
 20
44.43710115709123
 30
0.0
  0
SEQEND
  5
440
330
43D
100
AcDbEntity
  8
DIBUJOS
 62
     7
  0
POLYLINE
  5
441
330
33D
100
AcDbEntity
  8
DIBUJOS
 62
     7
100
AcDb2dPolyline
 66
     1
 10
0.0
 20
0.0
 30
0.0
  0
VERTEX
  5
442
330
441
100
AcDbEntity
  8
DIBUJOS
 62
     7
100
AcDbVertex
100
AcDb2dVertex
 10
66.21936636868308
 20
44.43152953403017
 30
0.0
  0
VERTEX
  5
443
330
441
100
AcDbEntity
  8
DIBUJOS
 62
     7
100
AcDbVertex
100
AcDb2dVertex
 10
66.20263158080748
 20
44.43710115709123
 30
0.0
  0
SEQEND
  5
444
330
441
100
AcDbEntity
  8
DIBUJOS
 62
     7
  0
POLYLINE
  5
445
330
33D
100
AcDbEntity
  8
DIBUJOS
 62
     7
100
AcDb2dPolyline
 66
     1
 10
0.0
 20
0.0
 30
0.0
  0
VERTEX
  5
446
330
445
100
AcDbEntity
  8
DIBUJOS
 62
     7
100
AcDbVertex
100
AcDb2dVertex
 10
66.2249441308365
 20
44.43152953403017
 30
0.0
  0
VERTEX
  5
447
330
445
100
AcDbEntity
  8
DIBUJOS
 62
     7
100
AcDbVertex
100
AcDb2dVertex
 10
66.21936636868308
 20
44.43152953403017
 30
0.0
  0
SEQEND
  5
448
330
445
100
AcDbEntity
  8
DIBUJOS
 62
     7
  0
POLYLINE
  5
449
330
33D
100
AcDbEntity
  8
DIBUJOS
 62
     7
100
AcDb2dPolyline
 66
     1
 10
0.0
 20
0.0
 30
0.0
  0
VERTEX
  5
44A
330
449
100
AcDbEntity
  8
DIBUJOS
 62
     7
100
AcDbVertex
100
AcDb2dVertex
 10
66.23052339440525
 20
44.43152953403017
 30
0.0
  0
VERTEX
  5
44B
330
449
100
AcDbEntity
  8
DIBUJOS
 62
     7
100
AcDbVertex
100
AcDb2dVertex
 10
66.2249441308365
 20
44.43152953403017
 30
0.0
  0
SEQEND
  5
44C
330
449
100
AcDbEntity
  8
DIBUJOS
 62
     7
  0
POLYLINE
  5
44D
330
33D
100
AcDbEntity
  8
DIBUJOS
 62
     7
100
AcDb2dPolyline
 66
     1
 10
0.0
 20
0.0
 30
0.0
  0
VERTEX
  5
44E
330
44D
100
AcDbEntity
  8
DIBUJOS
 62
     7
100
AcDbVertex
100
AcDb2dVertex
 10
63.30744045962962
 20
44.42596090968999
 30
0.0
  0
VERTEX
  5
44F
330
44D
100
AcDbEntity
  8
DIBUJOS
 62
     7
100
AcDbVertex
100
AcDb2dVertex
 10
63.30744045962962
 20
44.43152953403017
 30
0.0
  0
SEQEND
  5
450
330
44D
100
AcDbEntity
  8
DIBUJOS
 62
     7
  0
POLYLINE
  5
451
330
33D
100
AcDbEntity
  8
DIBUJOS
 62
     7
100
AcDb2dPolyline
 66
     1
 10
0.0
 20
0.0
 30
0.0
  0
VERTEX
  5
452
330
451
100
AcDbEntity
  8
DIBUJOS
 62
     7
100
AcDbVertex
100
AcDb2dVertex
 10
63.46363506620432
 20
44.42596090968999
 30
0.0
  0
VERTEX
  5
453
330
451
100
AcDbEntity
  8
DIBUJOS
 62
     7
100
AcDbVertex
100
AcDb2dVertex
 10
63.46363506620432
 20
44.43152953403017
 30
0.0
  0
SEQEND
  5
454
330
451
100
AcDbEntity
  8
DIBUJOS
 62
     7
  0
POLYLINE
  5
455
330
33D
100
AcDbEntity
  8
DIBUJOS
 62
     7
100
AcDb2dPolyline
 66
     1
 10
0.0
 20
0.0
 30
0.0
  0
VERTEX
  5
456
330
455
100
AcDbEntity
  8
DIBUJOS
 62
     7
100
AcDbVertex
100
AcDb2dVertex
 10
66.07432803712321
 20
44.42596090968999
 30
0.0
  0
VERTEX
  5
457
330
455
100
AcDbEntity
  8
DIBUJOS
 62
     7
100
AcDbVertex
100
AcDb2dVertex
 10
66.07432803712321
 20
44.43152953403017
 30
0.0
  0
SEQEND
  5
458
330
455
100
AcDbEntity
  8
DIBUJOS
 62
     7
  0
POLYLINE
  5
459
330
33D
100
AcDbEntity
  8
DIBUJOS
 62
     7
100
AcDb2dPolyline
 66
     1
 10
0.0
 20
0.0
 30
0.0
  0
VERTEX
  5
45A
330
459
100
AcDbEntity
  8
DIBUJOS
 62
     7
100
AcDbVertex
100
AcDb2dVertex
 10
66.2249441308365
 20
44.42596090968999
 30
0.0
  0
VERTEX
  5
45B
330
459
100
AcDbEntity
  8
DIBUJOS
 62
     7
100
AcDbVertex
100
AcDb2dVertex
 10
66.2249441308365
 20
44.43152953403017
 30
0.0
  0
SEQEND
  5
45C
330
459
100
AcDbEntity
  8
DIBUJOS
 62
     7
  0
POLYLINE
  5
45D
330
33D
100
AcDbEntity
  8
DIBUJOS
 62
     7
100
AcDb2dPolyline
 66
     1
 10
0.0
 20
0.0
 30
0.0
  0
VERTEX
  5
45E
330
45D
100
AcDbEntity
  8
DIBUJOS
 62
     7
100
AcDbVertex
100
AcDb2dVertex
 10
61.64507590742264
 20
42.29792776095755
 30
0.0
  0
VERTEX
  5
45F
330
45D
100
AcDbEntity
  8
DIBUJOS
 62
     7
100
AcDbVertex
100
AcDb2dVertex
 10
61.80353239789609
 20
43.31142938576854
 30
0.0
  0
VERTEX
  5
460
330
45D
100
AcDbEntity
  8
DIBUJOS
 62
     7
100
AcDbVertex
100
AcDb2dVertex
 10
61.93318421356282
 20
44.10891816494087
 30
0.0
  0
VERTEX
  5
461
330
45D
100
AcDbEntity
  8
DIBUJOS
 62
     7
100
AcDbVertex
100
AcDb2dVertex
 10
61.94827870395466
 20
44.16921344205974
 30
0.0
  0
VERTEX
  5
462
330
45D
100
AcDbEntity
  8
DIBUJOS
 62
     7
100
AcDbVertex
100
AcDb2dVertex
 10
61.9808954751559
 20
44.24713819817528
 30
0.0
  0
VERTEX
  5
463
330
45D
100
AcDbEntity
  8
DIBUJOS
 62
     7
100
AcDbVertex
100
AcDb2dVertex
 10
61.99539990887837
 20
44.28167746320007
 30
0.0
  0
VERTEX
  5
464
330
45D
100
AcDbEntity
  8
DIBUJOS
 62
     7
100
AcDbVertex
100
AcDb2dVertex
 10
62.08019165281183
 20
44.40367741616694
 30
0.0
  0
VERTEX
  5
465
330
45D
100
AcDbEntity
  8
DIBUJOS
 62
     7
100
AcDbVertex
100
AcDb2dVertex
 10
62.17616744796391
 20
44.48586935183862
 30
0.0
  0
VERTEX
  5
466
330
45D
100
AcDbEntity
  8
DIBUJOS
 62
     7
100
AcDbVertex
100
AcDb2dVertex
 10
62.27071539606148
 20
44.54166055046585
 30
0.0
  0
VERTEX
  5
467
330
45D
100
AcDbEntity
  8
DIBUJOS
 62
     7
100
AcDbVertex
100
AcDb2dVertex
 10
62.29217063729104
 20
44.55408724904729
 30
0.0
  0
SEQEND
  5
468
330
45D
100
AcDbEntity
  8
DIBUJOS
 62
     7
  0
POLYLINE
  5
469
330
33D
100
AcDbEntity
  8
DIBUJOS
 62
     7
100
AcDb2dPolyline
 66
     1
 10
0.0
 20
0.0
 30
0.0
  0
VERTEX
  5
46A
330
469
100
AcDbEntity
  8
DIBUJOS
 62
     7
100
AcDbVertex
100
AcDb2dVertex
 10
61.64507590742264
 20
42.29235613789648
 30
0.0
  0
VERTEX
  5
46B
330
469
100
AcDbEntity
  8
DIBUJOS
 62
     7
100
AcDbVertex
100
AcDb2dVertex
 10
61.64507590742264
 20
42.29792776095755
 30
0.0
  0
SEQEND
  5
46C
330
469
100
AcDbEntity
  8
DIBUJOS
 62
     7
  0
POLYLINE
  5
46D
330
33D
100
AcDbEntity
  8
DIBUJOS
 62
     7
100
AcDb2dPolyline
 66
     1
 10
0.0
 20
0.0
 30
0.0
  0
VERTEX
  5
46E
330
46D
100
AcDbEntity
  8
DIBUJOS
 62
     7
100
AcDbVertex
100
AcDb2dVertex
 10
61.65065442028373
 20
42.29235613789648
 30
0.0
  0
VERTEX
  5
46F
330
46D
100
AcDbEntity
  8
DIBUJOS
 62
     7
100
AcDbVertex
100
AcDb2dVertex
 10
61.64507590742264
 20
42.29235613789648
 30
0.0
  0
SEQEND
  5
470
330
46D
100
AcDbEntity
  8
DIBUJOS
 62
     7
  0
POLYLINE
  5
471
330
33D
100
AcDbEntity
  8
DIBUJOS
 62
     7
100
AcDb2dPolyline
 66
     1
 10
0.0
 20
0.0
 30
0.0
  0
VERTEX
  5
472
330
471
100
AcDbEntity
  8
DIBUJOS
 62
     7
100
AcDbVertex
100
AcDb2dVertex
 10
67.8873094337518
 20
42.29235613789648
 30
0.0
  0
VERTEX
  5
473
330
471
100
AcDbEntity
  8
DIBUJOS
 62
     7
100
AcDbVertex
100
AcDb2dVertex
 10
67.89288719590458
 20
42.29792776095755
 30
0.0
  0
VERTEX
  5
474
330
471
100
AcDbEntity
  8
DIBUJOS
 62
     7
100
AcDbVertex
100
AcDb2dVertex
 10
67.73903554971758
 20
43.26200447118782
 30
0.0
  0
VERTEX
  5
475
330
471
100
AcDbEntity
  8
DIBUJOS
 62
     7
100
AcDbVertex
100
AcDb2dVertex
 10
67.73434962894216
 20
43.29475949739618
 30
0.0
  0
VERTEX
  5
476
330
471
100
AcDbEntity
  8
DIBUJOS
 62
     7
100
AcDbVertex
100
AcDb2dVertex
 10
67.60084217580335
 20
44.11350620761208
 30
0.0
  0
VERTEX
  5
477
330
471
100
AcDbEntity
  8
DIBUJOS
 62
     7
100
AcDbVertex
100
AcDb2dVertex
 10
67.58410588651147
 20
44.18035368946097
 30
0.0
  0
VERTEX
  5
478
330
471
100
AcDbEntity
  8
DIBUJOS
 62
     7
100
AcDbVertex
100
AcDb2dVertex
 10
67.5514891153099
 20
44.25270982123602
 30
0.0
  0
VERTEX
  5
479
330
471
100
AcDbEntity
  8
DIBUJOS
 62
     7
100
AcDbVertex
100
AcDb2dVertex
 10
67.53698543229574
 20
44.28167746320007
 30
0.0
  0
VERTEX
  5
47A
330
471
100
AcDbEntity
  8
DIBUJOS
 62
     7
100
AcDbVertex
100
AcDb2dVertex
 10
67.47872446793832
 20
44.36916513962827
 30
0.0
  0
VERTEX
  5
47B
330
471
100
AcDbEntity
  8
DIBUJOS
 62
     7
100
AcDbVertex
100
AcDb2dVertex
 10
67.45913248453711
 20
44.39362270565888
 30
0.0
  0
VERTEX
  5
47C
330
471
100
AcDbEntity
  8
DIBUJOS
 62
     7
100
AcDbVertex
100
AcDb2dVertex
 10
67.41990497665779
 20
44.43290594683172
 30
0.0
  0
VERTEX
  5
47D
330
471
100
AcDbEntity
  8
DIBUJOS
 62
     7
100
AcDbVertex
100
AcDb2dVertex
 10
67.38407066998026
 20
44.46357986087379
 30
0.0
  0
VERTEX
  5
47E
330
471
100
AcDbEntity
  8
DIBUJOS
 62
     7
100
AcDbVertex
100
AcDb2dVertex
 10
67.27282622012682
 20
44.53608892740478
 30
0.0
  0
VERTEX
  5
47F
330
471
100
AcDbEntity
  8
DIBUJOS
 62
     7
100
AcDbVertex
100
AcDb2dVertex
 10
67.24579321674416
 20
44.55408724904729
 30
0.0
  0
SEQEND
  5
480
330
471
100
AcDbEntity
  8
DIBUJOS
 62
     7
  0
POLYLINE
  5
481
330
33D
100
AcDbEntity
  8
DIBUJOS
 62
     7
100
AcDb2dPolyline
 66
     1
 10
0.0
 20
0.0
 30
0.0
  0
VERTEX
  5
482
330
481
100
AcDbEntity
  8
DIBUJOS
 62
     7
100
AcDbVertex
100
AcDb2dVertex
 10
61.64507590742264
 20
42.28678751355599
 30
0.0
  0
VERTEX
  5
483
330
481
100
AcDbEntity
  8
DIBUJOS
 62
     7
100
AcDbVertex
100
AcDb2dVertex
 10
61.64507590742264
 20
42.29235613789648
 30
0.0
  0
SEQEND
  5
484
330
481
100
AcDbEntity
  8
DIBUJOS
 62
     7
  0
POLYLINE
  5
485
330
33D
100
AcDbEntity
  8
DIBUJOS
 62
     7
100
AcDb2dPolyline
 66
     1
 10
0.0
 20
0.0
 30
0.0
  0
VERTEX
  5
486
330
485
100
AcDbEntity
  8
DIBUJOS
 62
     7
100
AcDbVertex
100
AcDb2dVertex
 10
63.31301822178305
 20
42.28678751355599
 30
0.0
  0
VERTEX
  5
487
330
485
100
AcDbEntity
  8
DIBUJOS
 62
     7
100
AcDbVertex
100
AcDb2dVertex
 10
63.30744045962962
 20
44.42596090968999
 30
0.0
  0
SEQEND
  5
488
330
485
100
AcDbEntity
  8
DIBUJOS
 62
     7
  0
POLYLINE
  5
489
330
33D
100
AcDbEntity
  8
DIBUJOS
 62
     7
100
AcDb2dPolyline
 66
     1
 10
0.0
 20
0.0
 30
0.0
  0
VERTEX
  5
48A
330
489
100
AcDbEntity
  8
DIBUJOS
 62
     7
100
AcDbVertex
100
AcDb2dVertex
 10
63.45805730405122
 20
42.28678751355599
 30
0.0
  0
VERTEX
  5
48B
330
489
100
AcDbEntity
  8
DIBUJOS
 62
     7
100
AcDbVertex
100
AcDb2dVertex
 10
63.46363506620432
 20
44.42596090968999
 30
0.0
  0
SEQEND
  5
48C
330
489
100
AcDbEntity
  8
DIBUJOS
 62
     7
  0
POLYLINE
  5
48D
330
33D
100
AcDbEntity
  8
DIBUJOS
 62
     7
100
AcDb2dPolyline
 66
     1
 10
0.0
 20
0.0
 30
0.0
  0
VERTEX
  5
48E
330
48D
100
AcDbEntity
  8
DIBUJOS
 62
     7
100
AcDbVertex
100
AcDb2dVertex
 10
66.07432803712321
 20
42.28678751355599
 30
0.0
  0
VERTEX
  5
48F
330
48D
100
AcDbEntity
  8
DIBUJOS
 62
     7
100
AcDbVertex
100
AcDb2dVertex
 10
66.07432803712321
 20
44.42596090968999
 30
0.0
  0
SEQEND
  5
490
330
48D
100
AcDbEntity
  8
DIBUJOS
 62
     7
  0
POLYLINE
  5
491
330
33D
100
AcDbEntity
  8
DIBUJOS
 62
     7
100
AcDb2dPolyline
 66
     1
 10
0.0
 20
0.0
 30
0.0
  0
VERTEX
  5
492
330
491
100
AcDbEntity
  8
DIBUJOS
 62
     7
100
AcDbVertex
100
AcDb2dVertex
 10
66.2249441308365
 20
42.28678751355599
 30
0.0
  0
VERTEX
  5
493
330
491
100
AcDbEntity
  8
DIBUJOS
 62
     7
100
AcDbVertex
100
AcDb2dVertex
 10
66.2249441308365
 20
44.42596090968999
 30
0.0
  0
SEQEND
  5
494
330
491
100
AcDbEntity
  8
DIBUJOS
 62
     7
  0
POLYLINE
  5
495
330
33D
100
AcDbEntity
  8
DIBUJOS
 62
     7
100
AcDb2dPolyline
 66
     1
 10
0.0
 20
0.0
 30
0.0
  0
VERTEX
  5
496
330
495
100
AcDbEntity
  8
DIBUJOS
 62
     7
100
AcDbVertex
100
AcDb2dVertex
 10
67.8873094337518
 20
42.28678751355599
 30
0.0
  0
VERTEX
  5
497
330
495
100
AcDbEntity
  8
DIBUJOS
 62
     7
100
AcDbVertex
100
AcDb2dVertex
 10
67.88173017018208
 20
42.28678751355599
 30
0.0
  0
SEQEND
  5
498
330
495
100
AcDbEntity
  8
DIBUJOS
 62
     7
  0
POLYLINE
  5
499
330
33D
100
AcDbEntity
  8
DIBUJOS
 62
     7
100
AcDb2dPolyline
 66
     1
 10
0.0
 20
0.0
 30
0.0
  0
VERTEX
  5
49A
330
499
100
AcDbEntity
  8
DIBUJOS
 62
     7
100
AcDbVertex
100
AcDb2dVertex
 10
67.8873094337518
 20
42.28678751355599
 30
0.0
  0
VERTEX
  5
49B
330
499
100
AcDbEntity
  8
DIBUJOS
 62
     7
100
AcDbVertex
100
AcDb2dVertex
 10
67.8873094337518
 20
42.29235613789648
 30
0.0
  0
SEQEND
  5
49C
330
499
100
AcDbEntity
  8
DIBUJOS
 62
     7
  0
POLYLINE
  5
49D
330
33D
100
AcDbEntity
  8
DIBUJOS
 62
     7
100
AcDb2dPolyline
 66
     1
 10
0.0
 20
0.0
 30
0.0
  0
VERTEX
  5
49E
330
49D
100
AcDbEntity
  8
DIBUJOS
 62
     7
100
AcDbVertex
100
AcDb2dVertex
 10
63.31301822178305
 20
42.28121589049525
 30
0.0
  0
VERTEX
  5
49F
330
49D
100
AcDbEntity
  8
DIBUJOS
 62
     7
100
AcDbVertex
100
AcDb2dVertex
 10
63.31301822178305
 20
42.28678751355599
 30
0.0
  0
SEQEND
  5
4A0
330
49D
100
AcDbEntity
  8
DIBUJOS
 62
     7
  0
POLYLINE
  5
4A1
330
33D
100
AcDbEntity
  8
DIBUJOS
 62
     7
100
AcDb2dPolyline
 66
     1
 10
0.0
 20
0.0
 30
0.0
  0
VERTEX
  5
4A2
330
4A1
100
AcDbEntity
  8
DIBUJOS
 62
     7
100
AcDbVertex
100
AcDb2dVertex
 10
63.31859673464381
 20
42.28121589049525
 30
0.0
  0
VERTEX
  5
4A3
330
4A1
100
AcDbEntity
  8
DIBUJOS
 62
     7
100
AcDbVertex
100
AcDb2dVertex
 10
63.31301822178305
 20
42.28121589049525
 30
0.0
  0
SEQEND
  5
4A4
330
4A1
100
AcDbEntity
  8
DIBUJOS
 62
     7
  0
POLYLINE
  5
4A5
330
33D
100
AcDbEntity
  8
DIBUJOS
 62
     7
100
AcDb2dPolyline
 66
     1
 10
0.0
 20
0.0
 30
0.0
  0
VERTEX
  5
4A6
330
4A5
100
AcDbEntity
  8
DIBUJOS
 62
     7
100
AcDbVertex
100
AcDb2dVertex
 10
63.45805730405122
 20
42.28121589049525
 30
0.0
  0
VERTEX
  5
4A7
330
4A5
100
AcDbEntity
  8
DIBUJOS
 62
     7
100
AcDbVertex
100
AcDb2dVertex
 10
63.45247879118981
 20
42.28121589049525
 30
0.0
  0
SEQEND
  5
4A8
330
4A5
100
AcDbEntity
  8
DIBUJOS
 62
     7
  0
POLYLINE
  5
4A9
330
33D
100
AcDbEntity
  8
DIBUJOS
 62
     7
100
AcDb2dPolyline
 66
     1
 10
0.0
 20
0.0
 30
0.0
  0
VERTEX
  5
4AA
330
4A9
100
AcDbEntity
  8
DIBUJOS
 62
     7
100
AcDbVertex
100
AcDb2dVertex
 10
63.45805730405122
 20
42.28121589049525
 30
0.0
  0
VERTEX
  5
4AB
330
4A9
100
AcDbEntity
  8
DIBUJOS
 62
     7
100
AcDbVertex
100
AcDb2dVertex
 10
63.45805730405122
 20
42.28678751355599
 30
0.0
  0
SEQEND
  5
4AC
330
4A9
100
AcDbEntity
  8
DIBUJOS
 62
     7
  0
POLYLINE
  5
4AD
330
33D
100
AcDbEntity
  8
DIBUJOS
 62
     7
100
AcDb2dPolyline
 66
     1
 10
0.0
 20
0.0
 30
0.0
  0
VERTEX
  5
4AE
330
4AD
100
AcDbEntity
  8
DIBUJOS
 62
     7
100
AcDbVertex
100
AcDb2dVertex
 10
66.07432803712321
 20
42.28121589049525
 30
0.0
  0
VERTEX
  5
4AF
330
4AD
100
AcDbEntity
  8
DIBUJOS
 62
     7
100
AcDbVertex
100
AcDb2dVertex
 10
66.07432803712321
 20
42.28678751355599
 30
0.0
  0
SEQEND
  5
4B0
330
4AD
100
AcDbEntity
  8
DIBUJOS
 62
     7
  0
POLYLINE
  5
4B1
330
33D
100
AcDbEntity
  8
DIBUJOS
 62
     7
100
AcDb2dPolyline
 66
     1
 10
0.0
 20
0.0
 30
0.0
  0
VERTEX
  5
4B2
330
4B1
100
AcDbEntity
  8
DIBUJOS
 62
     7
100
AcDbVertex
100
AcDb2dVertex
 10
66.07990579927599
 20
42.28121589049525
 30
0.0
  0
VERTEX
  5
4B3
330
4B1
100
AcDbEntity
  8
DIBUJOS
 62
     7
100
AcDbVertex
100
AcDb2dVertex
 10
66.07432803712321
 20
42.28121589049525
 30
0.0
  0
SEQEND
  5
4B4
330
4B1
100
AcDbEntity
  8
DIBUJOS
 62
     7
  0
POLYLINE
  5
4B5
330
33D
100
AcDbEntity
  8
DIBUJOS
 62
     7
100
AcDb2dPolyline
 66
     1
 10
0.0
 20
0.0
 30
0.0
  0
VERTEX
  5
4B6
330
4B5
100
AcDbEntity
  8
DIBUJOS
 62
     7
100
AcDbVertex
100
AcDb2dVertex
 10
66.2249441308365
 20
42.28121589049525
 30
0.0
  0
VERTEX
  5
4B7
330
4B5
100
AcDbEntity
  8
DIBUJOS
 62
     7
100
AcDbVertex
100
AcDb2dVertex
 10
66.21936636868308
 20
42.28121589049525
 30
0.0
  0
SEQEND
  5
4B8
330
4B5
100
AcDbEntity
  8
DIBUJOS
 62
     7
  0
POLYLINE
  5
4B9
330
33D
100
AcDbEntity
  8
DIBUJOS
 62
     7
100
AcDb2dPolyline
 66
     1
 10
0.0
 20
0.0
 30
0.0
  0
VERTEX
  5
4BA
330
4B9
100
AcDbEntity
  8
DIBUJOS
 62
     7
100
AcDbVertex
100
AcDb2dVertex
 10
66.2249441308365
 20
42.28121589049525
 30
0.0
  0
VERTEX
  5
4BB
330
4B9
100
AcDbEntity
  8
DIBUJOS
 62
     7
100
AcDbVertex
100
AcDb2dVertex
 10
66.2249441308365
 20
42.28678751355599
 30
0.0
  0
SEQEND
  5
4BC
330
4B9
100
AcDbEntity
  8
DIBUJOS
 62
     7
  0
POLYLINE
  5
4BD
330
33D
100
AcDbEntity
  8
DIBUJOS
 62
     7
100
AcDb2dPolyline
 66
     1
 10
0.0
 20
0.0
 30
0.0
  0
VERTEX
  5
4BE
330
4BD
100
AcDbEntity
  8
DIBUJOS
 62
     7
100
AcDbVertex
100
AcDb2dVertex
 10
63.31301822178305
 20
42.27564426743482
 30
0.0
  0
VERTEX
  5
4BF
330
4BD
100
AcDbEntity
  8
DIBUJOS
 62
     7
100
AcDbVertex
100
AcDb2dVertex
 10
63.31301822178305
 20
42.28121589049525
 30
0.0
  0
SEQEND
  5
4C0
330
4BD
100
AcDbEntity
  8
DIBUJOS
 62
     7
  0
POLYLINE
  5
4C1
330
33D
100
AcDbEntity
  8
DIBUJOS
 62
     7
100
AcDb2dPolyline
 66
     1
 10
0.0
 20
0.0
 30
0.0
  0
VERTEX
  5
4C2
330
4C1
100
AcDbEntity
  8
DIBUJOS
 62
     7
100
AcDbVertex
100
AcDb2dVertex
 10
66.07432803712321
 20
42.27564426743482
 30
0.0
  0
VERTEX
  5
4C3
330
4C1
100
AcDbEntity
  8
DIBUJOS
 62
     7
100
AcDbVertex
100
AcDb2dVertex
 10
66.07432803712321
 20
42.28121589049525
 30
0.0
  0
SEQEND
  5
4C4
330
4C1
100
AcDbEntity
  8
DIBUJOS
 62
     7
  0
POLYLINE
  5
4C5
330
33D
100
AcDbEntity
  8
DIBUJOS
 62
     7
100
AcDb2dPolyline
 66
     1
 10
0.0
 20
0.0
 30
0.0
  0
VERTEX
  5
4C6
330
4C5
100
AcDbEntity
  8
DIBUJOS
 62
     7
100
AcDbVertex
100
AcDb2dVertex
 10
66.0854850628454
 20
42.27564426743482
 30
0.0
  0
VERTEX
  5
4C7
330
4C5
100
AcDbEntity
  8
DIBUJOS
 62
     7
100
AcDbVertex
100
AcDb2dVertex
 10
66.07990579927599
 20
42.28121589049525
 30
0.0
  0
SEQEND
  5
4C8
330
4C5
100
AcDbEntity
  8
DIBUJOS
 62
     7
  0
POLYLINE
  5
4C9
330
33D
100
AcDbEntity
  8
DIBUJOS
 62
     7
100
AcDb2dPolyline
 66
     1
 10
0.0
 20
0.0
 30
0.0
  0
VERTEX
  5
4CA
330
4C9
100
AcDbEntity
  8
DIBUJOS
 62
     7
100
AcDbVertex
100
AcDb2dVertex
 10
66.09106282499849
 20
42.27564426743482
 30
0.0
  0
VERTEX
  5
4CB
330
4C9
100
AcDbEntity
  8
DIBUJOS
 62
     7
100
AcDbVertex
100
AcDb2dVertex
 10
66.0854850628454
 20
42.27564426743482
 30
0.0
  0
SEQEND
  5
4CC
330
4C9
100
AcDbEntity
  8
DIBUJOS
 62
     7
  0
POLYLINE
  5
4CD
330
33D
100
AcDbEntity
  8
DIBUJOS
 62
     7
100
AcDb2dPolyline
 66
     1
 10
0.0
 20
0.0
 30
0.0
  0
VERTEX
  5
4CE
330
4CD
100
AcDbEntity
  8
DIBUJOS
 62
     7
100
AcDbVertex
100
AcDb2dVertex
 10
66.2249441308365
 20
42.27564426743482
 30
0.0
  0
VERTEX
  5
4CF
330
4CD
100
AcDbEntity
  8
DIBUJOS
 62
     7
100
AcDbVertex
100
AcDb2dVertex
 10
66.2249441308365
 20
42.28121589049525
 30
0.0
  0
SEQEND
  5
4D0
330
4CD
100
AcDbEntity
  8
DIBUJOS
 62
     7
  0
POLYLINE
  5
4D1
330
33D
100
AcDbEntity
  8
DIBUJOS
 62
     7
100
AcDb2dPolyline
 66
     1
 10
0.0
 20
0.0
 30
0.0
  0
VERTEX
  5
4D2
330
4D1
100
AcDbEntity
  8
DIBUJOS
 62
     7
100
AcDbVertex
100
AcDb2dVertex
 10
61.79011423898283
 20
42.27007564309401
 30
0.0
  0
VERTEX
  5
4D3
330
4D1
100
AcDbEntity
  8
DIBUJOS
 62
     7
100
AcDbVertex
100
AcDb2dVertex
 10
61.79372364415541
 20
42.27613605762927
 30
0.0
  0
VERTEX
  5
4D4
330
4D1
100
AcDbEntity
  8
DIBUJOS
 62
     7
100
AcDbVertex
100
AcDb2dVertex
 10
61.9496269759368
 20
43.2564748302167
 30
0.0
  0
VERTEX
  5
4D5
330
4D1
100
AcDbEntity
  8
DIBUJOS
 62
     7
100
AcDbVertex
100
AcDb2dVertex
 10
61.95414924231769
 20
43.283577267905
 30
0.0
  0
VERTEX
  5
4D6
330
4D1
100
AcDbEntity
  8
DIBUJOS
 62
     7
100
AcDbVertex
100
AcDb2dVertex
 10
62.08409608631894
 20
44.08112902021224
 30
0.0
  0
VERTEX
  5
4D7
330
4D1
100
AcDbEntity
  8
DIBUJOS
 62
     7
100
AcDbVertex
100
AcDb2dVertex
 10
62.09495808370692
 20
44.12005841234211
 30
0.0
  0
VERTEX
  5
4D8
330
4D1
100
AcDbEntity
  8
DIBUJOS
 62
     7
100
AcDbVertex
100
AcDb2dVertex
 10
62.14284125748493
 20
44.22455483258181
 30
0.0
  0
VERTEX
  5
4D9
330
4D1
100
AcDbEntity
  8
DIBUJOS
 62
     7
100
AcDbVertex
100
AcDb2dVertex
 10
62.1848426322763
 20
44.28212127386375
 30
0.0
  0
VERTEX
  5
4DA
330
4D1
100
AcDbEntity
  8
DIBUJOS
 62
     7
100
AcDbVertex
100
AcDb2dVertex
 10
62.2637210474775
 20
44.35465433015997
 30
0.0
  0
VERTEX
  5
4DB
330
4D1
100
AcDbEntity
  8
DIBUJOS
 62
     7
100
AcDbVertex
100
AcDb2dVertex
 10
62.31362587852026
 20
44.38268037382378
 30
0.0
  0
VERTEX
  5
4DC
330
4D1
100
AcDbEntity
  8
DIBUJOS
 62
     7
100
AcDbVertex
100
AcDb2dVertex
 10
62.40875937903769
 20
44.42150181200886
 30
0.0
  0
VERTEX
  5
4DD
330
4D1
100
AcDbEntity
  8
DIBUJOS
 62
     7
100
AcDbVertex
100
AcDb2dVertex
 10
62.44803117870286
 20
44.42829991183611
 30
0.0
  0
VERTEX
  5
4DE
330
4D1
100
AcDbEntity
  8
DIBUJOS
 62
     7
100
AcDbVertex
100
AcDb2dVertex
 10
62.50415037247854
 20
44.43710115709123
 30
0.0
  0
VERTEX
  5
4DF
330
4D1
100
AcDbEntity
  8
DIBUJOS
 62
     7
100
AcDbVertex
100
AcDb2dVertex
 10
63.29628343390744
 20
44.43710115709123
 30
0.0
  0
VERTEX
  5
4E0
330
4D1
100
AcDbEntity
  8
DIBUJOS
 62
     7
100
AcDbVertex
100
AcDb2dVertex
 10
63.30186194676853
 20
44.43152953403017
 30
0.0
  0
SEQEND
  5
4E1
330
4D1
100
AcDbEntity
  8
DIBUJOS
 62
     7
  0
POLYLINE
  5
4E2
330
33D
100
AcDbEntity
  8
DIBUJOS
 62
     7
100
AcDb2dPolyline
 66
     1
 10
0.0
 20
0.0
 30
0.0
  0
VERTEX
  5
4E3
330
4E2
100
AcDbEntity
  8
DIBUJOS
 62
     7
100
AcDbVertex
100
AcDb2dVertex
 10
66.07432803712321
 20
42.27007564309401
 30
0.0
  0
VERTEX
  5
4E4
330
4E2
100
AcDbEntity
  8
DIBUJOS
 62
     7
100
AcDbVertex
100
AcDb2dVertex
 10
66.07432803712321
 20
42.27564426743482
 30
0.0
  0
SEQEND
  5
4E5
330
4E2
100
AcDbEntity
  8
DIBUJOS
 62
     7
  0
POLYLINE
  5
4E6
330
33D
100
AcDbEntity
  8
DIBUJOS
 62
     7
100
AcDb2dPolyline
 66
     1
 10
0.0
 20
0.0
 30
0.0
  0
VERTEX
  5
4E7
330
4E6
100
AcDbEntity
  8
DIBUJOS
 62
     7
100
AcDbVertex
100
AcDb2dVertex
 10
66.0854850628454
 20
42.27007564309401
 30
0.0
  0
VERTEX
  5
4E8
330
4E6
100
AcDbEntity
  8
DIBUJOS
 62
     7
100
AcDbVertex
100
AcDb2dVertex
 10
66.0854850628454
 20
42.27564426743482
 30
0.0
  0
SEQEND
  5
4E9
330
4E6
100
AcDbEntity
  8
DIBUJOS
 62
     7
  0
POLYLINE
  5
4EA
330
33D
100
AcDbEntity
  8
DIBUJOS
 62
     7
100
AcDb2dPolyline
 66
     1
 10
0.0
 20
0.0
 30
0.0
  0
VERTEX
  5
4EB
330
4EA
100
AcDbEntity
  8
DIBUJOS
 62
     7
100
AcDbVertex
100
AcDb2dVertex
 10
61.78453572612175
 20
42.26450402003294
 30
0.0
  0
VERTEX
  5
4EC
330
4EA
100
AcDbEntity
  8
DIBUJOS
 62
     7
100
AcDbVertex
100
AcDb2dVertex
 10
61.65065442028373
 20
42.29235613789648
 30
0.0
  0
SEQEND
  5
4ED
330
4EA
100
AcDbEntity
  8
DIBUJOS
 62
     7
  0
POLYLINE
  5
4EE
330
33D
100
AcDbEntity
  8
DIBUJOS
 62
     7
100
AcDb2dPolyline
 66
     1
 10
0.0
 20
0.0
 30
0.0
  0
VERTEX
  5
4EF
330
4EE
100
AcDbEntity
  8
DIBUJOS
 62
     7
100
AcDbVertex
100
AcDb2dVertex
 10
61.79011423898283
 20
42.26450402003294
 30
0.0
  0
VERTEX
  5
4F0
330
4EE
100
AcDbEntity
  8
DIBUJOS
 62
     7
100
AcDbVertex
100
AcDb2dVertex
 10
61.78453572612175
 20
42.26450402003294
 30
0.0
  0
SEQEND
  5
4F1
330
4EE
100
AcDbEntity
  8
DIBUJOS
 62
     7
  0
POLYLINE
  5
4F2
330
33D
100
AcDbEntity
  8
DIBUJOS
 62
     7
100
AcDb2dPolyline
 66
     1
 10
0.0
 20
0.0
 30
0.0
  0
VERTEX
  5
4F3
330
4F2
100
AcDbEntity
  8
DIBUJOS
 62
     7
100
AcDbVertex
100
AcDb2dVertex
 10
61.79011423898283
 20
42.26450402003294
 30
0.0
  0
VERTEX
  5
4F4
330
4F2
100
AcDbEntity
  8
DIBUJOS
 62
     7
100
AcDbVertex
100
AcDb2dVertex
 10
61.79011423898283
 20
42.27007564309401
 30
0.0
  0
SEQEND
  5
4F5
330
4F2
100
AcDbEntity
  8
DIBUJOS
 62
     7
  0
POLYLINE
  5
4F6
330
33D
100
AcDbEntity
  8
DIBUJOS
 62
     7
100
AcDb2dPolyline
 66
     1
 10
0.0
 20
0.0
 30
0.0
  0
VERTEX
  5
4F7
330
4F6
100
AcDbEntity
  8
DIBUJOS
 62
     7
100
AcDbVertex
100
AcDb2dVertex
 10
66.07432803712321
 20
42.26450402003294
 30
0.0
  0
VERTEX
  5
4F8
330
4F6
100
AcDbEntity
  8
DIBUJOS
 62
     7
100
AcDbVertex
100
AcDb2dVertex
 10
66.07432803712321
 20
42.27007564309401
 30
0.0
  0
SEQEND
  5
4F9
330
4F6
100
AcDbEntity
  8
DIBUJOS
 62
     7
  0
POLYLINE
  5
4FA
330
33D
100
AcDbEntity
  8
DIBUJOS
 62
     7
100
AcDb2dPolyline
 66
     1
 10
0.0
 20
0.0
 30
0.0
  0
VERTEX
  5
4FB
330
4FA
100
AcDbEntity
  8
DIBUJOS
 62
     7
100
AcDbVertex
100
AcDb2dVertex
 10
66.07990579927599
 20
42.26450402003294
 30
0.0
  0
VERTEX
  5
4FC
330
4FA
100
AcDbEntity
  8
DIBUJOS
 62
     7
100
AcDbVertex
100
AcDb2dVertex
 10
66.07432803712321
 20
42.26450402003294
 30
0.0
  0
SEQEND
  5
4FD
330
4FA
100
AcDbEntity
  8
DIBUJOS
 62
     7
  0
POLYLINE
  5
4FE
330
33D
100
AcDbEntity
  8
DIBUJOS
 62
     7
100
AcDb2dPolyline
 66
     1
 10
0.0
 20
0.0
 30
0.0
  0
VERTEX
  5
4FF
330
4FE
100
AcDbEntity
  8
DIBUJOS
 62
     7
100
AcDbVertex
100
AcDb2dVertex
 10
66.07990579927599
 20
42.26450402003294
 30
0.0
  0
VERTEX
  5
500
330
4FE
100
AcDbEntity
  8
DIBUJOS
 62
     7
100
AcDbVertex
100
AcDb2dVertex
 10
66.0854850628454
 20
42.27007564309401
 30
0.0
  0
SEQEND
  5
501
330
4FE
100
AcDbEntity
  8
DIBUJOS
 62
     7
  0
POLYLINE
  5
502
330
33D
100
AcDbEntity
  8
DIBUJOS
 62
     7
100
AcDb2dPolyline
 66
     1
 10
0.0
 20
0.0
 30
0.0
  0
VERTEX
  5
503
330
502
100
AcDbEntity
  8
DIBUJOS
 62
     7
100
AcDbVertex
100
AcDb2dVertex
 10
67.74784886434438
 20
42.26450402003294
 30
0.0
  0
VERTEX
  5
504
330
502
100
AcDbEntity
  8
DIBUJOS
 62
     7
100
AcDbVertex
100
AcDb2dVertex
 10
67.74338665462183
 20
42.27063040642369
 30
0.0
  0
VERTEX
  5
505
330
502
100
AcDbEntity
  8
DIBUJOS
 62
     7
100
AcDbVertex
100
AcDb2dVertex
 10
67.58833687809872
 20
43.23419133669365
 30
0.0
  0
VERTEX
  5
506
330
502
100
AcDbEntity
  8
DIBUJOS
 62
     7
100
AcDbVertex
100
AcDb2dVertex
 10
67.45052035971628
 20
44.08001649483263
 30
0.0
  0
VERTEX
  5
507
330
502
100
AcDbEntity
  8
DIBUJOS
 62
     7
100
AcDbVertex
100
AcDb2dVertex
 10
67.43713222913235
 20
44.13126763031941
 30
0.0
  0
VERTEX
  5
508
330
502
100
AcDbEntity
  8
DIBUJOS
 62
     7
100
AcDbVertex
100
AcDb2dVertex
 10
67.38946976357464
 20
44.22989555414916
 30
0.0
  0
VERTEX
  5
509
330
502
100
AcDbEntity
  8
DIBUJOS
 62
     7
100
AcDbVertex
100
AcDb2dVertex
 10
67.31273386966349
 20
44.32011506513517
 30
0.0
  0
VERTEX
  5
50A
330
502
100
AcDbEntity
  8
DIBUJOS
 62
     7
100
AcDbVertex
100
AcDb2dVertex
 10
67.25609143225121
 20
44.36339560100107
 30
0.0
  0
VERTEX
  5
50B
330
502
100
AcDbEntity
  8
DIBUJOS
 62
     7
100
AcDbVertex
100
AcDb2dVertex
 10
67.2170425929303
 20
44.38567909452443
 30
0.0
  0
VERTEX
  5
50C
330
502
100
AcDbEntity
  8
DIBUJOS
 62
     7
100
AcDbVertex
100
AcDb2dVertex
 10
67.11715485718904
 20
44.4236189088233
 30
0.0
  0
VERTEX
  5
50D
330
502
100
AcDbEntity
  8
DIBUJOS
 62
     7
100
AcDbVertex
100
AcDb2dVertex
 10
67.08435341176326
 20
44.42829991183611
 30
0.0
  0
VERTEX
  5
50E
330
502
100
AcDbEntity
  8
DIBUJOS
 62
     7
100
AcDbVertex
100
AcDb2dVertex
 10
67.02823496869524
 20
44.43710115709123
 30
0.0
  0
VERTEX
  5
50F
330
502
100
AcDbEntity
  8
DIBUJOS
 62
     7
100
AcDbVertex
100
AcDb2dVertex
 10
66.236101156559
 20
44.43710115709123
 30
0.0
  0
VERTEX
  5
510
330
502
100
AcDbEntity
  8
DIBUJOS
 62
     7
100
AcDbVertex
100
AcDb2dVertex
 10
66.23052339440525
 20
44.43152953403017
 30
0.0
  0
SEQEND
  5
511
330
502
100
AcDbEntity
  8
DIBUJOS
 62
     7
  0
POLYLINE
  5
512
330
33D
100
AcDbEntity
  8
DIBUJOS
 62
     7
100
AcDb2dPolyline
 66
     1
 10
0.0
 20
0.0
 30
0.0
  0
VERTEX
  5
513
330
512
100
AcDbEntity
  8
DIBUJOS
 62
     7
100
AcDbVertex
100
AcDb2dVertex
 10
67.74784886434438
 20
42.26450402003294
 30
0.0
  0
VERTEX
  5
514
330
512
100
AcDbEntity
  8
DIBUJOS
 62
     7
100
AcDbVertex
100
AcDb2dVertex
 10
67.88173017018208
 20
42.28678751355599
 30
0.0
  0
SEQEND
  5
515
330
512
100
AcDbEntity
  8
DIBUJOS
 62
     7
  0
POLYLINE
  5
516
330
33D
100
AcDbEntity
  8
DIBUJOS
 62
     7
100
AcDb2dPolyline
 66
     1
 10
0.0
 20
0.0
 30
0.0
  0
VERTEX
  5
517
330
516
100
AcDbEntity
  8
DIBUJOS
 62
     7
100
AcDbVertex
100
AcDb2dVertex
 10
61.79011423898283
 20
42.2589323969722
 30
0.0
  0
VERTEX
  5
518
330
516
100
AcDbEntity
  8
DIBUJOS
 62
     7
100
AcDbVertex
100
AcDb2dVertex
 10
61.79011423898283
 20
42.26450402003294
 30
0.0
  0
SEQEND
  5
519
330
516
100
AcDbEntity
  8
DIBUJOS
 62
     7
  0
POLYLINE
  5
51A
330
33D
100
AcDbEntity
  8
DIBUJOS
 62
     7
100
AcDb2dPolyline
 66
     1
 10
0.0
 20
0.0
 30
0.0
  0
VERTEX
  5
51B
330
51A
100
AcDbEntity
  8
DIBUJOS
 62
     7
100
AcDbVertex
100
AcDb2dVertex
 10
63.31859673464381
 20
42.28121589049525
 30
0.0
  0
VERTEX
  5
51C
330
51A
100
AcDbEntity
  8
DIBUJOS
 62
     7
100
AcDbVertex
100
AcDb2dVertex
 10
63.36880259968722
 20
42.2589323969722
 30
0.0
  0
VERTEX
  5
51D
330
51A
100
AcDbEntity
  8
DIBUJOS
 62
     7
100
AcDbVertex
100
AcDb2dVertex
 10
63.40834315289911
 20
42.26253685925387
 30
0.0
  0
VERTEX
  5
51E
330
51A
100
AcDbEntity
  8
DIBUJOS
 62
     7
100
AcDbVertex
100
AcDb2dVertex
 10
63.45247879118981
 20
42.28121589049525
 30
0.0
  0
SEQEND
  5
51F
330
51A
100
AcDbEntity
  8
DIBUJOS
 62
     7
  0
POLYLINE
  5
520
330
33D
100
AcDbEntity
  8
DIBUJOS
 62
     7
100
AcDb2dPolyline
 66
     1
 10
0.0
 20
0.0
 30
0.0
  0
VERTEX
  5
521
330
520
100
AcDbEntity
  8
DIBUJOS
 62
     7
100
AcDbVertex
100
AcDb2dVertex
 10
66.07432803712321
 20
42.2589323969722
 30
0.0
  0
VERTEX
  5
522
330
520
100
AcDbEntity
  8
DIBUJOS
 62
     7
100
AcDbVertex
100
AcDb2dVertex
 10
66.07432803712321
 20
42.26450402003294
 30
0.0
  0
SEQEND
  5
523
330
520
100
AcDbEntity
  8
DIBUJOS
 62
     7
  0
POLYLINE
  5
524
330
33D
100
AcDbEntity
  8
DIBUJOS
 62
     7
100
AcDb2dPolyline
 66
     1
 10
0.0
 20
0.0
 30
0.0
  0
VERTEX
  5
525
330
524
100
AcDbEntity
  8
DIBUJOS
 62
     7
100
AcDbVertex
100
AcDb2dVertex
 10
66.09106282499849
 20
42.27564426743482
 30
0.0
  0
VERTEX
  5
526
330
524
100
AcDbEntity
  8
DIBUJOS
 62
     7
100
AcDbVertex
100
AcDb2dVertex
 10
66.1356909278888
 20
42.2589323969722
 30
0.0
  0
VERTEX
  5
527
330
524
100
AcDbEntity
  8
DIBUJOS
 62
     7
100
AcDbVertex
100
AcDb2dVertex
 10
66.16965296823928
 20
42.26253685925387
 30
0.0
  0
VERTEX
  5
528
330
524
100
AcDbEntity
  8
DIBUJOS
 62
     7
100
AcDbVertex
100
AcDb2dVertex
 10
66.21936636868308
 20
42.28121589049525
 30
0.0
  0
SEQEND
  5
529
330
524
100
AcDbEntity
  8
DIBUJOS
 62
     7
  0
POLYLINE
  5
52A
330
33D
100
AcDbEntity
  8
DIBUJOS
 62
     7
100
AcDb2dPolyline
 66
     1
 10
0.0
 20
0.0
 30
0.0
  0
VERTEX
  5
52B
330
52A
100
AcDbEntity
  8
DIBUJOS
 62
     7
100
AcDbVertex
100
AcDb2dVertex
 10
63.31301822178305
 20
42.27564426743482
 30
0.0
  0
VERTEX
  5
52C
330
52A
100
AcDbEntity
  8
DIBUJOS
 62
     7
100
AcDbVertex
100
AcDb2dVertex
 10
63.30744045962962
 20
42.27007564309401
 30
0.0
  0
VERTEX
  5
52D
330
52A
100
AcDbEntity
  8
DIBUJOS
 62
     7
100
AcDbVertex
100
AcDb2dVertex
 10
63.31692340599814
 20
42.24723438752039
 30
0.0
  0
VERTEX
  5
52E
330
52A
100
AcDbEntity
  8
DIBUJOS
 62
     7
100
AcDbVertex
100
AcDb2dVertex
 10
63.31859673464381
 20
42.23664890344851
 30
0.0
  0
VERTEX
  5
52F
330
52A
100
AcDbEntity
  8
DIBUJOS
 62
     7
100
AcDbVertex
100
AcDb2dVertex
 10
63.33533227322771
 20
42.21993703298685
 30
0.0
  0
VERTEX
  5
530
330
52A
100
AcDbEntity
  8
DIBUJOS
 62
     7
100
AcDbVertex
100
AcDb2dVertex
 10
63.36880259968722
 20
42.20879678558529
 30
0.0
  0
VERTEX
  5
531
330
52A
100
AcDbEntity
  8
DIBUJOS
 62
     7
100
AcDbVertex
100
AcDb2dVertex
 10
63.40834315289911
 20
42.21240124786696
 30
0.0
  0
VERTEX
  5
532
330
52A
100
AcDbEntity
  8
DIBUJOS
 62
     7
100
AcDbVertex
100
AcDb2dVertex
 10
63.4357432526059
 20
42.21993703298685
 30
0.0
  0
VERTEX
  5
533
330
52A
100
AcDbEntity
  8
DIBUJOS
 62
     7
100
AcDbVertex
100
AcDb2dVertex
 10
63.45638322469691
 20
42.24834691290064
 30
0.0
  0
VERTEX
  5
534
330
52A
100
AcDbEntity
  8
DIBUJOS
 62
     7
100
AcDbVertex
100
AcDb2dVertex
 10
63.46363506620432
 20
42.27564426743482
 30
0.0
  0
VERTEX
  5
535
330
52A
100
AcDbEntity
  8
DIBUJOS
 62
     7
100
AcDbVertex
100
AcDb2dVertex
 10
63.45805730405122
 20
42.28121589049525
 30
0.0
  0
SEQEND
  5
536
330
52A
100
AcDbEntity
  8
DIBUJOS
 62
     7
  0
POLYLINE
  5
537
330
33D
100
AcDbEntity
  8
DIBUJOS
 62
     7
100
AcDb2dPolyline
 66
     1
 10
0.0
 20
0.0
 30
0.0
  0
VERTEX
  5
538
330
537
100
AcDbEntity
  8
DIBUJOS
 62
     7
100
AcDbVertex
100
AcDb2dVertex
 10
66.07432803712321
 20
42.2589323969722
 30
0.0
  0
VERTEX
  5
539
330
537
100
AcDbEntity
  8
DIBUJOS
 62
     7
100
AcDbVertex
100
AcDb2dVertex
 10
66.08436951041483
 20
42.23609114139889
 30
0.0
  0
VERTEX
  5
53A
330
537
100
AcDbEntity
  8
DIBUJOS
 62
     7
100
AcDbVertex
100
AcDb2dVertex
 10
66.10166282521385
 20
42.21882450760691
 30
0.0
  0
VERTEX
  5
53B
330
537
100
AcDbEntity
  8
DIBUJOS
 62
     7
100
AcDbVertex
100
AcDb2dVertex
 10
66.13011166431909
 20
42.20879678558529
 30
0.0
  0
VERTEX
  5
53C
330
537
100
AcDbEntity
  8
DIBUJOS
 62
     7
100
AcDbVertex
100
AcDb2dVertex
 10
66.16965296823928
 20
42.21240124786696
 30
0.0
  0
VERTEX
  5
53D
330
537
100
AcDbEntity
  8
DIBUJOS
 62
     7
100
AcDbVertex
100
AcDb2dVertex
 10
66.19705231723809
 20
42.21993703298685
 30
0.0
  0
VERTEX
  5
53E
330
537
100
AcDbEntity
  8
DIBUJOS
 62
     7
100
AcDbVertex
100
AcDb2dVertex
 10
66.22048192111365
 20
42.25280601058177
 30
0.0
  0
VERTEX
  5
53F
330
537
100
AcDbEntity
  8
DIBUJOS
 62
     7
100
AcDbVertex
100
AcDb2dVertex
 10
66.2249441308365
 20
42.27564426743482
 30
0.0
  0
SEQEND
  5
540
330
537
100
AcDbEntity
  8
DIBUJOS
 62
     7
  0
POLYLINE
  5
541
330
33D
100
AcDbEntity
  8
DIBUJOS
 62
     7
100
AcDb2dPolyline
 66
     1
 10
0.0
 20
0.0
 30
0.0
  0
VERTEX
  5
542
330
541
100
AcDbEntity
  8
DIBUJOS
 62
     7
100
AcDbVertex
100
AcDb2dVertex
 10
61.64507590742264
 20
42.28678751355599
 30
0.0
  0
VERTEX
  5
543
330
541
100
AcDbEntity
  8
DIBUJOS
 62
     7
100
AcDbVertex
100
AcDb2dVertex
 10
61.63949739456123
 20
42.28121589049525
 30
0.0
  0
VERTEX
  5
544
330
541
100
AcDbEntity
  8
DIBUJOS
 62
     7
100
AcDbVertex
100
AcDb2dVertex
 10
61.63949739456123
 20
42.22550865604791
 30
0.0
  0
VERTEX
  5
545
330
541
100
AcDbEntity
  8
DIBUJOS
 62
     7
100
AcDbVertex
100
AcDb2dVertex
 10
61.66236922222166
 20
42.21046707301515
 30
0.0
  0
VERTEX
  5
546
330
541
100
AcDbEntity
  8
DIBUJOS
 62
     7
100
AcDbVertex
100
AcDb2dVertex
 10
61.67897563898986
 20
42.20536624910453
 30
0.0
  0
VERTEX
  5
547
330
541
100
AcDbEntity
  8
DIBUJOS
 62
     7
100
AcDbVertex
100
AcDb2dVertex
 10
61.74591629190887
 20
42.19551245288381
 30
0.0
  0
VERTEX
  5
548
330
541
100
AcDbEntity
  8
DIBUJOS
 62
     7
100
AcDbVertex
100
AcDb2dVertex
 10
61.76780093824582
 20
42.19765353946379
 30
0.0
  0
VERTEX
  5
549
330
541
100
AcDbEntity
  8
DIBUJOS
 62
     7
100
AcDbVertex
100
AcDb2dVertex
 10
61.78785310579239
 20
42.23145511919628
 30
0.0
  0
VERTEX
  5
54A
330
541
100
AcDbEntity
  8
DIBUJOS
 62
     7
100
AcDbVertex
100
AcDb2dVertex
 10
61.79011423898283
 20
42.2589323969722
 30
0.0
  0
SEQEND
  5
54B
330
541
100
AcDbEntity
  8
DIBUJOS
 62
     7
  0
POLYLINE
  5
54C
330
33D
100
AcDbEntity
  8
DIBUJOS
 62
     7
100
AcDb2dPolyline
 66
     1
 10
0.0
 20
0.0
 30
0.0
  0
VERTEX
  5
54D
330
54C
100
AcDbEntity
  8
DIBUJOS
 62
     7
100
AcDbVertex
100
AcDb2dVertex
 10
67.74784886434438
 20
42.26450402003294
 30
0.0
  0
VERTEX
  5
54E
330
54C
100
AcDbEntity
  8
DIBUJOS
 62
     7
100
AcDbVertex
100
AcDb2dVertex
 10
67.74227110219128
 20
42.2589323969722
 30
0.0
  0
VERTEX
  5
54F
330
54C
100
AcDbEntity
  8
DIBUJOS
 62
     7
100
AcDbVertex
100
AcDb2dVertex
 10
67.75900589006687
 20
42.20322516252454
 30
0.0
  0
VERTEX
  5
550
330
54C
100
AcDbEntity
  8
DIBUJOS
 62
     7
100
AcDbVertex
100
AcDb2dVertex
 10
67.78646829855725
 20
42.19551245288381
 30
0.0
  0
VERTEX
  5
551
330
54C
100
AcDbEntity
  8
DIBUJOS
 62
     7
100
AcDbVertex
100
AcDb2dVertex
 10
67.8599746456605
 20
42.20712349943485
 30
0.0
  0
VERTEX
  5
552
330
54C
100
AcDbEntity
  8
DIBUJOS
 62
     7
100
AcDbVertex
100
AcDb2dVertex
 10
67.88173017018208
 20
42.21436540992578
 30
0.0
  0
VERTEX
  5
553
330
54C
100
AcDbEntity
  8
DIBUJOS
 62
     7
100
AcDbVertex
100
AcDb2dVertex
 10
67.89846495805767
 20
42.24222052650925
 30
0.0
  0
VERTEX
  5
554
330
54C
100
AcDbEntity
  8
DIBUJOS
 62
     7
100
AcDbVertex
100
AcDb2dVertex
 10
67.89846495805767
 20
42.27007564309401
 30
0.0
  0
VERTEX
  5
555
330
54C
100
AcDbEntity
  8
DIBUJOS
 62
     7
100
AcDbVertex
100
AcDb2dVertex
 10
67.89177164347402
 20
42.28065812844467
 30
0.0
  0
VERTEX
  5
556
330
54C
100
AcDbEntity
  8
DIBUJOS
 62
     7
100
AcDbVertex
100
AcDb2dVertex
 10
67.8873094337518
 20
42.28678751355599
 30
0.0
  0
SEQEND
  5
557
330
54C
100
AcDbEntity
  8
DIBUJOS
 62
     7
  0
POLYLINE
  5
558
330
33D
100
AcDbEntity
  8
DIBUJOS
 62
     7
100
AcDb2dPolyline
 66
     1
 10
0.0
 20
0.0
 30
0.0
  0
VERTEX
  5
559
330
558
100
AcDbEntity
  8
DIBUJOS
 62
     7
100
AcDbVertex
100
AcDb2dVertex
 10
63.97126997737362
 20
46.03591108049071
 30
0.0
  0
VERTEX
  5
55A
330
558
100
AcDbEntity
  8
DIBUJOS
 62
     7
100
AcDbVertex
100
AcDb2dVertex
 10
65.51090949875709
 20
46.03591108049071
 30
0.0
  0
SEQEND
  5
55B
330
558
100
AcDbEntity
  8
DIBUJOS
 62
     7
  0
ENDBLK
  5
340
330
33D
100
AcDbEntity
  8
0
100
AcDbBlockEnd
  0
ENDSEC
  0
SECTION
  2
ENTITIES
  0
MTEXT
  5
41
330
1F
100
AcDbEntity
  8
REFERENCIAS
 62
   255
100
AcDbMText
 10
61.49112712594395
 20
54.85563098807646
 30
0.0
 40
1.49859999962535
 41
0.0
 71
     7
 72
     1
  1
\fMyriad Pro|b0|i0|c0|p34;\W1;SAUL_9417-B__LOUNGE_CHAIR
  0
MTEXT
  5
43
330
1F
100
AcDbEntity
  8
M_U_00C1RGENES
 62
   255
100
AcDbMText
 10
90.14127864703391
 20
23.7555119243149
 30
0.0
 40
1.748366666229575
 41
0.0
 71
     7
 72
     1
  1
\fMyriad Pro|b0|i0|c0|p34;\W1;400
  0
MTEXT
  5
44
330
1F
100
AcDbEntity
  8
M_U_00C1RGENES
 62
   255
100
AcDbMText
 10
84.21176331851954
 20
20.50332059082737
 30
0.0
 40
1.748366666229575
 41
0.0
 71
     7
 72
     1
  1
\fMyriad Pro|b0|i0|c0|p34;\W1;400
  0
POLYLINE
  5
45
330
1F
100
AcDbEntity
  8
M_U_00C1RGENES
 62
   255
100
AcDb2dPolyline
 66
     1
 10
0.0
 20
0.0
 30
0.0
  0
VERTEX
  5
46
330
45
100
AcDbEntity
  8
M_U_00C1RGENES
 62
   255
100
AcDbVertex
100
AcDb2dVertex
 10
84.41666477502157
 20
24.76314475783758
 30
0.0
  0
VERTEX
  5
47
330
45
100
AcDbEntity
  8
M_U_00C1RGENES
 62
   255
100
AcDbVertex
100
AcDb2dVertex
 10
94.99999810570907
 20
19.74726776251925
 30
0.0
  0
SEQEND
  5
48
330
45
100
AcDbEntity
  8
M_U_00C1RGENES
 62
   255
  0
POLYLINE
  5
49
330
1F
100
AcDbEntity
  8
M_U_00C1RGENES
 62
   254
100
AcDb2dPolyline
 66
     1
 10
0.0
 20
0.0
 30
0.0
  0
VERTEX
  5
4A
330
49
100
AcDbEntity
  8
M_U_00C1RGENES
 62
   254
100
AcDbVertex
100
AcDb2dVertex
 10
54.99999767595828
 20
20.88258920325216
 30
0.0
  0
VERTEX
  5
4B
330
49
100
AcDbEntity
  8
M_U_00C1RGENES
 62
   254
100
AcDbVertex
100
AcDb2dVertex
 10
54.99999767595828
 20
19.74726776251925
 30
0.0
  0
SEQEND
  5
4C
330
49
100
AcDbEntity
  8
M_U_00C1RGENES
 62
   254
  0
POLYLINE
  5
4D
330
1F
100
AcDbEntity
  8
M_U_00C1RGENES
 62
   255
100
AcDb2dPolyline
 66
     1
 10
0.0
 20
0.0
 30
0.0
  0
VERTEX
  5
4E
330
4D
100
AcDbEntity
  8
M_U_00C1RGENES
 62
   255
100
AcDbVertex
100
AcDb2dVertex
 10
94.99999797321169
 20
59.74726768656564
 30
0.0
  0
VERTEX
  5
4F
330
4D
100
AcDbEntity
  8
M_U_00C1RGENES
 62
   255
100
AcDbVertex
100
AcDb2dVertex
 10
93.86467653247878
 20
59.74726768651462
 30
0.0
  0
SEQEND
  5
50
330
4D
100
AcDbEntity
  8
M_U_00C1RGENES
 62
   255
  0
INSERT
  5
53
330
1F
100
AcDbEntity
  8
DIBUJOS
100
AcDbBlockReference
  2
BLOCK_2
 10
0.0
 20
0.0
 30
0.0
  0
INSERT
  5
19F
330
1F
100
AcDbEntity
  8
DIBUJOS
100
AcDbBlockReference
  2
BLOCK_3
 10
0.0
 20
0.0
 30
0.0
  0
INSERT
  5
33E
330
1F
100
AcDbEntity
  8
DIBUJOS
100
AcDbBlockReference
  2
BLOCK_4
 10
0.0
 20
0.0
 30
0.0
  0
POLYLINE
  5
55D
330
1F
100
AcDbEntity
  8
COTAS_LINEA
 62
     7
100
AcDb2dPolyline
 66
     1
 10
0.0
 20
0.0
 30
0.0
  0
VERTEX
  5
55E
330
55D
100
AcDbEntity
  8
COTAS_LINEA
 62
     7
100
AcDbVertex
100
AcDb2dVertex
 10
74.33262338230469
 20
49.41178773258136
 30
0.0
  0
VERTEX
  5
55F
330
55D
100
AcDbEntity
  8
COTAS_LINEA
 62
     7
100
AcDbVertex
100
AcDb2dVertex
 10
74.33262338316808
 20
42.33143575986427
 30
0.0
  0
SEQEND
  5
560
330
55D
100
AcDbEntity
  8
COTAS_LINEA
 62
     7
  0
POLYLINE
  5
561
330
1F
100
AcDbEntity
  8
COTAS_LINEA
 62
     7
100
AcDb2dPolyline
 66
     1
 10
0.0
 20
0.0
 30
0.0
  0
VERTEX
  5
562
330
561
100
AcDbEntity
  8
COTAS_LINEA
 62
     7
100
AcDbVertex
100
AcDb2dVertex
 10
88.56763180939002
 20
45.949318484247
 30
0.0
  0
VERTEX
  5
563
330
561
100
AcDbEntity
  8
COTAS_LINEA
 62
     7
100
AcDbVertex
100
AcDb2dVertex
 10
88.56763181069653
 20
42.33143791450131
 30
0.0
  0
SEQEND
  5
564
330
561
100
AcDbEntity
  8
COTAS_LINEA
 62
     7
  0
POLYLINE
  5
565
330
1F
100
AcDbEntity
  8
COTAS_LINEA
 62
     7
100
AcDb2dPolyline
 66
     1
 10
0.0
 20
0.0
 30
0.0
  0
VERTEX
  5
566
330
565
100
AcDbEntity
  8
COTAS_LINEA
 62
     7
100
AcDbVertex
100
AcDb2dVertex
 10
69.5028224385785
 20
47.35492834570629
 30
0.0
  0
VERTEX
  5
567
330
565
100
AcDbEntity
  8
COTAS_LINEA
 62
     7
100
AcDbVertex
100
AcDb2dVertex
 10
69.50282243988501
 20
42.33145421949733
 30
0.0
  0
SEQEND
  5
568
330
565
100
AcDbEntity
  8
COTAS_LINEA
 62
     7
  0
POLYLINE
  5
569
330
1F
100
AcDbEntity
  8
COTAS_LINEA
 62
     7
100
AcDb2dPolyline
 66
     1
 10
0.0
 20
0.0
 30
0.0
  0
VERTEX
  5
56A
330
569
100
AcDbEntity
  8
COTAS_LINEA
 62
     7
100
AcDbVertex
100
AcDb2dVertex
 10
79.26793728705994
 20
38.66119575631178
 30
0.0
  0
VERTEX
  5
56B
330
569
100
AcDbEntity
  8
COTAS_LINEA
 62
     7
100
AcDbVertex
100
AcDb2dVertex
 10
87.25892328953054
 20
38.66119575631178
 30
0.0
  0
SEQEND
  5
56C
330
569
100
AcDbEntity
  8
COTAS_LINEA
 62
     7
  0
POLYLINE
  5
56D
330
1F
100
AcDbEntity
  8
COTAS_LINEA
 62
     7
100
AcDb2dPolyline
 66
     1
 10
0.0
 20
0.0
 30
0.0
  0
VERTEX
  5
56E
330
56D
100
AcDbEntity
  8
COTAS_LINEA
 62
     7
100
AcDbVertex
100
AcDb2dVertex
 10
61.60456795805398
 20
38.66119575631178
 30
0.0
  0
VERTEX
  5
56F
330
56D
100
AcDbEntity
  8
COTAS_LINEA
 62
     7
100
AcDbVertex
100
AcDb2dVertex
 10
67.80351820943932
 20
38.66119575631178
 30
0.0
  0
SEQEND
  5
570
330
56D
100
AcDbEntity
  8
COTAS_LINEA
 62
     7
  0
MTEXT
  5
572
330
1F
100
AcDbEntity
  8
COTAS_N_U_00DAMERO
 62
     7
100
AcDbMText
 10
75.10793162693429
 20
44.07784893205508
 30
0.0
 40
1.998533025814148
 41
0.0
 71
     7
 72
     1
  1
\fMyriad Pro|b0|i0|c0|p34;\W1;74
  0
MTEXT
  5
573
330
1F
100
AcDbEntity
  8
COTAS_N_U_00DAMERO
 62
     7
100
AcDbMText
 10
89.32618520410888
 20
43.35631136340137
 30
0.0
 40
1.998533025814148
 41
0.0
 71
     7
 72
     1
  1
\fMyriad Pro|b0|i0|c0|p34;\W1;45
  0
MTEXT
  5
574
330
1F
100
AcDbEntity
  8
COTAS_N_U_00DAMERO
 62
     7
100
AcDbMText
 10
70.26136860680397
 20
44.06186691878055
 30
0.0
 40
1.998533025814148
 41
0.0
 71
     7
 72
     1
  1
\fMyriad Pro|b0|i0|c0|p34;\W1;60
  0
MTEXT
  5
575
330
1F
100
AcDbEntity
  8
COTAS_N_U_00DAMERO
 62
     7
100
AcDbMText
 10
81.68668596556738
 20
39.21634011877664
 30
0.0
 40
1.998533025814148
 41
0.0
 71
     7
 72
     1
  1
\fMyriad Pro|b0|i0|c0|p34;\W1;70
  0
MTEXT
  5
576
330
1F
100
AcDbEntity
  8
COTAS_N_U_00DAMERO
 62
     7
100
AcDbMText
 10
63.19841417216156
 20
39.21616786400239
 30
0.0
 40
1.998533025814148
 41
0.0
 71
     7
 72
     1
  1
\fMyriad Pro|b0|i0|c0|p34;\W1;63
  0
ENDSEC
  0
SECTION
  2
OBJECTS
  0
DICTIONARY
  5
C
330
0
100
AcDbDictionary
  3
ACAD_GROUP
350
D
  3
ACAD_LAYOUT
350
1A
  3
ACAD_MATERIAL
350
3B
  3
ACAD_MLEADERSTYLE
350
599
  3
ACAD_MLINESTYLE
350
17
  3
ACAD_PLOTSETTINGS
350
19
  3
ACAD_VISUALSTYLE
350
2A
  3
ACDBHEADERROUNDTRIPXREC
350
577
  3
ACDBVARIABLEDICTIONARY
350
597
  0
DICTIONARY
  5
D
102
{ACAD_REACTORS
330
C
102
}
330
C
100
AcDbDictionary
  0
DICTIONARY
  5
1A
102
{ACAD_REACTORS
330
C
102
}
330
C
100
AcDbDictionary
  0
DICTIONARY
  5
3B
102
{ACAD_REACTORS
330
C
102
}
330
C
100
AcDbDictionary
  3
BYBLOCK
350
3D
  3
BYLAYER
350
3C
  3
GLOBAL
350
3E
  0
DICTIONARY
  5
599
102
{ACAD_REACTORS
330
C
102
}
330
C
100
AcDbDictionary
  0
DICTIONARY
  5
17
102
{ACAD_REACTORS
330
C
102
}
330
C
100
AcDbDictionary
  3
STANDARD
350
18
  0
DICTIONARY
  5
19
102
{ACAD_REACTORS
330
C
102
}
330
C
100
AcDbDictionary
  0
DICTIONARY
  5
2A
102
{ACAD_REACTORS
330
C
102
}
330
C
100
AcDbDictionary
  3
2DWIREFRAME
350
2F
  3
3D_HIDDEN
350
31
  3
3DWIREFRAME
350
30
  3
BASIC
350
32
  3
BRIGHTEN
350
36
  3
COLORCHANGE
350
3A
  3
CONCEPTUAL
350
34
  3
DIM
350
35
  3
FACEPATTERN
350
39
  3
FLAT
350
2B
  3
FLATWITHEDGES
350
2C
  3
GOURAUD
350
2D
  3
GOURAUDWITHEDGES
350
2E
  3
LINEPATTERN
350
38
  3
REALISTIC
350
33
  3
THICKEN
350
37
  0
DICTIONARY
  5
577
102
{ACAD_REACTORS
330
C
102
}
330
C
100
AcDbDictionary
  3
CEPSNTYPE
350
580
  3
DIMSTYLEDATA
350
596
  3
FINGERPRINTGUID
350
581
  3
HYPERLINKBASE
350
57A
  3
INSUNITS
350
57F
  3
LAYOUTDICT
350
57C
  3
LWETCUNION
350
57E
  3
PLOTSETDICT
350
57D
  3
PSVPSCALE
350
583
  3
PUCSBASE
350
586
  3
PUCSORGBACK
350
58C
  3
PUCSORGBOTTOM
350
588
  3
PUCSORGFRONT
350
58B
  3
PUCSORGLEFT
350
589
  3
PUCSORGRIGHT
350
58A
  3
PUCSORGTOP
350
587
  3
PUCSORTHOREF
350
584
  3
PUCSORTHOVIEW
350
585
  3
STYLESHEET
350
57B
  3
TSTACKALIGN
350
578
  3
TSTACKSIZE
350
579
  3
UCSBASE
350
58F
  3
UCSORGBACK
350
595
  3
UCSORGBOTTOM
350
591
  3
UCSORGFRONT
350
594
  3
UCSORGLEFT
350
592
  3
UCSORGRIGHT
350
593
  3
UCSORGTOP
350
590
  3
UCSORTHOREF
350
58D
  3
UCSORTHOVIEW
350
58E
  3
VERSIONGUID
350
582
  0
DICTIONARY
  5
597
102
{ACAD_REACTORS
330
C
102
}
330
C
100
AcDbDictionary
  3
DIMASSOC
350
59A
  3
HIDETEXT
350
59B
  0
MATERIAL
  5
3D
102
{ACAD_REACTORS
330
3B
102
}
102
{ACAD_XDICTIONARY
360
59E
102
}
330
3B
100
AcDbMaterial
  1
ByBlock
  0
MATERIAL
  5
3C
102
{ACAD_REACTORS
330
3B
102
}
102
{ACAD_XDICTIONARY
360
59C
102
}
330
3B
100
AcDbMaterial
  1
ByLayer
  0
MATERIAL
  5
3E
102
{ACAD_REACTORS
330
3B
102
}
102
{ACAD_XDICTIONARY
360
5A0
102
}
330
3B
100
AcDbMaterial
  1
Global
  0
MLINESTYLE
  5
18
102
{ACAD_REACTORS
330
17
102
}
330
17
100
AcDbMlineStyle
  2
Standard
 70
     0
  3

 62
   256
 51
90.0
 52
90.0
 71
     2
 49
0.5
 62
   256
  6
BYLAYER
 49
-0.5
 62
   256
  6
BYLAYER
  0
ACAD_PROXY_OBJECT
  5
2F
102
{ACAD_REACTORS
330
2A
102
}
330
2A
100
AcDbProxyObject
 90
      499
 91
      501
 93
      436
310
42CC9915DA5C99599C985B595049028333333333333E3BF0000000000000FB0107901411070040501600405405064090741402480A0340
1001
ACAD
1000
AcDbSavedByObjectVersion
1070
     0
  0
ACAD_PROXY_OBJECT
  5
31
102
{ACAD_REACTORS
330
2A
102
}
330
2A
100
AcDbProxyObject
 90
      499
 91
      501
 93
      500
310
424CD108121A5919195B90640502408333333333333E3BF0000000000000FB01079024090700405020000000000001110200405405064090740C02480A0340
1001
ACAD
1000
AcDbSavedByObjectVersion
1070
     0
  0
ACAD_PROXY_OBJECT
  5
30
102
{ACAD_REACTORS
330
2A
102
}
330
2A
100
AcDbProxyObject
 90
      499
 91
      501
 93
      436
310
42CCD915DA5C99599C985B595059028333333333333E3BF0000000000000FB0107901411070040501600405405064090741402480A0340
1001
ACAD
1000
AcDbSavedByObjectVersion
1070
     0
  0
ACAD_PROXY_OBJECT
  5
32
102
{ACAD_REACTORS
330
2A
102
}
330
2A
100
AcDbProxyObject
 90
      499
 91
      501
 93
      388
310
4150985CDA58D07406404333333333333E3BF0000000000000FB0107A41107004050150841D405064090741402480A0350
1001
ACAD
1000
AcDbSavedByObjectVersion
1070
     0
  0
ACAD_PROXY_OBJECT
  5
36
102
{ACAD_REACTORS
330
2A
102
}
330
2A
100
AcDbProxyObject
 90
      499
 91
      501
 93
      428
310
42109C9A59DA1D195B90C409028333333333333E3BF0000000000000FB010790141107004050150841D405064090741402480A029950
1001
ACAD
1000
AcDbSavedByObjectVersion
1070
     0
  0
ACAD_PROXY_OBJECT
  5
3A
102
{ACAD_REACTORS
330
2A
102
}
330
2A
100
AcDbProxyObject
 90
      499
 91
      501
 93
      452
310
42D0DBDB1BDC90DA185B99D95104090240C333333333333E3BF0000000000000FB0108901411070040501508421405064090741402480A0350
1001
ACAD
1000
AcDbSavedByObjectVersion
1070
     0
  0
ACAD_PROXY_OBJECT
  5
34
102
{ACAD_REACTORS
330
2A
102
}
330
2A
100
AcDbProxyObject
 90
      499
 91
      501
 93
      500
310
4290DBDB98D95C1D1D585B10940D028333333333333E3BF0000000000000FB0107902409070040501000000000000111010841D405064090740C02480A0340
1001
ACAD
1000
AcDbSavedByObjectVersion
1070
     0
  0
ACAD_PROXY_OBJECT
  5
35
102
{ACAD_REACTORS
330
2A
102
}
330
2A
100
AcDbProxyObject
 90
      499
 91
      501
 93
      412
310
40D11A5B50B409028333333333333E3BF0000000000000FB010790141107004050150841D405064090741402480A02677FFFFFD0
1001
ACAD
1000
AcDbSavedByObjectVersion
1070
     0
  0
ACAD_PROXY_OBJECT
  5
39
102
{ACAD_REACTORS
330
2A
102
}
330
2A
100
AcDbProxyObject
 90
      499
 91
      501
 93
      444
310
42D19858D95C185D1D195C9B90F409028333333333333E3BF0000000000000FB010790141107004050150841D405064090741402480A0350
1001
ACAD
1000
AcDbSavedByObjectVersion
1070
     0
  0
ACAD_PROXY_OBJECT
  5
2B
102
{ACAD_REACTORS
330
2A
102
}
330
2A
100
AcDbProxyObject
 90
      499
 91
      501
 93
      388
310
41119B185D240901404333333333333E3BF0000000000000F9010740A41107004050150841D405064090741402480A1B50
1001
ACAD
1000
AcDbSavedByObjectVersion
1070
     0
  0
ACAD_PROXY_OBJECT
  5
2C
102
{ACAD_REACTORS
330
2A
102
}
330
2A
100
AcDbProxyObject
 90
      499
 91
      501
 93
      476
310
43519B185D15DA5D1A115919D95CD0140901404333333333333E3BF0000000000000F9010740901411070040501600405405064090741402480A1B50
1001
ACAD
1000
AcDbSavedByObjectVersion
1070
     0
  0
ACAD_PROXY_OBJECT
  5
2D
102
{ACAD_REACTORS
330
2A
102
}
330
2A
100
AcDbProxyObject
 90
      499
 91
      501
 93
      412
310
41D1DBDD5C985D5910240902404333333333333E3BF0000000000000F9010740A411070040501641D405064090741402480A1B50
1001
ACAD
1000
AcDbSavedByObjectVersion
1070
     0
  0
ACAD_PROXY_OBJECT
  5
2E
102
{ACAD_REACTORS
330
2A
102
}
330
2A
100
AcDbProxyObject
 90
      499
 91
      501
 93
      500
310
4411DBDD5C985D5915DA5D1A115919D95CD0340902404333333333333E3BF0000000000000F9010740901411070040501600405405064090741402480A1B50
1001
ACAD
1000
AcDbSavedByObjectVersion
1070
     0
  0
ACAD_PROXY_OBJECT
  5
38
102
{ACAD_REACTORS
330
2A
102
}
330
2A
100
AcDbProxyObject
 90
      499
 91
      501
 93
      444
310
42D31A5B995C185D1D195C9B90E409028333333333333E3BF0000000000000FB010790141107004050750841D405064090741402483A0350
1001
ACAD
1000
AcDbSavedByObjectVersion
1070
     0
  0
ACAD_PROXY_OBJECT
  5
33
102
{ACAD_REACTORS
330
2A
102
}
330
2A
100
AcDbProxyObject
 90
      499
 91
      501
 93
      420
310
425499585B1A5CDD1A58D08409028333333333333E3BF0000000000000FB01079019070040501508421405064090741402480A1B40
1001
ACAD
1000
AcDbSavedByObjectVersion
1070
     0
  0
ACAD_PROXY_OBJECT
  5
37
102
{ACAD_REACTORS
330
2A
102
}
330
2A
100
AcDbProxyObject
 90
      499
 91
      501
 93
      412
310
41D51A1A58DAD95B90D409028333333333333E3BF0000000000000FB010790141107004050150C41D405064090741402480A0350
1001
ACAD
1000
AcDbSavedByObjectVersion
1070
     0
  0
XRECORD
  5
580
102
{ACAD_REACTORS
330
577
102
}
330
577
100
AcDbXrecord
 90
        0
  0
XRECORD
  5
596
102
{ACAD_REACTORS
330
577
102
}
330
577
100
AcDbXrecord
1000
DSTYLE
1002
{
1070
   340
340
11
1002
}
  0
XRECORD
  5
581
102
{ACAD_REACTORS
330
577
102
}
330
577
100
AcDbXrecord
  1
{A96A1255-6145-4443-B48F-0025E2116897}
  0
XRECORD
  5
57A
102
{ACAD_REACTORS
330
577
102
}
330
577
100
AcDbXrecord
  1

  0
XRECORD
  5
57F
102
{ACAD_REACTORS
330
577
102
}
330
577
100
AcDbXrecord
 90
        1
  0
XRECORD
  5
57C
102
{ACAD_REACTORS
330
577
102
}
330
577
100
AcDbXrecord
340
1A
  0
XRECORD
  5
57E
102
{ACAD_REACTORS
330
577
102
}
330
577
100
AcDbXrecord
 90
    10269
  0
XRECORD
  5
57D
102
{ACAD_REACTORS
330
577
102
}
330
577
100
AcDbXrecord
340
19
  0
XRECORD
  5
583
102
{ACAD_REACTORS
330
577
102
}
330
577
100
AcDbXrecord
 40
0.0
  0
XRECORD
  5
586
102
{ACAD_REACTORS
330
577
102
}
330
577
100
AcDbXrecord
340
0
  0
XRECORD
  5
58C
102
{ACAD_REACTORS
330
577
102
}
330
577
100
AcDbXrecord
 10
0.0
 20
0.0
 30
0.0
  0
XRECORD
  5
588
102
{ACAD_REACTORS
330
577
102
}
330
577
100
AcDbXrecord
 10
0.0
 20
0.0
 30
0.0
  0
XRECORD
  5
58B
102
{ACAD_REACTORS
330
577
102
}
330
577
100
AcDbXrecord
 10
0.0
 20
0.0
 30
0.0
  0
XRECORD
  5
589
102
{ACAD_REACTORS
330
577
102
}
330
577
100
AcDbXrecord
 10
0.0
 20
0.0
 30
0.0
  0
XRECORD
  5
58A
102
{ACAD_REACTORS
330
577
102
}
330
577
100
AcDbXrecord
 10
0.0
 20
0.0
 30
0.0
  0
XRECORD
  5
587
102
{ACAD_REACTORS
330
577
102
}
330
577
100
AcDbXrecord
 10
0.0
 20
0.0
 30
0.0
  0
XRECORD
  5
584
102
{ACAD_REACTORS
330
577
102
}
330
577
100
AcDbXrecord
340
0
  0
XRECORD
  5
585
102
{ACAD_REACTORS
330
577
102
}
330
577
100
AcDbXrecord
 70
     0
  0
XRECORD
  5
57B
102
{ACAD_REACTORS
330
577
102
}
330
577
100
AcDbXrecord
  1

  0
XRECORD
  5
578
102
{ACAD_REACTORS
330
577
102
}
330
577
100
AcDbXrecord
 90
        1
  0
XRECORD
  5
579
102
{ACAD_REACTORS
330
577
102
}
330
577
100
AcDbXrecord
 90
       70
  0
XRECORD
  5
58F
102
{ACAD_REACTORS
330
577
102
}
330
577
100
AcDbXrecord
340
0
  0
XRECORD
  5
595
102
{ACAD_REACTORS
330
577
102
}
330
577
100
AcDbXrecord
 10
0.0
 20
0.0
 30
0.0
  0
XRECORD
  5
591
102
{ACAD_REACTORS
330
577
102
}
330
577
100
AcDbXrecord
 10
0.0
 20
0.0
 30
0.0
  0
XRECORD
  5
594
102
{ACAD_REACTORS
330
577
102
}
330
577
100
AcDbXrecord
 10
0.0
 20
0.0
 30
0.0
  0
XRECORD
  5
592
102
{ACAD_REACTORS
330
577
102
}
330
577
100
AcDbXrecord
 10
0.0
 20
0.0
 30
0.0
  0
XRECORD
  5
593
102
{ACAD_REACTORS
330
577
102
}
330
577
100
AcDbXrecord
 10
0.0
 20
0.0
 30
0.0
  0
XRECORD
  5
590
102
{ACAD_REACTORS
330
577
102
}
330
577
100
AcDbXrecord
 10
0.0
 20
0.0
 30
0.0
  0
XRECORD
  5
58D
102
{ACAD_REACTORS
330
577
102
}
330
577
100
AcDbXrecord
340
0
  0
XRECORD
  5
58E
102
{ACAD_REACTORS
330
577
102
}
330
577
100
AcDbXrecord
 70
     0
  0
XRECORD
  5
582
102
{ACAD_REACTORS
330
577
102
}
330
577
100
AcDbXrecord
  1
{FAEB1C32-E019-11D5-929B-00C0DF256EC4}
  0
DICTIONARYVAR
  5
59A
102
{ACAD_REACTORS
330
597
102
}
330
597
100
DictionaryVariables
280
     0
  1
2
  0
DICTIONARYVAR
  5
59B
102
{ACAD_REACTORS
330
597
102
}
330
597
100
DictionaryVariables
280
     0
  1
1
  0
DICTIONARY
  5
59E
330
3D
100
AcDbDictionary
280
     1
  3
ACAD_XREC_ROUNDTRIP
360
59F
  0
DICTIONARY
  5
59C
330
3C
100
AcDbDictionary
280
     1
  3
ACAD_XREC_ROUNDTRIP
360
59D
  0
DICTIONARY
  5
5A0
330
3E
100
AcDbDictionary
280
     1
  3
ACAD_XREC_ROUNDTRIP
360
5A1
  0
XRECORD
  5
59F
102
{ACAD_REACTORS
330
59E
102
}
330
59E
100
AcDbXrecord
102
MATERIAL
148
0.0
149
0.0
149
0.0
 93
        0
 94
      127
282
     0
 72
     1
 77
     1
171
     1
175
     1
179
     1
273
     0
  0
XRECORD
  5
59D
102
{ACAD_REACTORS
330
59C
102
}
330
59C
100
AcDbXrecord
102
MATERIAL
148
0.0
149
0.0
149
0.0
 93
        0
 94
      127
282
     0
 72
     1
 77
     1
171
     1
175
     1
179
     1
273
     0
  0
XRECORD
  5
5A1
102
{ACAD_REACTORS
330
5A0
102
}
330
5A0
100
AcDbXrecord
102
MATERIAL
148
0.0
149
0.0
149
0.0
 93
        0
 94
      127
282
     0
 72
     1
 77
     1
171
     1
175
     1
179
     1
273
     0
  0
ENDSEC
  0
EOF
