  0
SECTION
  2
HEADER
  9
$ACADVER
  1
AC1015
  9
$ACADMAINTVER
 70
     6
  9
$DWGCODEPAGE
  3
ANSI_1252
  9
$INSBASE
 10
0.0
 20
0.0
 30
0.0
  9
$EXTMIN
 10
0.0
 20
0.0
 30
0.0
  9
$EXTMAX
 10
2970.0
 20
2100.0
 30
0.0
  9
$LIMMIN
 10
0.0
 20
0.0
  9
$LIMMAX
 10
2970.0
 20
2100.0
  9
$ORTHOMODE
 70
     0
  9
$REGENMODE
 70
     1
  9
$FILLMODE
 70
     1
  9
$QTEXTMODE
 70
     0
  9
$MIRRTEXT
 70
     1
  9
$LTSCALE
 40
10.0
  9
$ATTMODE
 70
     1
  9
$TEXTSIZE
 40
35.0
  9
$TRACEWID
 40
1.0
  9
$TEXTSTYLE
  7
Standard
  9
$CLAYER
  8
0
  9
$CELTYPE
  6
ByLayer
  9
$CECOLOR
 62
   256
  9
$CELTSCALE
 40
1.0
  9
$DISPSILH
 70
     0
  9
$DIMSCALE
 40
1.0
  9
$DIMASZ
 40
25.0
  9
$DIMEXO
 40
0.0
  9
$DIMDLI
 40
3.75
  9
$DIMRND
 40
0.0
  9
$DIMDLE
 40
0.0
  9
$DIMEXE
 40
10.0
  9
$DIMTP
 40
0.0
  9
$DIMTM
 40
0.0
  9
$DIMTXT
 40
30.0
  9
$DIMCEN
 40
2.5
  9
$DIMTSZ
 40
0.0
  9
$DIMTOL
 70
     0
  9
$DIMLIM
 70
     0
  9
$DIMTIH
 70
     1
  9
$DIMTOH
 70
     1
  9
$DIMSE1
 70
     0
  9
$DIMSE2
 70
     0
  9
$DIMTAD
 70
     1
  9
$DIMZIN
 70
     0
  9
$DIMBLK
  1

  9
$DIMASO
 70
     1
  9
$DIMSHO
 70
     1
  9
$DIMPOST
  1

  9
$DIMAPOST
  1

  9
$DIMALT
 70
     0
  9
$DIMALTD
 70
     3
  9
$DIMALTF
 40
0.0393700787
  9
$DIMLFAC
 40
1.0
  9
$DIMTOFL
 70
     1
  9
$DIMTVP
 40
0.0
  9
$DIMTIX
 70
     0
  9
$DIMSOXD
 70
     0
  9
$DIMSAH
 70
     0
  9
$DIMBLK1
  1

  9
$DIMBLK2
  1

  9
$DIMSTYLE
  2
ISO-25
  9
$DIMCLRD
 70
     0
  9
$DIMCLRE
 70
     0
  9
$DIMCLRT
 70
     0
  9
$DIMTFAC
 40
1.0
  9
$DIMGAP
 40
15.0
  9
$DIMJUST
 70
     0
  9
$DIMSD1
 70
     0
  9
$DIMSD2
 70
     0
  9
$DIMTOLJ
 70
     0
  9
$DIMTZIN
 70
     0
  9
$DIMALTZ
 70
     0
  9
$DIMALTTZ
 70
     0
  9
$DIMUPT
 70
     0
  9
$DIMDEC
 70
     1
  9
$DIMTDEC
 70
     1
  9
$DIMALTU
 70
     2
  9
$DIMALTTD
 70
     3
  9
$DIMTXSTY
  7
Standard
  9
$DIMAUNIT
 70
     0
  9
$DIMADEC
 70
     2
  9
$DIMALTRND
 40
0.0
  9
$DIMAZIN
 70
     0
  9
$DIMDSEP
 70
    44
  9
$DIMATFIT
 70
     3
  9
$DIMFRAC
 70
     0
  9
$DIMLDRBLK
  1

  9
$DIMLUNIT
 70
     2
  9
$DIMLWD
 70
    -2
  9
$DIMLWE
 70
    -2
  9
$DIMTMOVE
 70
     0
  9
$LUNITS
 70
     2
  9
$LUPREC
 70
     2
  9
$SKETCHINC
 40
1.0
  9
$FILLETRAD
 40
10.0
  9
$AUNITS
 70
     0
  9
$AUPREC
 70
     2
  9
$MENU
  1
.
  9
$ELEVATION
 40
0.0
  9
$PELEVATION
 40
0.0
  9
$THICKNESS
 40
0.0
  9
$LIMCHECK
 70
     0
  9
$CHAMFERA
 40
0.0
  9
$CHAMFERB
 40
0.0
  9
$CHAMFERC
 40
0.0
  9
$CHAMFERD
 40
0.0
  9
$SKPOLY
 70
     0
  9
$TDCREATE
 40
2457585.660975231
  9
$TDUCREATE
 40
2457585.577641898
  9
$TDUPDATE
 40
2457585.660976377
  9
$TDUUPDATE
 40
2457585.577643044
  9
$TDINDWG
 40
0.0000000116
  9
$TDUSRTIMER
 40
0.0000000116
  9
$USRTIMER
 70
     1
  9
$ANGBASE
 50
0.0
  9
$ANGDIR
 70
     0
  9
$PDMODE
 70
     0
  9
$PDSIZE
 40
-1.0
  9
$PLINEWID
 40
0.0
  9
$SPLFRAME
 70
     0
  9
$SPLINETYPE
 70
     6
  9
$SPLINESEGS
 70
     8
  9
$HANDSEED
  5
151
  9
$SURFTAB1
 70
     6
  9
$SURFTAB2
 70
     6
  9
$SURFTYPE
 70
     6
  9
$SURFU
 70
     6
  9
$SURFV
 70
     6
  9
$UCSBASE
  2

  9
$UCSNAME
  2

  9
$UCSORG
 10
0.0
 20
0.0
 30
0.0
  9
$UCSXDIR
 10
1.0
 20
0.0
 30
0.0
  9
$UCSYDIR
 10
0.0
 20
1.0
 30
0.0
  9
$UCSORTHOREF
  2

  9
$UCSORTHOVIEW
 70
     0
  9
$UCSORGTOP
 10
0.0
 20
0.0
 30
0.0
  9
$UCSORGBOTTOM
 10
0.0
 20
0.0
 30
0.0
  9
$UCSORGLEFT
 10
0.0
 20
0.0
 30
0.0
  9
$UCSORGRIGHT
 10
0.0
 20
0.0
 30
0.0
  9
$UCSORGFRONT
 10
0.0
 20
0.0
 30
0.0
  9
$UCSORGBACK
 10
0.0
 20
0.0
 30
0.0
  9
$PUCSBASE
  2

  9
$PUCSNAME
  2

  9
$PUCSORG
 10
0.0
 20
0.0
 30
0.0
  9
$PUCSXDIR
 10
1.0
 20
0.0
 30
0.0
  9
$PUCSYDIR
 10
0.0
 20
1.0
 30
0.0
  9
$PUCSORTHOREF
  2

  9
$PUCSORTHOVIEW
 70
     0
  9
$PUCSORGTOP
 10
0.0
 20
0.0
 30
0.0
  9
$PUCSORGBOTTOM
 10
0.0
 20
0.0
 30
0.0
  9
$PUCSORGLEFT
 10
0.0
 20
0.0
 30
0.0
  9
$PUCSORGRIGHT
 10
0.0
 20
0.0
 30
0.0
  9
$PUCSORGFRONT
 10
0.0
 20
0.0
 30
0.0
  9
$PUCSORGBACK
 10
0.0
 20
0.0
 30
0.0
  9
$USERI1
 70
     0
  9
$USERI2
 70
     0
  9
$USERI3
 70
     0
  9
$USERI4
 70
     0
  9
$USERI5
 70
     0
  9
$USERR1
 40
0.0
  9
$USERR2
 40
0.0
  9
$USERR3
 40
0.0
  9
$USERR4
 40
0.0
  9
$USERR5
 40
0.0
  9
$WORLDVIEW
 70
     1
  9
$SHADEDGE
 70
     3
  9
$SHADEDIF
 70
    70
  9
$TILEMODE
 70
     1
  9
$MAXACTVP
 70
    64
  9
$PINSBASE
 10
0.0
 20
0.0
 30
0.0
  9
$PLIMCHECK
 70
     0
  9
$PEXTMIN
 10
1.0000000000E+20
 20
1.0000000000E+20
 30
1.0000000000E+20
  9
$PEXTMAX
 10
-1.0000000000E+20
 20
-1.0000000000E+20
 30
-1.0000000000E+20
  9
$PLIMMIN
 10
0.0
 20
0.0
  9
$PLIMMAX
 10
420.0
 20
297.0
  9
$UNITMODE
 70
     0
  9
$VISRETAIN
 70
     1
  9
$PLINEGEN
 70
     0
  9
$PSLTSCALE
 70
     1
  9
$TREEDEPTH
 70
  3020
  9
$CMLSTYLE
  2
Standard
  9
$CMLJUST
 70
     0
  9
$CMLSCALE
 40
20.0
  9
$PROXYGRAPHICS
 70
     1
  9
$MEASUREMENT
 70
     1
  9
$CELWEIGHT
370
    -1
  9
$ENDCAPS
280
     0
  9
$JOINSTYLE
280
     0
  9
$LWDISPLAY
290
     1
  9
$INSUNITS
 70
     4
  9
$HYPERLINKBASE
  1

  9
$STYLESHEET
  1

  9
$XEDIT
290
     1
  9
$CEPSNTYPE
380
     0
  9
$PSTYLEMODE
290
     1
  9
$FINGERPRINTGUID
  2
{6AF9DCA3-2F00-4B55-B49A-35C011F2386D}
  9
$VERSIONGUID
  2
{FAEB1C32-E019-11D5-929B-00C0DF256EC4}
  9
$EXTNAMES
290
     1
  9
$PSVPSCALE
 40
0.0
  9
$OLESTARTUP
290
     0
  0
ENDSEC
  0
SECTION
  2
CLASSES
  0
CLASS
  1
ACDBDICTIONARYWDFLT
  2
AcDbDictionaryWithDefault
  3
ObjectDBX Classes
 90
        0
280
     0
281
     0
  0
CLASS
  1
VISUALSTYLE
  2
AcDbVisualStyle
  3
ObjectDBX Classes
 90
     4095
280
     0
281
     0
  0
CLASS
  1
MATERIAL
  2
AcDbMaterial
  3
ObjectDBX Classes
 90
     1153
280
     0
281
     0
  0
CLASS
  1
SCALE
  2
AcDbScale
  3
ObjectDBX Classes
 90
     1153
280
     0
281
     0
  0
CLASS
  1
TABLESTYLE
  2
AcDbTableStyle
  3
ObjectDBX Classes
 90
     4095
280
     0
281
     0
  0
CLASS
  1
MLEADERSTYLE
  2
AcDbMLeaderStyle
  3
ACDB_MLEADERSTYLE_CLASS
 90
     4095
280
     0
281
     0
  0
CLASS
  1
SUN
  2
AcDbSun
  3
SCENEOE
 90
     1153
280
     0
281
     0
  0
CLASS
  1
ACDBPLACEHOLDER
  2
AcDbPlaceHolder
  3
ObjectDBX Classes
 90
        0
280
     0
281
     0
  0
CLASS
  1
LAYOUT
  2
AcDbLayout
  3
ObjectDBX Classes
 90
        0
280
     0
281
     0
  0
ENDSEC
  0
SECTION
  2
TABLES
  0
TABLE
  2
VPORT
  5
8
330
0
100
AcDbSymbolTable
 70
     1
  0
VPORT
  5
29
330
8
100
AcDbSymbolTableRecord
100
AcDbViewportTableRecord
  2
*Active
 70
     0
 10
0.0
 20
0.0
 11
1.0
 21
1.0
 12
1485.0
 22
1050.0
 13
0.0
 23
0.0
 14
10.0
 24
10.0
 15
10.0
 25
10.0
 16
0.0
 26
0.0
 36
1.0
 17
0.0
 27
0.0
 37
0.0
 40
2100.0
 41
1.4142857143
 42
50.0
 43
0.0
 44
0.0
 50
0.0
 51
0.0
 71
     0
 72
  2000
 73
     1
 74
     3
 75
     0
 76
     0
 77
     0
 78
     0
281
     0
 65
     1
110
0.0
120
0.0
130
0.0
111
1.0
121
0.0
131
0.0
112
0.0
122
1.0
132
0.0
 79
     0
146
0.0
  0
ENDTAB
  0
TABLE
  2
LTYPE
  5
5
330
0
100
AcDbSymbolTable
 70
     6
  0
LTYPE
  5
14
330
5
100
AcDbSymbolTableRecord
100
AcDbLinetypeTableRecord
  2
ByBlock
 70
     0
  3

 72
    65
 73
     0
 40
0.0
  0
LTYPE
  5
15
330
5
100
AcDbSymbolTableRecord
100
AcDbLinetypeTableRecord
  2
ByLayer
 70
     0
  3

 72
    65
 73
     0
 40
0.0
  0
LTYPE
  5
16
330
5
100
AcDbSymbolTableRecord
100
AcDbLinetypeTableRecord
  2
Continuous
 70
     0
  3
Solid line
 72
    65
 73
     0
 40
0.0
  0
LTYPE
  5
6E
330
5
100
AcDbSymbolTableRecord
100
AcDbLinetypeTableRecord
  2
HIDDEN
 70
     0
  3
Hidden __ __ __ __ __ __ __ __ __ __ __ __ __ __
 72
    65
 73
     2
 40
1.905
 49
1.27
 74
     0
 49
-0.635
 74
     0
  0
LTYPE
  5
6F
330
5
100
AcDbSymbolTableRecord
100
AcDbLinetypeTableRecord
  2
PHANTOM
 70
     0
  3
Phantom ______  __  __  ______  __  __  ______
 72
    65
 73
     6
 40
12.7
 49
6.35
 74
     0
 49
-1.27
 74
     0
 49
1.27
 74
     0
 49
-1.27
 74
     0
 49
1.27
 74
     0
 49
-1.27
 74
     0
  0
LTYPE
  5
70
330
5
100
AcDbSymbolTableRecord
100
AcDbLinetypeTableRecord
  2
CENTER
 70
     0
  3
Center ____ _ ____ _ ____ _ ____ _ ____ _ ____
 72
    65
 73
     4
 40
10.16
 49
6.35
 74
     0
 49
-1.27
 74
     0
 49
1.27
 74
     0
 49
-1.27
 74
     0
  0
LTYPE
  5
71
330
5
100
AcDbSymbolTableRecord
100
AcDbLinetypeTableRecord
  2
CENTERX2
 70
     0
  3
Center (2x) ________  __  ________  __  _____
 72
    65
 73
     4
 40
20.32
 49
12.7
 74
     0
 49
-2.54
 74
     0
 49
2.54
 74
     0
 49
-2.54
 74
     0
  0
LTYPE
  5
72
330
5
100
AcDbSymbolTableRecord
100
AcDbLinetypeTableRecord
  2
DOT2
 70
     0
  3
Dot (.5x) ........................................
 72
    65
 73
     2
 40
0.635
 49
0.0
 74
     0
 49
-0.635
 74
     0
  0
ENDTAB
  0
TABLE
  2
LAYER
  5
2
330
0
100
AcDbSymbolTable
 70
     2
  0
LAYER
  5
10
330
2
100
AcDbSymbolTableRecord
100
AcDbLayerTableRecord
  2
0
 70
     0
 62
     7
  6
Continuous
370
    -3
390
F
  0
LAYER
  5
73
330
2
100
AcDbSymbolTableRecord
100
AcDbLayerTableRecord
  2
FORMAT
 70
     0
 62
     7
  6
Continuous
370
    -3
390
F
  0
ENDTAB
  0
TABLE
  2
STYLE
  5
3
330
0
100
AcDbSymbolTable
 70
     2
  0
STYLE
  5
11
330
3
100
AcDbSymbolTableRecord
100
AcDbTextStyleTableRecord
  2
Standard
 70
     0
 40
0.0
 41
1.0
 50
0.0
 71
     0
 42
35.0
  3
txt
  4

  0
STYLE
  5
E7
330
3
100
AcDbSymbolTableRecord
100
AcDbTextStyleTableRecord
  2
SLDTEXTSTYLE0
 70
     0
 40
0.0
 41
0.605
 50
0.0
 71
     0
 42
35.0
  3
TXT
  4

  0
ENDTAB
  0
TABLE
  2
VIEW
  5
6
330
0
100
AcDbSymbolTable
 70
     0
  0
ENDTAB
  0
TABLE
  2
UCS
  5
7
330
0
100
AcDbSymbolTable
 70
     0
  0
ENDTAB
  0
TABLE
  2
APPID
  5
9
330
0
100
AcDbSymbolTable
 70
     1
  0
APPID
  5
12
330
9
100
AcDbSymbolTableRecord
100
AcDbRegAppTableRecord
  2
ACAD
 70
     0
  0
ENDTAB
  0
TABLE
  2
DIMSTYLE
  5
A
330
0
100
AcDbSymbolTable
 70
     1
100
AcDbDimStyleTable
  0
DIMSTYLE
105
27
330
A
100
AcDbSymbolTableRecord
100
AcDbDimStyleTableRecord
  2
ISO-25
 70
     0
 41
2.5
 42
0.625
 43
3.75
 44
1.25
 73
     0
 74
     0
 77
     1
 78
     8
140
2.5
141
2.5
143
0.0393700787
147
0.625
171
     3
172
     1
178
     0
271
     2
272
     2
274
     3
278
    44
283
     0
284
     8
340
11
  0
ENDTAB
  0
TABLE
  2
BLOCK_RECORD
  5
1
330
0
100
AcDbSymbolTable
 70
     3
  0
BLOCK_RECORD
  5
1F
330
1
100
AcDbSymbolTableRecord
100
AcDbBlockTableRecord
  2
*Model_Space
340
22
  0
BLOCK_RECORD
  5
1B
330
1
100
AcDbSymbolTableRecord
100
AcDbBlockTableRecord
  2
*Paper_Space
340
1E
  0
BLOCK_RECORD
  5
23
330
1
100
AcDbSymbolTableRecord
100
AcDbBlockTableRecord
  2
*Paper_Space0
340
26
  0
BLOCK_RECORD
  5
EB
330
1
100
AcDbSymbolTableRecord
100
AcDbBlockTableRecord
  2
SW_NOTE_0
340
0
102
{BLKREFS
331
F0
102
}
  0
BLOCK_RECORD
  5
F3
330
1
100
AcDbSymbolTableRecord
100
AcDbBlockTableRecord
  2
SW_NOTE_1
340
0
102
{BLKREFS
331
F8
102
}
  0
ENDTAB
  0
ENDSEC
  0
SECTION
  2
BLOCKS
  0
BLOCK
  5
20
330
1F
100
AcDbEntity
  8
0
100
AcDbBlockBegin
  2
*Model_Space
 70
     0
 10
0.0
 20
0.0
 30
0.0
  3
*Model_Space
  1

  0
ENDBLK
  5
21
330
1F
100
AcDbEntity
  8
0
100
AcDbBlockEnd
  0
BLOCK
  5
1C
330
1B
100
AcDbEntity
 67
     1
  8
0
100
AcDbBlockBegin
  2
*Paper_Space
 70
     0
 10
0.0
 20
0.0
 30
0.0
  3
*Paper_Space
  1

  0
ENDBLK
  5
1D
330
1B
100
AcDbEntity
 67
     1
  8
0
100
AcDbBlockEnd
  0
BLOCK
  5
24
330
23
100
AcDbEntity
  8
0
100
AcDbBlockBegin
  2
*Paper_Space0
 70
     0
 10
0.0
 20
0.0
 30
0.0
  3
*Paper_Space0
  1

  0
ENDBLK
  5
25
330
23
100
AcDbEntity
  8
0
100
AcDbBlockEnd
  0
BLOCK
  5
EC
330
EB
100
AcDbEntity
  8
0
100
AcDbBlockBegin
  2
SW_NOTE_0
 70
     0
 10
0.0
 20
0.0
 30
0.0
  3
SW_NOTE_0
  1

  0
MTEXT
  5
EE
330
EB
100
AcDbEntity
  8
0
  6
Continuous
 62
     0
370
     0
100
AcDbMText
 10
0.0
 20
23.2032193159
 30
0.0
 40
18.0
 41
0.0
 71
     1
 72
     1
  1
Questo disegno e posto sotto la tutela delle vigenti Leggi e non puo essere utilizzato da terze persone se non previa autorizzazione scritta della PEDRALI
  7
SLDTEXTSTYLE0
 73
     1
 44
1.0
  0
MTEXT
  5
EF
330
EB
100
AcDbEntity
  8
0
  6
Continuous
 62
     0
370
     0
100
AcDbMText
 10
1355.5219376087
 20
23.2032193159
 30
0.0
 40
18.0
 41
0.0
 71
     1
 72
     1
  1
S.p.A.
  7
SLDTEXTSTYLE0
 73
     1
 44
1.0
  0
ENDBLK
  5
ED
330
EB
100
AcDbEntity
  8
0
100
AcDbBlockEnd
  0
BLOCK
  5
F4
330
F3
100
AcDbEntity
  8
0
100
AcDbBlockBegin
  2
SW_NOTE_1
 70
     0
 10
0.0
 20
0.0
 30
0.0
  3
SW_NOTE_1
  1

  0
MTEXT
  5
F6
330
F3
100
AcDbEntity
  8
0
  6
Continuous
 62
     0
370
     0
100
AcDbMText
 10
33.1875
 20
23.2032193159
 30
0.0
 40
18.0
 41
0.0
 71
     2
 72
     1
  1
SCALA
  7
SLDTEXTSTYLE0
 73
     1
 44
1.0
  0
MTEXT
  5
F7
330
F3
100
AcDbEntity
  8
0
  6
Continuous
 62
     0
370
     0
100
AcDbMText
 10
35.6098540438
 20
-1.6396707646
 30
0.0
 40
37.0416666667
 41
0.0
 71
     2
 72
     1
  1
1:1
  7
SLDTEXTSTYLE0
 73
     1
 44
1.0
  0
ENDBLK
  5
F5
330
F3
100
AcDbEntity
  8
0
100
AcDbBlockEnd
  0
ENDSEC
  0
SECTION
  2
ENTITIES
  0
HATCH
  5
74
330
1F
100
AcDbEntity
  8
0
  6
Continuous
 62
     7
100
AcDbHatch
 10
0.0
 20
0.0
 30
0.0
210
0.0
220
0.0
230
1.0
  2
SOLID
 70
     1
 71
     0
 91
        2
 92
        0
 93
        6
 72
     1
 10
2340.243226420216
 20
319.3144821747094
 11
2356.647910872445
 21
319.3144821747094
 72
     3
 10
2351.078765157099
 20
331.9559440369547
 11
27.08884684798352
 21
0.0
 40
0.4768529109443384
 50
293.7756995582609
 51
426.2243004403791
 73
     1
 72
     1
 10
2356.647910872789
 20
344.5974058991662
 11
2323.989918311282
 21
344.5974058991662
 72
     1
 10
2323.989918311282
 20
344.5974058991662
 11
2323.989918311282
 21
304.8670971915081
 72
     1
 10
2323.989918311282
 20
304.8670971915081
 11
2340.243226420216
 21
304.8670971915081
 72
     1
 10
2340.243226420216
 20
304.8670971915081
 11
2340.243226420216
 21
319.3144821747094
 97
        0
 92
        0
 93
        6
 72
     3
 10
2350.175803596967
 20
331.9559440369547
 11
9.932577177641511
 21
0.0
 40
0.5895245510672578
 50
316.3365658560252
 51
403.663434144226
 73
     0
 72
     2
 10
2352.923880980421
 20
333.7618671600596
 40
7.223692492544108
 50
69.99121011132742
 51
90.0
 73
     0
 72
     1
 10
2352.923880980421
 20
326.5381746675155
 11
2340.243226419814
 21
326.5381746675155
 72
     1
 10
2340.243226419814
 20
326.5381746675155
 11
2340.243226419814
 21
337.37371340629
 72
     1
 10
2340.243226419814
 20
337.37371340629
 11
2352.923880981012
 21
337.37371340629
 72
     2
 10
2352.923880981012
 20
330.150020915474
 40
7.223692490816113
 50
270.0000000000008
 51
290.0087898889545
 73
     0
 97
        0
 75
     0
 76
     1
 98
        1
 10
0.0
 20
0.0
  0
HATCH
  5
75
330
1F
100
AcDbEntity
  8
0
  6
Continuous
 62
     7
100
AcDbHatch
 10
0.0
 20
0.0
 30
0.0
210
0.0
220
0.0
230
1.0
  2
SOLID
 70
     1
 71
     0
 91
        1
 92
        0
 93
       12
 72
     1
 10
2435.957151948124
 20
344.59740589754
 11
2381.779458253796
 21
344.59740589754
 72
     1
 10
2381.779458253796
 20
344.59740589754
 11
2381.779458253796
 21
304.867097189882
 72
     1
 10
2381.779458253796
 20
304.867097189882
 11
2435.957151948124
 21
304.867097189882
 72
     1
 10
2435.957151948124
 20
304.867097189882
 11
2435.957151948124
 21
312.09078967967
 72
     1
 10
2435.957151948124
 20
312.09078967967
 11
2399.838689485178
 21
312.09078967967
 72
     1
 10
2399.838689485178
 20
312.09078967967
 11
2399.838689485178
 21
321.1204052953607
 72
     1
 10
2399.838689485178
 20
321.1204052953607
 11
2432.345305703229
 21
321.1204052953607
 72
     1
 10
2432.345305703229
 20
321.1204052953607
 11
2432.345305703229
 21
328.344097788605
 72
     1
 10
2432.345305703229
 20
328.344097788605
 11
2399.838689485178
 21
328.344097788605
 72
     1
 10
2399.838689485178
 20
328.344097788605
 11
2399.838689485178
 21
337.3737134042958
 72
     1
 10
2399.838689485178
 20
337.3737134042958
 11
2435.957151948124
 21
337.3737134042958
 72
     1
 10
2435.957151948124
 20
337.3737134042958
 11
2435.957151948124
 21
344.59740589754
 97
        0
 75
     0
 76
     1
 98
        1
 10
0.0
 20
0.0
  0
HATCH
  5
76
330
1F
100
AcDbEntity
  8
0
  6
Continuous
 62
     7
100
AcDbHatch
 10
0.0
 20
0.0
 30
0.0
210
0.0
220
0.0
230
1.0
  2
SOLID
 70
     1
 71
     0
 91
        1
 92
        0
 93
        6
 72
     1
 10
2645.444234240045
 20
344.597405899586
 11
2627.385003008663
 21
344.597405899586
 72
     1
 10
2627.385003008663
 20
344.597405899586
 11
2627.385003008663
 21
304.8670971919279
 72
     1
 10
2627.385003008663
 20
304.8670971919279
 11
2676.14492733565
 21
304.8670971919279
 72
     1
 10
2676.14492733565
 20
304.8670971919279
 11
2676.14492733565
 21
313.8967128076189
 72
     1
 10
2676.14492733565
 20
313.8967128076189
 11
2645.444234240045
 21
313.8967128076189
 72
     1
 10
2645.444234240045
 20
313.8967128076189
 11
2645.444234240045
 21
344.597405899586
 97
        0
 75
     0
 76
     1
 98
        1
 10
0.0
 20
0.0
  0
HATCH
  5
77
330
1F
100
AcDbEntity
  8
0
  6
Continuous
 62
     7
100
AcDbHatch
 10
0.0
 20
0.0
 30
0.0
210
0.0
220
0.0
230
1.0
  2
SOLID
 70
     1
 71
     0
 91
        1
 92
        0
 93
        4
 72
     1
 10
2677.950850457337
 20
344.5974058991659
 11
2677.950850457337
 21
304.8670971915079
 72
     1
 10
2677.950850457337
 20
304.8670971915079
 11
2696.010081688719
 21
304.8670971915079
 72
     1
 10
2696.010081688719
 20
304.8670971915079
 11
2696.010081688719
 21
344.5974058991659
 72
     1
 10
2696.010081688719
 20
344.5974058991659
 11
2677.950850457337
 21
344.5974058991659
 97
        0
 75
     0
 76
     1
 98
        1
 10
0.0
 20
0.0
  0
HATCH
  5
78
330
1F
100
AcDbEntity
  8
0
  6
Continuous
 62
     7
100
AcDbHatch
 10
0.0
 20
0.0
 30
0.0
210
0.0
220
0.0
230
1.0
  2
SOLID
 70
     1
 71
     0
 91
        2
 92
        0
 93
        4
 72
     3
 10
2468.463768165085
 20
324.7322515426197
 11
28.89476997115586
 21
0.0
 40
0.6929224243374513
 50
280.2934314618138
 51
439.7065685387129
 73
     1
 72
     1
 10
2472.071526001564
 20
344.5974058975816
 11
2439.568998196665
 21
344.5974058975813
 72
     1
 10
2439.568998196665
 20
344.5974058975813
 11
2439.568998196665
 21
304.8670971876741
 72
     1
 10
2439.568998196665
 20
304.8670971876741
 11
2472.071526001749
 21
304.8670971876741
 97
        0
 92
        0
 93
        6
 72
     2
 10
2472.947172767998
 20
324.7322515421808
 40
10.83553873998016
 50
56.16906508602374
 51
90.0
 73
     0
 72
     1
 10
2472.947172767998
 20
313.8967128022008
 11
2455.82230630316
 21
313.8967128022008
 72
     1
 10
2455.82230630316
 20
313.8967128022008
 11
2455.82230630316
 21
335.5677902826995
 72
     1
 10
2455.82230630316
 20
335.5677902826995
 11
2472.947172767998
 21
335.5677902826995
 72
     2
 10
2472.947172767998
 20
324.7322515421808
 40
10.83553874051871
 50
270.0000000000008
 51
303.8314447476077
 73
     0
 72
     3
 10
2462.14303723761
 20
324.7322515426197
 11
22.57403904004612
 21
0.0
 40
0.5985848325441405
 50
331.8713554011807
 51
388.1288999924611
 73
     0
 97
        0
 75
     0
 76
     1
 98
        1
 10
0.0
 20
0.0
  0
HATCH
  5
79
330
1F
100
AcDbEntity
  8
0
  6
Continuous
 62
     7
100
AcDbHatch
 10
0.0
 20
0.0
 30
0.0
210
0.0
220
0.0
230
1.0
  2
SOLID
 70
     1
 71
     0
 91
        3
 92
        0
 93
       19
 72
     1
 10
2558.870202192612
 20
314.7709579586855
 11
2560.355534650718
 21
308.9676544182703
 72
     2
 10
2565.453566637579
 20
310.114383967383
 40
5.225410873593411
 50
192.6768785101394
 51
204.7368873206736
 73
     1
 72
     1
 10
2560.707644877863
 20
307.927800914186
 11
2584.042848052473
 21
344.597405899586
 72
     1
 10
2584.042848052473
 20
344.597405899586
 11
2602.102079283856
 21
344.597405899586
 72
     1
 10
2602.102079283856
 20
344.597405899586
 11
2627.385003008663
 21
304.8670971919279
 72
     1
 10
2627.385003008663
 20
304.8670971919279
 11
2609.325771777099
 21
304.8670971919279
 72
     1
 10
2609.325771777099
 20
304.8670971919279
 11
2605.262444749956
 21
312.090789681716
 72
     1
 10
2605.262444749956
 20
312.090789681716
 11
2580.882482586372
 21
312.090789681716
 72
     1
 10
2580.882482586372
 20
312.090789681716
 11
2576.819155559229
 21
304.8670971919279
 72
     1
 10
2576.819155559229
 20
304.8670971919279
 11
2546.118462463106
 21
304.8670971919279
 72
     1
 10
2546.118462463106
 20
304.8670971919279
 11
2546.118462463106
 21
312.0907896826544
 72
     2
 10
2538.894769969861
 20
312.0907896826544
 40
7.223692493244227
 50
0.0
 51
90.0
 73
     1
 72
     1
 10
2538.894769969861
 20
319.3144821758984
 11
2520.835538738298
 21
319.3144821758984
 72
     1
 10
2520.835538738298
 20
319.3144821758984
 11
2520.835538738298
 21
304.8670971928664
 72
     1
 10
2520.835538738298
 20
304.8670971928664
 11
2504.582230629363
 21
304.8670971928664
 72
     1
 10
2504.582230629363
 20
304.8670971928664
 11
2504.582230629363
 21
344.5974059005244
 72
     1
 10
2504.582230629363
 20
344.5974059005244
 11
2542.019258305786
 21
344.5974059005244
 72
     3
 10
2538.029947706919
 20
332.9364020822968
 11
24.32666622535162
 21
0.0
 40
0.4859291160023137
 50
288.8861745463018
 51
398.6942257036357
 73
     0
 72
     2
 10
2549.037584929584
 20
312.9627960708336
 40
9.997490267756193
 50
279.2678272406082
 51
349.5800515720779
 73
     0
 97
        0
 92
        0
 93
        3
 72
     1
 10
2593.072463667404
 20
333.7618671594018
 11
2584.945809612937
 21
319.3144821729139
 72
     1
 10
2584.945809612937
 20
319.3144821729139
 11
2601.199117721872
 21
319.3144821729139
 72
     1
 10
2601.199117721872
 20
319.3144821729139
 11
2593.072463667404
 21
333.7618671594018
 97
        0
 92
        0
 93
        6
 72
     2
 10
2538.478172418671
 20
331.9559440374287
 40
5.417769370214362
 50
270.0000000000008
 51
305.5869104965606
 73
     1
 72
     3
 10
2532.574039041056
 20
331.9559440369547
 11
11.73850030081747
 21
0.0
 40
0.5900077182209745
 50
334.058541690378
 51
385.9414583083995
 73
     1
 72
     2
 10
2538.478172418671
 20
331.9559440374287
 40
5.417769369443226
 50
54.41308949502037
 51
90.0
 73
     1
 72
     1
 10
2538.478172418671
 20
337.3737134068722
 11
2520.835538737718
 21
337.3737134068722
 72
     1
 10
2520.835538737718
 20
337.3737134068722
 11
2520.835538737718
 21
326.538174667214
 72
     1
 10
2520.835538737718
 20
326.538174667214
 11
2538.478172418671
 21
326.5381746672143
 97
        0
 75
     0
 76
     1
 98
        1
 10
0.0
 20
0.0
  0
LINE
  5
7A
330
1F
100
AcDbEntity
  8
0
  6
Continuous
 62
     7
370
    15
100
AcDbLine
 10
2870.0
 20
100.0
 30
0.0
 11
2870.0
 21
2000.0
 31
0.0
  0
LINE
  5
7B
330
1F
100
AcDbEntity
  8
0
  6
Continuous
 62
   179
370
     0
100
AcDbLine
 10
2323.9899183113
 20
344.5974058992
 30
0.0
 11
2323.9899183113
 21
304.8670971915
 31
0.0
  0
LINE
  5
7C
330
1F
100
AcDbEntity
  8
0
  6
Continuous
 62
   179
370
     0
100
AcDbLine
 10
2323.9899183113
 20
344.5974058992
 30
0.0
 11
2356.6479108728
 21
344.5974058992
 31
0.0
  0
LINE
  5
7D
330
1F
100
AcDbEntity
  8
0
  6
Continuous
 62
   179
370
     0
100
AcDbLine
 10
2323.9899183113
 20
304.8670971915
 30
0.0
 11
2340.2432264202
 21
304.8670971915
 31
0.0
  0
LINE
  5
7E
330
1F
100
AcDbEntity
  8
0
  6
Continuous
 62
   179
370
     0
100
AcDbLine
 10
2340.2432264202
 20
304.8670971915
 30
0.0
 11
2340.2432264202
 21
319.3144821747
 31
0.0
  0
LINE
  5
7F
330
1F
100
AcDbEntity
  8
0
  6
Continuous
 62
   179
370
     0
100
AcDbLine
 10
2356.6479108724
 20
319.3144821747
 30
0.0
 11
2340.2432264202
 21
319.3144821747
 31
0.0
  0
LINE
  5
80
330
1F
100
AcDbEntity
  8
0
  6
Continuous
 62
   179
370
     0
100
AcDbLine
 10
2340.2432264198
 20
326.5381746675
 30
0.0
 11
2340.2432264198
 21
337.3737134063
 31
0.0
  0
LINE
  5
81
330
1F
100
AcDbEntity
  8
0
  6
Continuous
 62
   179
370
     0
100
AcDbLine
 10
2340.2432264198
 20
337.3737134063
 30
0.0
 11
2352.923880981
 21
337.3737134063
 31
0.0
  0
LINE
  5
82
330
1F
100
AcDbEntity
  8
0
  6
Continuous
 62
   179
370
     0
100
AcDbLine
 10
2340.2432264198
 20
326.5381746675
 30
0.0
 11
2352.9238809804
 21
326.5381746675
 31
0.0
  0
LINE
  5
83
330
1F
100
AcDbEntity
  8
0
  6
Continuous
 62
   179
370
     0
100
AcDbLine
 10
2381.7794582538
 20
344.5974058975
 30
0.0
 11
2435.9571519481
 21
344.5974058975
 31
0.0
  0
LINE
  5
84
330
1F
100
AcDbEntity
  8
0
  6
Continuous
 62
   179
370
     0
100
AcDbLine
 10
2435.9571519481
 20
344.5974058975
 30
0.0
 11
2435.9571519481
 21
337.3737134043
 31
0.0
  0
LINE
  5
85
330
1F
100
AcDbEntity
  8
0
  6
Continuous
 62
   179
370
     0
100
AcDbLine
 10
2435.9571519481
 20
337.3737134043
 30
0.0
 11
2399.8386894852
 21
337.3737134043
 31
0.0
  0
LINE
  5
86
330
1F
100
AcDbEntity
  8
0
  6
Continuous
 62
   179
370
     0
100
AcDbLine
 10
2399.8386894852
 20
337.3737134043
 30
0.0
 11
2399.8386894852
 21
328.3440977886
 31
0.0
  0
LINE
  5
87
330
1F
100
AcDbEntity
  8
0
  6
Continuous
 62
   179
370
     0
100
AcDbLine
 10
2399.8386894852
 20
328.3440977886
 30
0.0
 11
2432.3453057032
 21
328.3440977886
 31
0.0
  0
LINE
  5
88
330
1F
100
AcDbEntity
  8
0
  6
Continuous
 62
   179
370
     0
100
AcDbLine
 10
2432.3453057032
 20
328.3440977886
 30
0.0
 11
2432.3453057032
 21
321.1204052954
 31
0.0
  0
LINE
  5
89
330
1F
100
AcDbEntity
  8
0
  6
Continuous
 62
   179
370
     0
100
AcDbLine
 10
2432.3453057032
 20
321.1204052954
 30
0.0
 11
2399.8386894852
 21
321.1204052954
 31
0.0
  0
LINE
  5
8A
330
1F
100
AcDbEntity
  8
0
  6
Continuous
 62
   179
370
     0
100
AcDbLine
 10
2399.8386894852
 20
321.1204052954
 30
0.0
 11
2399.8386894852
 21
312.0907896797
 31
0.0
  0
LINE
  5
8B
330
1F
100
AcDbEntity
  8
0
  6
Continuous
 62
   179
370
     0
100
AcDbLine
 10
2399.8386894852
 20
312.0907896797
 30
0.0
 11
2435.9571519481
 21
312.0907896797
 31
0.0
  0
LINE
  5
8C
330
1F
100
AcDbEntity
  8
0
  6
Continuous
 62
   179
370
     0
100
AcDbLine
 10
2435.9571519481
 20
312.0907896797
 30
0.0
 11
2435.9571519481
 21
304.8670971899
 31
0.0
  0
LINE
  5
8D
330
1F
100
AcDbEntity
  8
0
  6
Continuous
 62
   179
370
     0
100
AcDbLine
 10
2435.9571519481
 20
304.8670971899
 30
0.0
 11
2381.7794582538
 21
304.8670971899
 31
0.0
  0
LINE
  5
8E
330
1F
100
AcDbEntity
  8
0
  6
Continuous
 62
   179
370
     0
100
AcDbLine
 10
2439.5689981967
 20
344.5974058976
 30
0.0
 11
2439.5689981967
 21
304.8670971877
 31
0.0
  0
LINE
  5
8F
330
1F
100
AcDbEntity
  8
0
  6
Continuous
 62
   179
370
     0
100
AcDbLine
 10
2439.5689981967
 20
344.5974058976
 30
0.0
 11
2472.0715260016
 21
344.5974058976
 31
0.0
  0
LINE
  5
90
330
1F
100
AcDbEntity
  8
0
  6
Continuous
 62
   179
370
     0
100
AcDbLine
 10
2472.0715260017
 20
304.8670971877
 30
0.0
 11
2439.5689981967
 21
304.8670971877
 31
0.0
  0
LINE
  5
91
330
1F
100
AcDbEntity
  8
0
  6
Continuous
 62
   179
370
     0
100
AcDbLine
 10
2455.8223063032
 20
324.7322515403
 30
0.0
 11
2455.8223063032
 21
313.8967128022
 31
0.0
  0
LINE
  5
92
330
1F
100
AcDbEntity
  8
0
  6
Continuous
 62
   179
370
     0
100
AcDbLine
 10
2455.8223063032
 20
313.8967128022
 30
0.0
 11
2472.947172768
 21
313.8967128022
 31
0.0
  0
LINE
  5
93
330
1F
100
AcDbEntity
  8
0
  6
Continuous
 62
   179
370
     0
100
AcDbLine
 10
2455.8223063032
 20
324.7322515403
 30
0.0
 11
2455.8223063032
 21
335.5677902827
 31
0.0
  0
LINE
  5
94
330
1F
100
AcDbEntity
  8
0
  6
Continuous
 62
   179
370
     0
100
AcDbLine
 10
2455.8223063032
 20
335.5677902827
 30
0.0
 11
2472.947172768
 21
335.5677902827
 31
0.0
  0
LINE
  5
95
330
1F
100
AcDbEntity
  8
0
  6
Continuous
 62
   179
370
     0
100
AcDbLine
 10
2504.5822306294
 20
344.5974059005
 30
0.0
 11
2504.5822306294
 21
304.8670971929
 31
0.0
  0
LINE
  5
96
330
1F
100
AcDbEntity
  8
0
  6
Continuous
 62
     7
370
     0
100
AcDbLine
 10
2728.7989947508
 20
280.0000000004
 30
0.0
 11
2728.7989947508
 21
190.0000000002
 31
0.0
  0
LINE
  5
97
330
1F
100
AcDbEntity
  8
0
  6
Continuous
 62
   179
370
     0
100
AcDbLine
 10
2504.5822306294
 20
304.8670971929
 30
0.0
 11
2520.8355387383
 21
304.8670971929
 31
0.0
  0
LINE
  5
98
330
1F
100
AcDbEntity
  8
0
  6
Continuous
 62
   179
370
     0
100
AcDbLine
 10
2520.8355387383
 20
304.8670971929
 30
0.0
 11
2520.8355387383
 21
319.3144821759
 31
0.0
  0
LINE
  5
99
330
1F
100
AcDbEntity
  8
0
  6
Continuous
 62
   179
370
     0
100
AcDbLine
 10
2520.8355387383
 20
319.3144821759
 30
0.0
 11
2538.8947699699
 21
319.3144821759
 31
0.0
  0
LINE
  5
9A
330
1F
100
AcDbEntity
  8
0
  6
Continuous
 62
   179
370
     0
100
AcDbLine
 10
2546.1184624631
 20
312.0907896827
 30
0.0
 11
2546.1184624631
 21
304.8670971919
 31
0.0
  0
LINE
  5
9B
330
1F
100
AcDbEntity
  8
0
  6
Continuous
 62
   179
370
     0
100
AcDbLine
 10
2520.8355387377
 20
326.5381746672
 30
0.0
 11
2520.8355387377
 21
337.3737134069
 31
0.0
  0
LINE
  5
9C
330
1F
100
AcDbEntity
  8
0
  6
Continuous
 62
   179
370
     0
100
AcDbLine
 10
2520.8355387377
 20
337.3737134069
 30
0.0
 11
2538.4781724187
 21
337.3737134069
 31
0.0
  0
LINE
  5
9D
330
1F
100
AcDbEntity
  8
0
  6
Continuous
 62
   179
370
     0
100
AcDbLine
 10
2520.8355387377
 20
326.5381746672
 30
0.0
 11
2538.4781724187
 21
326.5381746672
 31
0.0
  0
LINE
  5
9E
330
1F
100
AcDbEntity
  8
0
  6
Continuous
 62
   179
370
     0
100
AcDbLine
 10
2558.8702021926
 20
314.7709579587
 30
0.0
 11
2560.3555346507
 21
308.9676544183
 31
0.0
  0
LINE
  5
9F
330
1F
100
AcDbEntity
  8
0
  6
Continuous
 62
     7
370
    15
100
AcDbLine
 10
2870.0
 20
2000.0
 30
0.0
 11
100.0
 21
2000.0
 31
0.0
  0
LINE
  5
A0
330
1F
100
AcDbEntity
  8
0
  6
Continuous
 62
     7
370
     0
100
AcDbLine
 10
2728.7989947508
 20
190.0000000002
 30
0.0
 11
2728.7989947508
 21
100.0
 31
0.0
  0
LINE
  5
A1
330
1F
100
AcDbEntity
  8
0
  6
Continuous
 62
     7
370
    15
100
AcDbLine
 10
100.0
 20
2000.0
 30
0.0
 11
100.0
 21
100.0
 31
0.0
  0
LINE
  5
A2
330
1F
100
AcDbEntity
  8
0
  6
Continuous
 62
     7
370
    15
100
AcDbLine
 10
2150.0
 20
370.0000000006
 30
0.0
 11
2870.0
 21
370.0000000006
 31
0.0
  0
LINE
  5
A3
330
1F
100
AcDbEntity
  8
0
  6
Continuous
 62
    19
370
     0
100
AcDbLine
 10
2795.2884126839
 20
160.2788043096
 30
0.0
 11
2763.4182663121
 21
154.0818314039
 31
0.0
  0
LINE
  5
A4
330
1F
100
AcDbEntity
  8
0
  6
Continuous
 62
    19
370
     0
100
AcDbLine
 10
2821.3505851521
 20
165.4881573907
 30
0.0
 11
2821.3505851521
 21
124.881030118
 31
0.0
  0
LINE
  5
A5
330
1F
100
AcDbEntity
  8
0
  6
Continuous
 62
    19
370
     0
100
AcDbLine
 10
2795.2884126839
 20
160.2788043096
 30
0.0
 11
2795.2884126839
 21
130.0903831992
 31
0.0
  0
LINE
  5
A6
330
1F
100
AcDbEntity
  8
0
  6
Continuous
 62
     7
370
    15
100
AcDbLine
 10
100.0
 20
100.0
 30
0.0
 11
2870.0
 21
100.0
 31
0.0
  0
LINE
  5
A7
330
1F
100
AcDbEntity
  8
0
  6
Continuous
 62
    19
370
     0
100
AcDbLine
 10
2763.4182663121
 20
154.0818314039
 30
0.0
 11
2763.4182663121
 21
136.2873561048
 31
0.0
  0
LINE
  5
A8
330
1F
100
AcDbEntity
  8
0
  6
Continuous
 62
   179
370
     0
100
AcDbLine
 10
2546.1184624631
 20
304.8670971919
 30
0.0
 11
2576.8191555592
 21
304.8670971919
 31
0.0
  0
LINE
  5
A9
330
1F
100
AcDbEntity
  8
0
  6
Continuous
 62
    19
370
     0
100
AcDbLine
 10
2795.2884126839
 20
130.0903831992
 30
0.0
 11
2763.4182663121
 21
136.2873561048
 31
0.0
  0
LINE
  5
AA
330
1F
100
AcDbEntity
  8
0
  6
CENTERX2
 62
    19
370
     0
100
AcDbLine
 10
2838.9207124248
 20
145.1845937544
 30
0.0
 11
2759.4518690643
 21
145.1845937544
 31
0.0
  0
LINE
  5
AB
330
1F
100
AcDbEntity
  8
0
  6
Continuous
 62
   179
370
     0
100
AcDbLine
 10
2504.5822306294
 20
344.5974059005
 30
0.0
 11
2542.0192583058
 21
344.5974059005
 31
0.0
  0
LINE
  5
AC
330
1F
100
AcDbEntity
  8
0
  6
Continuous
 62
   179
370
     0
100
AcDbLine
 10
2381.7794582538
 20
344.5974058975
 30
0.0
 11
2381.7794582538
 21
304.8670971899
 31
0.0
  0
LINE
  5
AD
330
1F
100
AcDbEntity
  8
0
  6
Continuous
 62
   179
370
     0
100
AcDbLine
 10
2584.0428480525
 20
344.5974058996
 30
0.0
 11
2602.1020792839
 21
344.5974058996
 31
0.0
  0
LINE
  5
AE
330
1F
100
AcDbEntity
  8
0
  6
Continuous
 62
   179
370
     0
100
AcDbLine
 10
2584.0428480525
 20
344.5974058996
 30
0.0
 11
2560.7076448779
 21
307.9278009142
 31
0.0
  0
LINE
  5
AF
330
1F
100
AcDbEntity
  8
0
  6
Continuous
 62
   179
370
     0
100
AcDbLine
 10
2576.8191555592
 20
304.8670971919
 30
0.0
 11
2580.8824825864
 21
312.0907896817
 31
0.0
  0
LINE
  5
B0
330
1F
100
AcDbEntity
  8
0
  6
Continuous
 62
   179
370
     0
100
AcDbLine
 10
2593.0724636674
 20
333.7618671594
 30
0.0
 11
2601.1991177219
 21
319.3144821729
 31
0.0
  0
LINE
  5
B1
330
1F
100
AcDbEntity
  8
0
  6
Continuous
 62
   179
370
     0
100
AcDbLine
 10
2584.9458096129
 20
319.3144821729
 30
0.0
 11
2593.0724636674
 21
333.7618671594
 31
0.0
  0
LINE
  5
B2
330
1F
100
AcDbEntity
  8
0
  6
Continuous
 62
   179
370
     0
100
AcDbLine
 10
2584.9458096129
 20
319.3144821729
 30
0.0
 11
2601.1991177219
 21
319.3144821729
 31
0.0
  0
LINE
  5
B3
330
1F
100
AcDbEntity
  8
0
  6
Continuous
 62
   179
370
     0
100
AcDbLine
 10
2580.8824825864
 20
312.0907896817
 30
0.0
 11
2605.26244475
 21
312.0907896817
 31
0.0
  0
LINE
  5
B4
330
1F
100
AcDbEntity
  8
0
  6
Continuous
 62
   179
370
     0
100
AcDbLine
 10
2605.26244475
 20
312.0907896817
 30
0.0
 11
2609.3257717771
 21
304.8670971919
 31
0.0
  0
LINE
  5
B5
330
1F
100
AcDbEntity
  8
0
  6
Continuous
 62
   179
370
     0
100
AcDbLine
 10
2627.3850030087
 20
344.5974058996
 30
0.0
 11
2627.3850030087
 21
304.8670971919
 31
0.0
  0
LINE
  5
B6
330
1F
100
AcDbEntity
  8
0
  6
Continuous
 62
   179
370
     0
100
AcDbLine
 10
2602.1020792839
 20
344.5974058996
 30
0.0
 11
2627.3850030087
 21
304.8670971919
 31
0.0
  0
LINE
  5
B7
330
1F
100
AcDbEntity
  8
0
  6
Continuous
 62
   179
370
     0
100
AcDbLine
 10
2609.3257717771
 20
304.8670971919
 30
0.0
 11
2627.3850030087
 21
304.8670971919
 31
0.0
  0
LINE
  5
B8
330
1F
100
AcDbEntity
  8
0
  6
Continuous
 62
   179
370
     0
100
AcDbLine
 10
2627.3850030087
 20
304.8670971919
 30
0.0
 11
2676.1449273357
 21
304.8670971919
 31
0.0
  0
LINE
  5
B9
330
1F
100
AcDbEntity
  8
0
  6
Continuous
 62
   179
370
     0
100
AcDbLine
 10
2676.1449273357
 20
304.8670971919
 30
0.0
 11
2676.1449273357
 21
313.8967128076
 31
0.0
  0
LINE
  5
BA
330
1F
100
AcDbEntity
  8
0
  6
Continuous
 62
   179
370
     0
100
AcDbLine
 10
2676.1449273357
 20
313.8967128076
 30
0.0
 11
2645.44423424
 21
313.8967128076
 31
0.0
  0
LINE
  5
BB
330
1F
100
AcDbEntity
  8
0
  6
Continuous
 62
   179
370
     0
100
AcDbLine
 10
2645.44423424
 20
313.8967128076
 30
0.0
 11
2645.44423424
 21
344.5974058996
 31
0.0
  0
LINE
  5
BC
330
1F
100
AcDbEntity
  8
0
  6
Continuous
 62
   179
370
     0
100
AcDbLine
 10
2627.3850030087
 20
344.5974058996
 30
0.0
 11
2645.44423424
 21
344.5974058996
 31
0.0
  0
LINE
  5
BD
330
1F
100
AcDbEntity
  8
0
  6
Continuous
 62
   179
370
     0
100
AcDbLine
 10
2677.9508504573
 20
344.5974058992
 30
0.0
 11
2677.9508504573
 21
304.8670971915
 31
0.0
  0
LINE
  5
BE
330
1F
100
AcDbEntity
  8
0
  6
Continuous
 62
   179
370
     0
100
AcDbLine
 10
2696.0100816887
 20
344.5974058992
 30
0.0
 11
2696.0100816887
 21
304.8670971915
 31
0.0
  0
LINE
  5
BF
330
1F
100
AcDbEntity
  8
0
  6
Continuous
 62
   179
370
     0
100
AcDbLine
 10
2677.9508504573
 20
344.5974058992
 30
0.0
 11
2696.0100816887
 21
344.5974058992
 31
0.0
  0
LINE
  5
C0
330
1F
100
AcDbEntity
  8
0
  6
Continuous
 62
   179
370
     0
100
AcDbLine
 10
2677.9508504573
 20
304.8670971915
 30
0.0
 11
2696.0100816887
 21
304.8670971915
 31
0.0
  0
LINE
  5
C1
330
1F
100
AcDbEntity
  8
0
  6
Continuous
 62
   179
370
     0
100
AcDbLine
 10
2704.1151644241
 20
341.2930554229
 30
0.0
 11
2708.2866879839
 21
341.2930554229
 31
0.0
  0
LINE
  5
C2
330
1F
100
AcDbEntity
  8
0
  6
Continuous
 62
   179
370
     0
100
AcDbLine
 10
2708.2866879839
 20
338.5841707372
 30
0.0
 11
2704.1151644241
 21
338.5841707372
 31
0.0
  0
LINE
  5
C3
330
1F
100
AcDbEntity
  8
0
  6
Continuous
 62
   179
370
     0
100
AcDbLine
 10
2704.1151644241
 20
338.5841707372
 30
0.0
 11
2704.1151644241
 21
341.2930554229
 31
0.0
  0
LINE
  5
C4
330
1F
100
AcDbEntity
  8
0
  6
Continuous
 62
   179
370
     0
100
AcDbLine
 10
2704.1151644241
 20
338.5841707372
 30
0.0
 11
2706.8240491077
 21
338.5841707372
 31
0.0
  0
LINE
  5
C5
330
1F
100
AcDbEntity
  8
0
  6
Continuous
 62
   179
370
     0
100
AcDbLine
 10
2704.1151644241
 20
338.5841707372
 30
0.0
 11
2704.1151644241
 21
334.5208437117
 31
0.0
  0
LINE
  5
C6
330
1F
100
AcDbEntity
  8
0
  6
Continuous
 62
   179
370
     0
100
AcDbLine
 10
2709.5329337914
 20
334.5208437117
 30
0.0
 11
2706.8240491077
 21
338.5841707372
 31
0.0
  0
LINE
  5
C7
330
1F
100
AcDbEntity
  8
0
  6
Continuous
 62
     7
370
     0
100
AcDbLine
 10
2150.0
 20
190.0000000002
 30
0.0
 11
2870.0
 21
190.0000000002
 31
0.0
  0
LINE
  5
C8
330
1F
100
AcDbEntity
  8
0
  6
Continuous
 62
     7
370
     0
100
AcDbLine
 10
2870.0
 20
280.0000000004
 30
0.0
 11
2150.0
 21
280.0000000004
 31
0.0
  0
LINE
  5
C9
330
1F
100
AcDbEntity
  8
0
  6
Continuous
 62
     7
370
     0
100
AcDbLine
 10
100.0
 20
550.0
 30
0.0
 11
100.0
 21
650.0
 31
0.0
  0
LINE
  5
CA
330
1F
100
AcDbEntity
  8
0
  6
Continuous
 62
     7
370
     0
100
AcDbLine
 10
100.0
 20
650.0
 30
0.0
 11
100.0
 21
750.0
 31
0.0
  0
LINE
  5
CB
330
1F
100
AcDbEntity
  8
0
  6
Continuous
 62
     7
370
     0
100
AcDbLine
 10
100.0
 20
750.0
 30
0.0
 11
100.0
 21
850.0
 31
0.0
  0
LINE
  5
CC
330
1F
100
AcDbEntity
  8
0
  6
Continuous
 62
     7
370
     0
100
AcDbLine
 10
100.0
 20
850.0
 30
0.0
 11
100.0
 21
950.0
 31
0.0
  0
LINE
  5
CD
330
1F
100
AcDbEntity
  8
0
  6
Continuous
 62
     7
370
     0
100
AcDbLine
 10
100.0
 20
950.0
 30
0.0
 11
100.0
 21
1050.0
 31
0.0
  0
LINE
  5
CE
330
1F
100
AcDbEntity
  8
0
  6
Continuous
 62
     7
370
     0
100
AcDbLine
 10
100.0
 20
1050.0
 30
0.0
 11
100.0
 21
1150.0
 31
0.0
  0
LINE
  5
CF
330
1F
100
AcDbEntity
  8
0
  6
Continuous
 62
     7
370
     0
100
AcDbLine
 10
100.0
 20
1150.0
 30
0.0
 11
100.0
 21
1250.0
 31
0.0
  0
LINE
  5
D0
330
1F
100
AcDbEntity
  8
0
  6
Continuous
 62
     7
370
     0
100
AcDbLine
 10
100.0
 20
1250.0
 30
0.0
 11
100.0
 21
1350.0
 31
0.0
  0
LINE
  5
D1
330
1F
100
AcDbEntity
  8
0
  6
Continuous
 62
     7
370
     0
100
AcDbLine
 10
100.0
 20
1350.0
 30
0.0
 11
100.0
 21
1450.0
 31
0.0
  0
LINE
  5
D2
330
1F
100
AcDbEntity
  8
0
  6
Continuous
 62
     7
370
     0
100
AcDbLine
 10
100.0
 20
1450.0
 30
0.0
 11
100.0
 21
1550.0
 31
0.0
  0
LINE
  5
D3
330
1F
100
AcDbEntity
  8
0
  6
Continuous
 62
     7
370
    15
100
AcDbLine
 10
2150.0
 20
370.0000000006
 30
0.0
 11
2150.0
 21
100.0
 31
0.0
  0
ARC
  5
D4
330
1F
100
AcDbEntity
  8
0
  6
Continuous
 62
   179
370
     0
100
AcDbCircle
 10
2352.923880981
 20
330.1500209155
 30
0.0
 40
7.223692490816169
100
AcDbArc
 50
69.991210111
 51
90.0
  0
ARC
  5
D5
330
1F
100
AcDbEntity
  8
0
  6
Continuous
 62
   179
370
     0
100
AcDbCircle
 10
2352.9238809804
 20
333.7618671601
 30
0.0
 40
7.223692492544103
100
AcDbArc
 50
270.0
 51
290.0087898887
  0
ARC
  5
D6
330
1F
100
AcDbEntity
  8
0
  6
Continuous
 62
   179
370
     0
100
AcDbCircle
 10
2472.947172768
 20
324.7322515422
 30
0.0
 40
10.8355387405187
100
AcDbArc
 50
56.1685552524
 51
90.0
  0
ARC
  5
D7
330
1F
100
AcDbEntity
  8
0
  6
Continuous
 62
   179
370
     0
100
AcDbCircle
 10
2472.947172768
 20
324.7322515422
 30
0.0
 40
10.83553873998012
100
AcDbArc
 50
270.0
 51
303.830934914
  0
ARC
  5
D8
330
1F
100
AcDbEntity
  8
0
  6
Continuous
 62
   179
370
     0
100
AcDbCircle
 10
2538.8947699699
 20
312.0907896827
 30
0.0
 40
7.223692493244471
100
AcDbArc
 50
0.0
 51
90.0
  0
ARC
  5
D9
330
1F
100
AcDbEntity
  8
0
  6
Continuous
 62
   179
370
     0
100
AcDbCircle
 10
2538.4781724187
 20
331.9559440374
 30
0.0
 40
5.417769369443558
100
AcDbArc
 50
54.413089495
 51
90.0
  0
ARC
  5
DA
330
1F
100
AcDbEntity
  8
0
  6
Continuous
 62
   179
370
     0
100
AcDbCircle
 10
2538.4781724187
 20
331.9559440374
 30
0.0
 40
5.417769370214614
100
AcDbArc
 50
270.0
 51
305.5869104966
  0
ARC
  5
DB
330
1F
100
AcDbEntity
  8
0
  6
Continuous
 62
   179
370
     0
100
AcDbCircle
 10
2549.0375849296
 20
312.9627960708
 30
0.0
 40
9.997490267756625
100
AcDbArc
 50
10.4199484279
 51
80.7321727594
  0
ARC
  5
DC
330
1F
100
AcDbEntity
  8
0
  6
Continuous
 62
   179
370
     0
100
AcDbCircle
 10
2565.4535666376
 20
310.1143839674
 30
0.0
 40
5.225410873593643
100
AcDbArc
 50
192.6768785101
 51
204.7368873207
  0
CIRCLE
  5
DD
330
1F
100
AcDbEntity
  8
0
  6
Continuous
 62
   179
370
     0
100
AcDbCircle
 10
2706.2864208618
 20
337.8675697335
 30
0.0
 40
5.930102145230649
  0
CIRCLE
  5
DE
330
1F
100
AcDbEntity
  8
0
  6
Continuous
 62
    19
370
     0
100
AcDbCircle
 10
2821.3505851521
 20
145.1845937544
 30
0.0
 40
8.587078762764193
  0
CIRCLE
  5
DF
330
1F
100
AcDbEntity
  8
0
  6
Continuous
 62
    19
370
     0
100
AcDbCircle
 10
2821.3505851521
 20
145.1845937544
 30
0.0
 40
16.77593581663705
  0
ELLIPSE
  5
E0
330
1F
100
AcDbEntity
  8
0
  6
Continuous
 62
   179
370
     0
100
AcDbEllipse
 10
2350.175803597
 20
331.955944037
 30
0.0
 11
9.932577177642086
 21
0.0
 31
0.0
210
0.0
220
0.0
230
1.0
 40
0.5895245511
 41
5.265715075739357
 42
7.300655538615938
  0
ELLIPSE
  5
E1
330
1F
100
AcDbEntity
  8
0
  6
Continuous
 62
   179
370
     0
100
AcDbEllipse
 10
2462.1430372376
 20
324.7322515426
 30
0.0
 11
22.57403904004605
 21
0.0
 31
0.0
210
0.0
220
0.0
230
1.0
 40
0.5985848325
 41
5.554193105221712
 42
7.012172182744729
  0
ELLIPSE
  5
E2
330
1F
100
AcDbEntity
  8
0
  6
Continuous
 62
   179
370
     0
100
AcDbEllipse
 10
2532.5740390411
 20
331.955944037
 30
0.0
 11
11.73850030081758
 21
0.0
 31
0.0
210
0.0
220
0.0
230
1.0
 40
0.5900077182
 41
5.593675727225931
 42
6.97269488710657
  0
ELLIPSE
  5
E3
330
1F
100
AcDbEntity
  8
0
  6
Continuous
 62
   179
370
     0
100
AcDbEllipse
 10
2538.0299477069
 20
332.9364020823
 30
0.0
 11
24.3266662253518
 21
0.0
 31
0.0
210
0.0
220
0.0
230
1.0
 40
0.485929116
 41
5.257694056962849
 42
7.689248379254996
  0
ELLIPSE
  5
E4
330
1F
100
AcDbEntity
  8
0
  6
Continuous
 62
   179
370
     0
100
AcDbEllipse
 10
2468.4637681651
 20
324.7322515426
 30
0.0
 11
28.89476997115571
 21
0.0
 31
0.0
210
0.0
220
0.0
230
1.0
 40
0.6929224243
 41
4.837574201223028
 42
7.72879641314261
  0
ELLIPSE
  5
E5
330
1F
100
AcDbEntity
  8
0
  6
Continuous
 62
   179
370
     0
100
AcDbEllipse
 10
2351.0787651571
 20
331.955944037
 30
0.0
 11
27.0888468479834
 21
0.0
 31
0.0
210
0.0
220
0.0
230
1.0
 40
0.4768529109
 41
4.919453630382234
 42
7.646916983963972
  0
ELLIPSE
  5
E6
330
1F
100
AcDbEntity
  8
0
  6
Continuous
 62
   179
370
     0
100
AcDbEllipse
 10
2708.0427484413
 20
339.93861308
 30
0.0
 11
1.490185355941776
 21
0.0
 31
0.0
210
0.0
220
0.0
230
1.0
 40
0.9213369296
 41
4.876826485633947
 42
7.68954412872528
  0
MTEXT
  5
E8
330
1F
100
AcDbEntity
  8
0
  6
Continuous
 62
     7
370
     0
100
AcDbMText
 10
2231.444945447
 20
165.6379924371
 30
0.0
 40
37.0416666667
 41
0.0
 71
     1
 72
     1
  1
860
  7
SLDTEXTSTYLE0
 73
     1
 44
1.0
  0
MTEXT
  5
E9
330
1F
100
AcDbEntity
  8
0
  6
Continuous
 62
     7
370
     0
100
AcDbMText
 10
2158.8845987823
 20
146.3871334973
 30
0.0
 40
18.0
 41
0.0
 71
     1
 72
     1
  1
COD.
  7
SLDTEXTSTYLE0
 73
     1
 44
1.0
  0
MTEXT
  5
EA
330
1F
100
AcDbEntity
  8
0
  6
Continuous
 62
     7
370
     0
100
AcDbMText
 10
107.0855178468
 20
74.7215172182
 30
0.0
 40
18.0
 41
0.0
 71
     1
 72
     1
  1
This document is the property of PEDRALI S.p.A. who willsafeguard its rights according to the civil and penal prevision of the Law.
  7
SLDTEXTSTYLE0
 73
     1
 44
1.0
  0
INSERT
  5
F0
330
1F
100
AcDbEntity
  8
0
  6
Continuous
 62
     7
370
     0
100
AcDbBlockReference
  2
SW_NOTE_0
 10
1440.8605986612
 20
53.5813398756
 30
0.0
  0
MTEXT
  5
F1
330
1F
100
AcDbEntity
  8
0
  6
Continuous
 62
     7
370
     0
100
AcDbMText
 10
2158.8845987823
 20
234.3102099637
 30
0.0
 40
18.0
 41
0.0
 71
     1
 72
     1
  1
SERIE:
  7
SLDTEXTSTYLE0
 73
     1
 44
1.0
  0
MTEXT
  5
F2
330
1F
100
AcDbEntity
  8
0
  6
Continuous
 62
     7
370
     0
100
AcDbMText
 10
2231.444945447
 20
253.5610689035
 30
0.0
 40
37.0416666667
 41
0.0
 71
     1
 72
     1
  1
SERIF
  7
SLDTEXTSTYLE0
 73
     1
 44
1.0
  0
INSERT
  5
F8
330
1F
100
AcDbEntity
  8
0
  6
Continuous
 62
     7
370
     0
100
AcDbBlockReference
  2
SW_NOTE_1
 10
2766.9883061954
 20
242.6632128381
 30
0.0
  0
SPLINE
  5
F9
330
1F
100
AcDbEntity
  8
0
  6
Continuous
 62
     7
370
    15
100
AcDbSpline
210
0.0
220
0.0
230
1.0
 70
     8
 71
     3
 72
     9
 73
     5
 74
     0
 42
0.000000001
 43
0.00000001
 40
0.0
 40
0.0
 40
0.0
 40
0.0
 40
0.5893467248181478
 40
1.0
 40
1.0
 40
1.0
 40
1.0
 10
1588.912385125437
 20
974.2239291732271
 30
0.0
 10
1589.459402288862
 20
974.2239291479345
 30
0.0
 10
1590.387577742103
 20
974.2239291050187
 30
0.0
 10
1591.240641490714
 20
974.2239290507365
 30
0.0
 10
1591.59095491302
 20
974.2239290284455
 30
0.0
  0
SPLINE
  5
FA
330
1F
100
AcDbEntity
  8
0
  6
Continuous
 62
     7
370
    15
100
AcDbSpline
210
0.0
220
0.0
230
1.0
 70
     8
 71
     3
 72
    10
 73
     6
 74
     0
 42
0.000000001
 43
0.00000001
 40
0.0
 40
0.0
 40
0.0
 40
0.0
 40
0.2271225950501252
 40
0.8801097915657545
 40
1.0
 40
1.0
 40
1.0
 40
1.0
 10
1585.698201134079
 20
974.2239292727083
 30
0.0
 10
1585.953944249283
 20
974.2239292687038
 30
0.0
 10
1586.944959783279
 20
974.2239292531866
 30
0.0
 10
1588.015279490735
 20
974.2239292184541
 30
0.0
 10
1588.791912361955
 20
974.2239291793006
 30
0.0
 10
1588.912385125437
 20
974.2239291732271
 30
0.0
  0
SPLINE
  5
FB
330
1F
100
AcDbEntity
  8
0
  6
Continuous
 62
     7
370
    15
100
AcDbSpline
210
0.0
220
0.0
230
1.0
 70
     8
 71
     3
 72
     9
 73
     5
 74
     0
 42
0.000000001
 43
0.00000001
 40
0.0
 40
0.0
 40
0.0
 40
0.0
 40
0.555697991534697
 40
1.0
 40
1.0
 40
1.0
 40
1.0
 10
1582.390124926476
 20
974.2239293040117
 30
0.0
 10
1583.023317686997
 20
974.2239293038966
 30
0.0
 10
1584.16277251708
 20
974.2239293036895
 30
0.0
 10
1585.225866390798
 20
974.2239292822388
 30
0.0
 10
1585.698201134079
 20
974.2239292727083
 30
0.0
  0
SPLINE
  5
FC
330
1F
100
AcDbEntity
  8
0
  6
Continuous
 62
     7
370
    15
100
AcDbSpline
210
0.0
220
0.0
230
1.0
 70
     8
 71
     3
 72
    14
 73
    10
 74
     0
 42
0.000000001
 43
0.00000001
 40
0.0
 40
0.0
 40
0.0
 40
0.0
 40
0.0274084708475825
 40
0.1830063420432768
 40
0.3384060729874143
 40
0.4937034000916948
 40
0.6489910335758524
 40
0.8800918260748261
 40
1.0
 40
1.0
 40
1.0
 40
1.0
 10
1360.342429782972
 20
974.22392933105
 30
0.0
 10
1360.674295992907
 20
974.2239293591692
 30
0.0
 10
1362.890166461043
 20
974.2239295469216
 30
0.0
 10
1366.999051389864
 20
974.2239299661131
 30
0.0
 10
1372.664939046512
 20
974.2239303511213
 30
0.0
 10
1378.334287423328
 20
974.223930528309
 30
0.0
 10
1384.929334555133
 20
974.2239305101577
 30
0.0
 10
1391.097195177852
 20
974.2239303079795
 30
0.0
 10
1395.375347928219
 20
974.2239301237973
 30
0.0
 10
1396.836807700302
 20
974.223930060879
 30
0.0
  0
SPLINE
  5
FD
330
1F
100
AcDbEntity
  8
0
  6
Continuous
 62
     7
370
    15
100
AcDbSpline
210
0.0
220
0.0
230
1.0
 70
     8
 71
     3
 72
     9
 73
     5
 74
     0
 42
0.000000001
 43
0.00000001
 40
0.0
 40
0.0
 40
0.0
 40
0.0
 40
0.6162097643523959
 40
1.0
 40
1.0
 40
1.0
 40
1.0
 10
1305.267258540397
 20
974.2239288836766
 30
0.0
 10
1306.002322542487
 20
974.2239288553944
 30
0.0
 10
1307.195202053027
 20
974.223928809497
 30
0.0
 10
1308.428722140282
 20
974.2239287661737
 30
0.0
 10
1308.902135105246
 20
974.2239287495466
 30
0.0
  0
SPLINE
  5
FE
330
1F
100
AcDbEntity
  8
0
  6
Continuous
 62
     7
370
    15
100
AcDbSpline
210
0.0
220
0.0
230
1.0
 70
     8
 71
     3
 72
    11
 73
     7
 74
     0
 42
0.000000001
 43
0.00000001
 40
0.0
 40
0.0
 40
0.0
 40
0.0
 40
0.2000571243752065
 40
0.5362696835329456
 40
0.8731549100598782
 40
1.0
 40
1.0
 40
1.0
 40
1.0
 10
1297.593146009956
 20
974.2239291598237
 30
0.0
 10
1298.081671479816
 20
974.223929144931
 30
0.0
 10
1299.391204444152
 20
974.2239291050099
 30
0.0
 10
1301.617417657456
 20
974.2239290225784
 30
0.0
 10
1303.687185724381
 20
974.2239289432695
 30
0.0
 10
1304.92788701174
 20
974.2239288964762
 30
0.0
 10
1305.267258540397
 20
974.2239288836766
 30
0.0
  0
SPLINE
  5
FF
330
1F
100
AcDbEntity
  8
0
  6
Continuous
 62
     7
370
    15
100
AcDbSpline
210
0.0
220
0.0
230
1.0
 70
     8
 71
     3
 72
    11
 73
     7
 74
     0
 42
0.000000001
 43
0.00000001
 40
0.0
 40
0.0
 40
0.0
 40
0.0
 40
0.1102334239526978
 40
0.4809783156008736
 40
0.8507529140732759
 40
1.0
 40
1.0
 40
1.0
 40
1.0
 10
1291.256016262471
 20
974.2239292910543
 30
0.0
 10
1291.471950536282
 20
974.2239292896218
 30
0.0
 10
1292.41413031782
 20
974.2239292833715
 30
0.0
 10
1294.194646065134
 20
974.2239292508195
 30
0.0
 10
1296.093972735191
 20
974.2239292081316
 30
0.0
 10
1297.258329761624
 20
974.2239291706126
 30
0.0
 10
1297.593146009956
 20
974.2239291598237
 30
0.0
  0
SPLINE
  5
100
330
1F
100
AcDbEntity
  8
0
  6
Continuous
 62
     7
370
    15
100
AcDbSpline
210
0.0
220
0.0
230
1.0
 70
     8
 71
     3
 72
    39
 73
    35
 74
     0
 42
0.000000001
 43
0.00000001
 40
0.0
 40
0.0
 40
0.0
 40
0.0
 40
0.0580680887086829
 40
0.1149713058689644
 40
0.1644301394331482
 40
0.2065869054845641
 40
0.2419233602659148
 40
0.2710435127389219
 40
0.2945338874333798
 40
0.3128907158740825
 40
0.3338628918445313
 40
0.3570642760675635
 40
0.3825645591084282
 40
0.4234636645965014
 40
0.4643388325244467
 40
0.5059915246916923
 40
0.5487576845723968
 40
0.592953771958594
 40
0.6387977241270127
 40
0.6860895918408126
 40
0.7318045911446561
 40
0.7533648757127087
 40
0.7638515572991967
 40
0.7665535730643646
 40
0.7699817733302352
 40
0.7799417062254077
 40
0.794551499999951
 40
0.8140092111525828
 40
0.8383921394771385
 40
0.8677363990752425
 40
0.9020607936029879
 40
0.9413759905379033
 40
0.9856887576332998
 40
1.0
 40
1.0
 40
1.0
 40
1.0
 10
1245.763328635902
 20
984.2186226112218
 30
0.0
 10
1245.750181147711
 20
983.8226934106078
 30
0.0
 10
1245.72414991576
 20
983.0387775243005
 30
0.0
 10
1245.712578487647
 20
981.9162384733435
 30
0.0
 10
1245.744130302935
 20
980.9016166013893
 30
0.0
 10
1245.818491224288
 20
980.036305204936
 30
0.0
 10
1245.926676364884
 20
979.3146059924793
 30
0.0
 10
1246.055581427975
 20
978.7264636264737
 30
0.0
 10
1246.190699144018
 20
978.2598547270213
 30
0.0
 10
1246.335043884063
 20
977.8551427653921
 30
0.0
 10
1246.50346607803
 20
977.4631053650348
 30
0.0
 10
1246.725001172765
 20
977.0424279910786
 30
0.0
 10
1247.060118524556
 20
976.5314885414323
 30
0.0
 10
1247.545459491969
 20
975.9803893648481
 30
0.0
 10
1248.209572957341
 20
975.456338009373
 30
0.0
 10
1248.962441093921
 20
975.0440366534021
 30
0.0
 10
1249.787850704112
 20
974.7343117361215
 30
0.0
 10
1250.670660624031
 20
974.5136714024131
 30
0.0
 10
1251.600118977716
 20
974.3669891372143
 30
0.0
 10
1252.5468670555
 20
974.2812061883083
 30
0.0
 10
1253.328786599102
 20
974.2463785132733
 30
0.0
 10
1253.846189829767
 20
974.2342472638474
 30
0.0
 10
1254.072141504861
 20
974.2306497747878
 30
0.0
 10
1254.179479134744
 20
974.229231228371
 30
0.0
 10
1254.259554122626
 20
974.2282651139822
 30
0.0
 10
1254.35799957546
 20
974.227257281686
 30
0.0
 10
1254.47645363547
 20
974.2262685151796
 30
0.0
 10
1254.605691954417
 20
974.225439504979
 30
0.0
 10
1254.745793598965
 20
974.2247897455844
 30
0.0
 10
1254.89663796203
 20
974.2243320066876
 30
0.0
 10
1255.058553872319
 20
974.2240575463765
 30
0.0
 10
1255.231268148749
 20
974.2239388525105
 30
0.0
 10
1255.368494948558
 20
974.2239275774017
 30
0.0
 10
1255.446228116594
 20
974.2239280205406
 30
0.0
 10
1255.465204270185
 20
974.2239281287192
 30
0.0
  0
SPLINE
  5
101
330
1F
100
AcDbEntity
  8
0
  6
Continuous
 62
     7
370
    15
100
AcDbSpline
210
0.0
220
0.0
230
1.0
 70
     8
 71
     3
 72
    40
 73
    36
 74
     0
 42
0.000000001
 43
0.00000001
 40
0.0
 40
0.0
 40
0.0
 40
0.0
 40
0.0195041145219102
 40
0.0624187406932657
 40
0.0982793675680687
 40
0.1270967164271916
 40
0.1489038343374693
 40
0.163791490133832
 40
0.1687311094153163
 40
0.1721424605211038
 40
0.1767670792269525
 40
0.2056029743808248
 40
0.2376113317843275
 40
0.2719907392376544
 40
0.3089266468344056
 40
0.3439124234600388
 40
0.3779755992808922
 40
0.4103005969523825
 40
0.455720227037163
 40
0.4992124943828732
 40
0.5278701009067402
 40
0.5562657409640414
 40
0.5818838328270612
 40
0.5989309312682987
 40
0.6141850636430013
 40
0.6284469531709838
 40
0.6463433152629197
 40
0.6689874284353059
 40
0.6968657934710913
 40
0.7305728580630443
 40
0.7707866087730905
 40
0.8181762518242898
 40
0.8732374142750422
 40
0.9360565219665989
 40
1.0
 40
1.0
 40
1.0
 40
1.0
 10
1621.055525824796
 20
974.2239284595717
 30
0.0
 10
1621.083860916774
 20
974.2239281496938
 30
0.0
 10
1621.174541309195
 20
974.2239271579961
 30
0.0
 10
1621.325786956536
 20
974.2239466314778
 30
0.0
 10
1621.501303990136
 20
974.2240956751524
 30
0.0
 10
1621.656386046923
 20
974.224393167969
 30
0.0
 10
1621.791369523824
 20
974.2248338772159
 30
0.0
 10
1621.895479742882
 20
974.2253123643624
 30
0.0
 10
1621.974484274364
 20
974.2257818273481
 30
0.0
 10
1622.033125379776
 20
974.2261691815171
 30
0.0
 10
1622.281971075764
 20
974.2280972462153
 30
0.0
 10
1622.697652334172
 20
974.2336335825391
 30
0.0
 10
1623.331435447024
 20
974.2517275256679
 30
0.0
 10
1624.005668632551
 20
974.2874399115459
 30
0.0
 10
1624.678550655029
 20
974.3462983262984
 30
0.0
 10
1625.310865116001
 20
974.4287080076466
 30
0.0
 10
1625.91874331378
 20
974.5387594091817
 30
0.0
 10
1626.589514683429
 20
974.7023689433046
 30
0.0
 10
1627.314163099054
 20
974.9466607510788
 30
0.0
 10
1627.98730126539
 20
975.2751543361604
 30
0.0
 10
1628.522947754055
 20
975.627170323457
 30
0.0
 10
1628.930154301654
 20
975.9642340936703
 30
0.0
 10
1629.247920047749
 20
976.2920920375144
 30
0.0
 10
1629.483851015247
 20
976.5822641201008
 30
0.0
 10
1629.658879653951
 20
976.8284925894793
 30
0.0
 10
1629.823673569039
 20
977.0910529486742
 30
0.0
 10
1629.997123673082
 20
977.4088295955277
 30
0.0
 10
1630.184070074225
 20
977.8188737512245
 30
0.0
 10
1630.372653263404
 20
978.3394300494954
 30
0.0
 10
1630.546514346621
 20
978.9841748420412
 30
0.0
 10
1630.68942420637
 20
979.7661998014764
 30
0.0
 10
1630.787282662533
 20
980.6957168623723
 30
0.0
 10
1630.831250003614
 20
981.7777227139502
 30
0.0
 10
1630.822572754121
 20
982.9693682753559
 30
0.0
 10
1630.7946941863
 20
983.7994687220558
 30
0.0
 10
1630.780631262458
 20
984.2182003957236
 30
0.0
  0
SPLINE
  5
102
330
1F
100
AcDbEntity
  8
0
  6
Continuous
 62
     7
370
    15
100
AcDbSpline
210
0.0
220
0.0
230
1.0
 70
     8
 71
     3
 72
    71
 73
    67
 74
     0
 42
0.000000001
 43
0.00000001
 40
0.0
 40
0.0
 40
0.0
 40
0.0
 40
0.0297185354268159
 40
0.059263822314744
 40
0.0886355157750037
 40
0.1178336463115672
 40
0.1468587548645255
 40
0.1757114036761327
 40
0.2027578617054627
 40
0.2296519298507496
 40
0.2563929841015916
 40
0.2829784392106133
 40
0.309405615408896
 40
0.3356724571935464
 40
0.3617818449054211
 40
0.3877394735063526
 40
0.413551009716961
 40
0.4392223468895333
 40
0.4504749637272377
 40
0.4617022595743059
 40
0.4728993378914406
 40
0.4840404589331676
 40
0.4950961004272781
 40
0.5037046700150475
 40
0.51223099105467
 40
0.5206659072154946
 40
0.5290189483922251
 40
0.5373075802628926
 40
0.546817904336291
 40
0.556287557935646
 40
0.5657392531222883
 40
0.575195652802943
 40
0.5846801180044169
 40
0.5940455547712898
 40
0.6034680126514146
 40
0.6129394422084908
 40
0.6224505165514416
 40
0.6360866569063716
 40
0.6497527647071775
 40
0.6634170707974347
 40
0.6770473283201455
 40
0.690612671490051
 40
0.7106551981880483
 40
0.7305265595429639
 40
0.7502284882016078
 40
0.7697626404274978
 40
0.7891322977306601
 40
0.8083744510129847
 40
0.829857102820599
 40
0.8513565642648171
 40
0.8729620145462438
 40
0.8857753154745474
 40
0.8986183505778882
 40
0.9114184127881576
 40
0.9241032339359804
 40
0.9324608040816857
 40
0.94071518730184
 40
0.9488461623860921
 40
0.9568338211431227
 40
0.9646585664515294
 40
0.9723011103232595
 40
0.9793231964371091
 40
0.9861634816523938
 40
0.9928381641652104
 40
0.9993649073047709
 40
1.0
 40
1.0
 40
1.0
 40
1.0
 10
1630.782944672193
 20
984.2031366705231
 30
0.0
 10
1630.549169383929
 20
991.3366673823912
 30
0.0
 10
1630.082981634559
 20
1005.562142847896
 30
0.0
 10
1629.385750906358
 20
1026.837912156176
 30
0.0
 10
1628.692463916259
 20
1047.98874832306
 30
0.0
 10
1628.003121190961
 20
1069.014706739622
 30
0.0
 10
1627.317915752916
 20
1089.916097932671
 30
0.0
 10
1626.649857306437
 20
1110.30106114051
 30
0.0
 10
1625.998910121741
 20
1130.174568479422
 30
0.0
 10
1625.365084162589
 20
1149.541308949867
 30
0.0
 10
1624.735315550567
 20
1168.797464976728
 30
0.0
 10
1624.108683432373
 20
1187.941475270637
 30
0.0
 10
1623.484524871683
 20
1206.9714624889
 30
0.0
 10
1622.861770527932
 20
1225.886687218599
 30
0.0
 10
1622.241443146123
 20
1244.688872804625
 30
0.0
 10
1621.625425406746
 20
1263.381982656658
 30
0.0
 10
1621.015288814497
 20
1281.970523849104
 30
0.0
 10
1620.524393103215
 20
1297.029875711412
 30
0.0
 10
1620.150268129775
 20
1308.58839991065
 30
0.0
 10
1619.889880477624
 20
1316.672372004098
 30
0.0
 10
1619.631777339452
 20
1324.729432497011
 30
0.0
 10
1619.377814432206
 20
1332.744680917455
 30
0.0
 10
1619.147459899879
 20
1340.13705139969
 30
0.0
 10
1618.941034029554
 20
1346.89889231224
 30
0.0
 10
1618.758005402888
 20
1353.028130953879
 30
0.0
 10
1618.581967442303
 20
1359.089485003943
 30
0.0
 10
1618.412072966557
 20
1365.086567689049
 30
0.0
 10
1618.23833022081
 20
1371.334302852407
 30
0.0
 10
1618.059712575963
 20
1377.843470653106
 30
0.0
 10
1617.874518922904
 20
1384.627850122413
 30
0.0
 10
1617.688917185282
 20
1391.400856003171
 30
0.0
 10
1617.500658542844
 20
1398.182568878888
 30
0.0
 10
1617.308773573639
 20
1404.951556586597
 30
0.0
 10
1617.111132777272
 20
1411.721940751
 30
0.0
 10
1616.907547265429
 20
1418.496563282806
 30
0.0
 10
1616.697918736752
 20
1425.310553130275
 30
0.0
 10
1616.452303584139
 20
1433.138382164149
 30
0.0
 10
1616.169602301281
 20
1441.974965662246
 30
0.0
 10
1615.849862490385
 20
1451.808904206375
 30
0.0
 10
1615.526965129757
 20
1461.641095753236
 30
0.0
 10
1615.203441354743
 20
1471.448757214779
 30
0.0
 10
1614.830108843056
 20
1482.787498181724
 30
0.0
 10
1614.409206368247
 20
1495.624599864033
 30
0.0
 10
1613.941298493689
 20
1509.93487900105
 30
0.0
 10
1613.477977082031
 20
1524.123204210642
 30
0.0
 10
1613.018444967109
 20
1538.191109580762
 30
0.0
 10
1612.56152903543
 20
1552.148603413316
 30
0.0
 10
1612.088127387583
 20
1566.573750716945
 30
0.0
 10
1611.597215892145
 20
1581.510088410284
 30
0.0
 10
1611.087354553949
 20
1597.013681281061
 30
0.0
 10
1610.646072477398
 20
1610.436280150149
 30
0.0
 10
1610.273471362039
 20
1621.781005347723
 30
0.0
 10
1609.97052355496
 20
1631.012095370678
 30
0.0
 10
1609.668766556003
 20
1640.212357171981
 30
0.0
 10
1609.402451633244
 20
1648.335936321047
 30
0.0
 10
1609.17197760029
 20
1655.368374576446
 30
0.0
 10
1608.977365452754
 20
1661.30770737446
 30
0.0
 10
1608.785689514385
 20
1667.158251985091
 30
0.0
 10
1608.597408832695
 20
1672.905671243224
 30
0.0
 10
1608.412975311294
 20
1678.535851845419
 30
0.0
 10
1608.236131286639
 20
1683.93425896327
 30
0.0
 10
1608.06701536341
 20
1689.096357793547
 30
0.0
 10
1607.905493672818
 20
1694.026131555816
 30
0.0
 10
1607.747857144353
 20
1698.837004111786
 30
0.0
 10
1607.639022479164
 20
1702.15836444634
 30
0.0
 10
1607.5826893405
 20
1703.877514043575
 30
0.0
 10
1607.577693866477
 20
1704.029963691458
 30
0.0
  0
SPLINE
  5
103
330
1F
100
AcDbEntity
  8
0
  6
Continuous
 62
     7
370
    15
100
AcDbSpline
210
0.0
220
0.0
230
1.0
 70
     8
 71
     3
 72
    90
 73
    86
 74
     0
 42
0.000000001
 43
0.00000001
 40
0.0
 40
0.0
 40
0.0
 40
0.0
 40
0.0040756736209745
 40
0.0092658377964389
 40
0.0145295771576561
 40
0.0187240904239099
 40
0.0229771166823585
 40
0.0272958586645387
 40
0.0316854437031828
 40
0.0363428327903903
 40
0.0410831367327366
 40
0.0459077611340972
 40
0.0508170968442295
 40
0.0558105645489822
 40
0.0608866641146064
 40
0.0669719958681033
 40
0.0731634669209641
 40
0.0794543148962596
 40
0.0858364721605162
 40
0.0950937056217953
 40
0.1044879267311366
 40
0.113985614707914
 40
0.1235513381426759
 40
0.1331586153485223
 40
0.1439341045670132
 40
0.1547772893663777
 40
0.1657001233803367
 40
0.1767145091303125
 40
0.1878324457501066
 40
0.1990662378970965
 40
0.2104287703451545
 40
0.2219338471175566
 40
0.2352729186603524
 40
0.2488198888713989
 40
0.262576332085417
 40
0.2765436029500762
 40
0.2907229207674406
 40
0.3051154744215205
 40
0.3197225467194612
 40
0.3298871409184931
 40
0.3401394839187392
 40
0.3504660002503062
 40
0.3608525639763088
 40
0.3712846826669557
 40
0.3817477121901885
 40
0.3922271088594882
 40
0.4027087266286582
 40
0.412435149260456
 40
0.4221489624267362
 40
0.4318708545371198
 40
0.4416256296569139
 40
0.4514377134125333
 40
0.4592035793349297
 40
0.4670327907420552
 40
0.4749388233163022
 40
0.4829363191766564
 40
0.4910406306258711
 40
0.4992546906241188
 40
0.5075692745908386
 40
0.5159736885484645
 40
0.524456233426512
 40
0.5330043077357961
 40
0.5499385656019469
 40
0.5670379688529253
 40
0.5845571255538105
 40
0.6022494108229037
 40
0.6201167572658681
 40
0.6381610823014044
 40
0.6563843281053281
 40
0.6747885086446601
 40
0.6933756597210806
 40
0.712146290593383
 40
0.733822024042291
 40
0.7557348699824649
 40
0.7778832818233792
 40
0.8002659570023828
 40
0.8228828375622514
 40
0.8457341807211949
 40
0.8688202560038167
 40
0.8901889385825126
 40
0.911755327007205
 40
0.9335196513609378
 40
0.9554819617783256
 40
0.9776421265485635
 40
1.0
 40
1.0
 40
1.0
 40
1.0
 10
1268.978312059125
 20
1704.083673389041
 30
0.0
 10
1268.946274485513
 20
1703.167313882413
 30
0.0
 10
1268.873438682626
 20
1701.084016901041
 30
0.0
 10
1268.757659025969
 20
1697.767809733541
 30
0.0
 10
1268.640045484651
 20
1694.389935663002
 30
0.0
 10
1268.529224885031
 20
1691.196078799524
 30
0.0
 10
1268.425645994076
 20
1688.198718051533
 30
0.0
 10
1268.320283131915
 20
1685.133453862725
 30
0.0
 10
1268.211620838174
 20
1681.954753640853
 30
0.0
 10
1268.099671813055
 20
1678.661891046419
 30
0.0
 10
1267.984476721748
 20
1675.254911351204
 30
0.0
 10
1267.867636577024
 20
1671.780842103959
 30
0.0
 10
1267.74922896523
 20
1668.242116225269
 30
0.0
 10
1267.629343295789
 20
1664.641314613848
 30
0.0
 10
1267.500673467504
 20
1660.757868173299
 30
0.0
 10
1267.363212976697
 20
1656.5879418186
 30
0.0
 10
1267.21698526885
 20
1652.129072310494
 30
0.0
 10
1267.069230294702
 20
1647.602316755578
 30
0.0
 10
1266.898272283006
 20
1642.343609262216
 30
0.0
 10
1266.704029387043
 20
1636.344823832597
 30
0.0
 10
1266.486324009518
 20
1629.601707176454
 30
0.0
 10
1266.266405288064
 20
1622.783068563468
 30
0.0
 10
1266.044397036537
 20
1615.90791958082
 30
0.0
 10
1265.8114118818
 20
1608.718605998531
 30
0.0
 10
1265.567422868054
 20
1601.217202870894
 30
0.0
 10
1265.312102549955
 20
1593.396368466177
 30
0.0
 10
1265.053998224074
 20
1585.516599427958
 30
0.0
 10
1264.792967520505
 20
1577.5704253699
 30
0.0
 10
1264.528900605753
 20
1569.549697069054
 30
0.0
 10
1264.26174358107
 20
1561.445554991519
 30
0.0
 10
1263.991450259035
 20
1553.248416428792
 30
0.0
 10
1263.704712851726
 20
1544.544975068133
 30
0.0
 10
1263.401360243458
 20
1535.316120152953
 30
0.0
 10
1263.080811076413
 20
1525.546170547815
 30
0.0
 10
1262.755687677012
 20
1515.625458733685
 30
0.0
 10
1262.425722927909
 20
1505.552969607519
 30
0.0
 10
1262.090615980494
 20
1495.327651858004
 30
0.0
 10
1261.750046265041
 20
1484.948432773457
 30
0.0
 10
1261.440449402918
 20
1475.534020699437
 30
0.0
 10
1261.162921903689
 20
1467.114715939166
 30
0.0
 10
1260.919639754319
 20
1459.724383347597
 30
0.0
 10
1260.675676882885
 20
1452.280694910858
 30
0.0
 10
1260.43218271766
 20
1444.793915644146
 30
0.0
 10
1260.19035787038
 20
1437.274803204081
 30
0.0
 10
1259.951460635416
 20
1429.734617565029
 30
0.0
 10
1259.716808542637
 20
1422.185129230955
 30
0.0
 10
1259.493193036745
 20
1414.817254746525
 30
0.0
 10
1259.281443265363
 20
1407.640574822142
 30
0.0
 10
1259.081916279657
 20
1400.656852511407
 30
0.0
 10
1258.887348993291
 20
1393.676207125638
 30
0.0
 10
1258.695500577003
 20
1386.679146114186
 30
0.0
 10
1258.517802033783
 20
1380.152235748521
 30
0.0
 10
1258.352176671975
 20
1374.083947984498
 30
0.0
 10
1258.197610472976
 20
1368.467716434683
 30
0.0
 10
1258.039119251076
 20
1362.79095109204
 30
0.0
 10
1257.875407954681
 20
1357.041782714242
 30
0.0
 10
1257.705028155367
 20
1351.211275803393
 30
0.0
 10
1257.527838342571
 20
1345.298724808213
 30
0.0
 10
1257.344710279291
 20
1339.310320007904
 30
0.0
 10
1257.156426028593
 20
1333.254986458451
 30
0.0
 10
1256.963866386954
 20
1327.142133202514
 30
0.0
 10
1256.704144878558
 20
1318.978265299995
 30
0.0
 10
1256.37567434766
 20
1308.74241512401
 30
0.0
 10
1255.975240999815
 20
1296.349689413102
 30
0.0
 10
1255.566297671239
 20
1283.77458967429
 30
0.0
 10
1255.14929836411
 20
1271.014974100285
 30
0.0
 10
1254.726640788095
 20
1258.129291989867
 30
0.0
 10
1254.298837450928
 20
1245.11615059379
 30
0.0
 10
1253.866434356971
 20
1231.974061516175
 30
0.0
 10
1253.429979441414
 20
1218.701473299924
 30
0.0
 10
1252.990196355213
 20
1205.29715583329
 30
0.0
 10
1252.525769677039
 20
1191.106264244812
 30
0.0
 10
1252.036046645463
 20
1176.115836102524
 30
0.0
 10
1251.520341918617
 20
1160.313390853901
 30
0.0
 10
1250.999155536279
 20
1144.341017735039
 30
0.0
 10
1250.472022331792
 20
1128.199478664868
 30
0.0
 10
1249.93902489106
 20
1111.889043049831
 30
0.0
 10
1249.400233354608
 20
1095.409596016098
 30
0.0
 10
1248.871071194146
 20
1079.230265399872
 30
0.0
 10
1248.351922744472
 20
1063.359871321298
 30
0.0
 10
1247.843152301388
 20
1047.80724430324
 30
0.0
 10
1247.329783811679
 20
1032.111944045394
 30
0.0
 10
1246.81183037343
 20
1016.273934507807
 30
0.0
 10
1246.289246119298
 20
1000.293277584804
 30
0.0
 10
1245.939286265462
 20
989.591998059199
 30
0.0
 10
1245.763529236679
 20
984.2175956156198
 30
0.0
  0
SPLINE
  5
104
330
1F
100
AcDbEntity
  8
0
  6
Continuous
 62
     7
370
    15
100
AcDbSpline
210
0.0
220
0.0
230
1.0
 70
     8
 71
     3
 72
    43
 73
    39
 74
     0
 42
0.000000001
 43
0.00000001
 40
0.0
 40
0.0
 40
0.0
 40
0.0
 40
0.0470469824732426
 40
0.0969136582968743
 40
0.1438320331512336
 40
0.1877612418053765
 40
0.2287124076511569
 40
0.2667286320888101
 40
0.3018656311470795
 40
0.3341787426140417
 40
0.3637160882152924
 40
0.3905160268157313
 40
0.4146110340112595
 40
0.437669108349469
 40
0.468919409713494
 40
0.5007736277788497
 40
0.5332583344127755
 40
0.566402646506713
 40
0.6002376491856666
 40
0.6347937443748287
 40
0.6689278253633746
 40
0.7016266846785755
 40
0.7328760105659671
 40
0.7769776796771736
 40
0.8188784919342736
 40
0.8398501186406692
 40
0.8503466707305216
 40
0.8555973698853452
 40
0.8582597833799176
 40
0.8612073819855763
 40
0.8685770597990694
 40
0.8784778310895964
 40
0.8911982472749794
 40
0.9068686761458888
 40
0.9255549984445027
 40
0.947293244078101
 40
0.9721041363300429
 40
1.0
 40
1.0
 40
1.0
 40
1.0
 10
1607.575352058704
 20
1704.02971677731
 30
0.0
 10
1607.557759591847
 20
1704.574998055666
 30
0.0
 10
1607.521520278888
 20
1705.698241262951
 30
0.0
 10
1607.421187054414
 20
1707.363544094806
 30
0.0
 10
1607.242382572462
 20
1708.986331580349
 30
0.0
 10
1606.979157121151
 20
1710.493010918284
 30
0.0
 10
1606.634890463771
 20
1711.877204209349
 30
0.0
 10
1606.220709061637
 20
1713.135142620711
 30
0.0
 10
1605.752169467501
 20
1714.265997066702
 30
0.0
 10
1605.246723832859
 20
1715.271710707229
 30
0.0
 10
1604.722044588782
 20
1716.156568110039
 30
0.0
 10
1604.194919178646
 20
1716.926680472185
 30
0.0
 10
1603.668909972346
 20
1717.604463026988
 30
0.0
 10
1603.072000761486
 20
1718.290676257884
 30
0.0
 10
1602.368179153189
 20
1719.0010829762
 30
0.0
 10
1601.530143292773
 20
1719.728057185581
 30
0.0
 10
1600.621258540072
 20
1720.40191486622
 30
0.0
 10
1599.643699722098
 20
1721.016003892767
 30
0.0
 10
1598.600550850867
 20
1721.56430321313
 30
0.0
 10
1597.508251318193
 20
1722.036329512766
 30
0.0
 10
1596.397053683606
 20
1722.423161570678
 30
0.0
 10
1595.29971372565
 20
1722.724809175192
 30
0.0
 10
1594.073512425358
 20
1722.985001384757
 30
0.0
 10
1592.727266541953
 20
1723.182280737214
 30
0.0
 10
1591.490399211199
 20
1723.287287013186
 30
0.0
 10
1590.641036172977
 20
1723.330017420587
 30
0.0
 10
1590.215393336633
 20
1723.345310343017
 30
0.0
 10
1590.002650864481
 20
1723.351592282833
 30
0.0
 10
1589.87604668911
 20
1723.354944276719
 30
0.0
 10
1589.733574988807
 20
1723.358415715188
 30
0.0
 10
1589.546737083755
 20
1723.362315440452
 30
0.0
 10
1589.322278372846
 20
1723.366096447146
 30
0.0
 10
1589.077562840905
 20
1723.369265541274
 30
0.0
 10
1588.812454047501
 20
1723.371717778558
 30
0.0
 10
1588.526184217301
 20
1723.373416016577
 30
0.0
 10
1588.218724713913
 20
1723.374386049353
 30
0.0
 10
1587.888628428528
 20
1723.374749681212
 30
0.0
 10
1587.668971153987
 20
1723.374747916979
 30
0.0
 10
1587.55271415282
 20
1723.374746983231
 30
0.0
  0
SPLINE
  5
105
330
1F
100
AcDbEntity
  8
0
  6
Continuous
 62
     7
370
    15
100
AcDbSpline
210
0.0
220
0.0
230
1.0
 70
     8
 71
     3
 72
    51
 73
    47
 74
     0
 42
0.000000001
 43
0.00000001
 40
0.0
 40
0.0
 40
0.0
 40
0.0
 40
0.0376267080840466
 40
0.0720328882524994
 40
0.1032207011860741
 40
0.1311927571378327
 40
0.155952655083769
 40
0.1775060463632493
 40
0.1958622406026344
 40
0.2093139315638115
 40
0.2203496098383458
 40
0.229006417573196
 40
0.2353652435783785
 40
0.2377458442782378
 40
0.2396625406681281
 40
0.2412294009935978
 40
0.2419452951604574
 40
0.2426563755261065
 40
0.2441878371716789
 40
0.2471296143101224
 40
0.2510839770808505
 40
0.256472578873606
 40
0.263528833231179
 40
0.2720251270600135
 40
0.2935373472107266
 40
0.3257605634699315
 40
0.3599306203123536
 40
0.3934469135591537
 40
0.4262523323880907
 40
0.4579472062627773
 40
0.4909450052926364
 40
0.5216403683955543
 40
0.5515328385630873
 40
0.5827658995911131
 40
0.6153893296724512
 40
0.6494503711249545
 40
0.6718792756775456
 40
0.6971013685172984
 40
0.7251531133339691
 40
0.7560827310958718
 40
0.7899494745805579
 40
0.8268182551906665
 40
0.8667466424442818
 40
0.9097623021672903
 40
0.9558353865095319
 40
1.0
 40
1.0
 40
1.0
 40
1.0
 10
1289.086588107715
 20
1723.374746983231
 30
0.0
 10
1289.037087337341
 20
1723.374747056601
 30
0.0
 10
1288.942322643796
 20
1723.374747197061
 30
0.0
 10
1288.797958326955
 20
1723.374731108759
 30
0.0
 10
1288.658752382981
 20
1723.374680578872
 30
0.0
 10
1288.523451279486
 20
1723.374577084653
 30
0.0
 10
1288.39139508482
 20
1723.374401651596
 30
0.0
 10
1288.261818630087
 20
1723.37413452652
 30
0.0
 10
1288.138194059724
 20
1723.373769079024
 30
0.0
 10
1288.020407791503
 20
1723.373299949579
 30
0.0
 10
1287.910337204187
 20
1723.372746361683
 30
0.0
 10
1287.800852066842
 20
1723.37206538552
 30
0.0
 10
1287.703507053113
 20
1723.371341305924
 30
0.0
 10
1287.620386622748
 20
1723.370617475284
 30
0.0
 10
1287.563298184508
 20
1723.370077522453
 30
0.0
 10
1287.511726954757
 20
1723.369547970377
 30
0.0
 10
1287.471438149189
 20
1723.369106800506
 30
0.0
 10
1287.431348052873
 20
1723.368651099159
 30
0.0
 10
1287.364638941975
 20
1723.367842382163
 30
0.0
 10
1287.292302404391
 20
1723.366889319527
 30
0.0
 10
1287.137043232551
 20
1723.364604434733
 30
0.0
 10
1286.91925297599
 20
1723.360677838447
 30
0.0
 10
1286.636213301188
 20
1723.35423144648
 30
0.0
 10
1286.136367813729
 20
1723.339466314325
 30
0.0
 10
1285.297089135782
 20
1723.302384034359
 30
0.0
 10
1284.113895911182
 20
1723.210686556598
 30
0.0
 10
1282.776047351054
 20
1723.036346446994
 30
0.0
 10
1281.444603977901
 20
1722.776021727052
 30
0.0
 10
1280.167751399596
 20
1722.431551482932
 30
0.0
 10
1278.927641276462
 20
1721.995145881298
 30
0.0
 10
1277.751574384185
 20
1721.472011314973
 30
0.0
 10
1276.643962023277
 20
1720.864687082261
 30
0.0
 10
1275.609360607277
 20
1720.182186574623
 30
0.0
 10
1274.616016688896
 20
1719.399777954844
 30
0.0
 10
1273.655587068261
 20
1718.494382963764
 30
0.0
 10
1272.862445510974
 20
1717.593893376208
 30
0.0
 10
1272.201938391373
 20
1716.714725752821
 30
0.0
 10
1271.643320477885
 20
1715.861196416812
 30
0.0
 10
1271.090576526099
 20
1714.86951513238
 30
0.0
 10
1270.565673799915
 20
1713.732222770579
 30
0.0
 10
1270.091485064093
 20
1712.444727521081
 30
0.0
 10
1269.689649038184
 20
1711.005952862485
 30
0.0
 10
1269.377401745021
 20
1709.418924637645
 30
0.0
 10
1269.163014452846
 20
1707.690629013346
 30
0.0
 10
1269.042778145353
 20
1705.896352300213
 30
0.0
 10
1269.000466419895
 20
1704.679572405485
 30
0.0
 10
1268.979757990426
 20
1704.084049524867
 30
0.0
  0
LINE
  5
106
330
1F
100
AcDbEntity
  8
0
  6
Continuous
 62
     7
370
    15
100
AcDbLine
 10
1256.8571732709
 20
974.2245487819
 30
0.0
 11
1257.00238546
 21
974.224548784
 31
0.0
  0
SPLINE
  5
107
330
1F
100
AcDbEntity
  8
0
  6
Continuous
 62
     7
370
    15
100
AcDbSpline
210
0.0
220
0.0
230
1.0
 70
     8
 71
     3
 72
    62
 73
    58
 74
     0
 42
0.000000001
 43
0.00000001
 40
0.0
 40
0.0
 40
0.0
 40
0.0
 40
0.0335567673161025
 40
0.0650526900440356
 40
0.0944878053518334
 40
0.1218621588018291
 40
0.1471758070839269
 40
0.1704288219597822
 40
0.1891869930422709
 40
0.2063495631333107
 40
0.2219166393817776
 40
0.2261990825662532
 40
0.2303430306771142
 40
0.2343484886572766
 40
0.2397389759486371
 40
0.2470924437433414
 40
0.2543919213795278
 40
0.2616374282080854
 40
0.2688289840155741
 40
0.3112608465753238
 40
0.351716697861191
 40
0.3902021836581328
 40
0.4145264961594851
 40
0.4379975078742165
 40
0.4431494911918796
 40
0.448258620444831
 40
0.4533249252187557
 40
0.4583484358559756
 40
0.4633291834809086
 40
0.4682672000265805
 40
0.4731625182622447
 40
0.5105162378973089
 40
0.5464558139723279
 40
0.5809998187289068
 40
0.6141691687238416
 40
0.6422399923572695
 40
0.6692826557343938
 40
0.675214353905467
 40
0.6810954977199474
 40
0.6869263387674601
 40
0.6927071352054085
 40
0.6984381519540758
 40
0.704119660897208
 40
0.7097519410881384
 40
0.7415968384939357
 40
0.7721184511458326
 40
0.8013752077583952
 40
0.8294334400018687
 40
0.847952049810324
 40
0.8685943851283822
 40
0.8887135173091226
 40
0.9083495888569467
 40
0.9275457730027252
 40
0.9463482733547584
 40
0.9728348169756406
 40
0.9999771314679732
 40
1.0
 40
1.0
 40
1.0
 40
1.0
 10
1257.002385460029
 20
974.2245487840364
 30
0.0
 10
1257.09349490512
 20
974.2245487833304
 30
0.0
 10
1257.270118428945
 20
974.2245487819615
 30
0.0
 10
1257.532899153846
 20
974.2245487573767
 30
0.0
 10
1257.783601628785
 20
974.2245487158693
 30
0.0
 10
1258.022590568835
 20
974.2245486561185
 30
0.0
 10
1258.249769596166
 20
974.2245485784731
 30
0.0
 10
1258.457630359703
 20
974.2245484862419
 30
0.0
 10
1258.646724207956
 20
974.2245483819902
 30
0.0
 10
1258.817405379493
 20
974.2245482689984
 30
0.0
 10
1258.945401144318
 20
974.2245481685602
 30
0.0
 10
1259.031217227442
 20
974.2245480931496
 30
0.0
 10
1259.076379584139
 20
974.224548051546
 30
0.0
 10
1259.126370295876
 20
974.2245480033232
 30
0.0
 10
1259.18952247245
 20
974.2245479389142
 30
0.0
 10
1259.266482023961
 20
974.224547856807
 30
0.0
 10
1259.352464693849
 20
974.2245477602094
 30
0.0
 10
1259.439694149684
 20
974.224547657499
 30
0.0
 10
1259.672934909329
 20
974.2245473705591
 30
0.0
 10
1260.070253202483
 20
974.224546814976
 30
0.0
 10
1260.677645714638
 20
974.2245458049304
 30
0.0
 10
1261.261893816257
 20
974.2245447005761
 30
0.0
 10
1261.802296398453
 20
974.2245435880001
 30
0.0
 10
1262.161036344758
 20
974.2245428066824
 30
0.0
 10
1262.401103063889
 20
974.2245422670185
 30
0.0
 10
1262.512112619389
 20
974.2245420147943
 30
0.0
 10
1262.624132852183
 20
974.2245417576222
 30
0.0
 10
1262.73716375746
 20
974.2245414955017
 30
0.0
 10
1262.851206199658
 20
974.2245412284298
 30
0.0
 10
1262.966256756462
 20
974.2245409564192
 30
0.0
 10
1263.339201630448
 20
974.2245400664127
 30
0.0
 10
1264.003392157682
 20
974.2245384234244
 30
0.0
 10
1265.042560213717
 20
974.2245357087043
 30
0.0
 10
1266.168944434115
 20
974.2245326339655
 30
0.0
 10
1267.336836293292
 20
974.2245293285964
 30
0.0
 10
1268.532287528416
 20
974.2245258466035
 30
0.0
 10
1269.441163566843
 20
974.224523137564
 30
0.0
 10
1270.054421759973
 20
974.2245212857048
 30
0.0
 10
1270.338695293676
 20
974.2245204235062
 30
0.0
 10
1270.62637479946
 20
974.224519547247
 30
0.0
 10
1270.917458563059
 20
974.2245186569343
 30
0.0
 10
1271.211956284675
 20
974.2245177525317
 30
0.0
 10
1271.509831433942
 20
974.2245168341746
 30
0.0
 10
1272.279636086563
 20
974.2245144515879
 30
0.0
 10
1273.568932833595
 20
974.2245104166028
 30
0.0
 10
1275.494369135496
 20
974.2245042857645
 30
0.0
 10
1277.53408229793
 20
974.2244976916775
 30
0.0
 10
1279.472207018672
 20
974.2244913419668
 30
0.0
 10
1281.332450948719
 20
974.2244851841522
 30
0.0
 10
1283.077888997402
 20
974.2244793623886
 30
0.0
 10
1284.970462598404
 20
974.224473003523
 30
0.0
 10
1286.931646155406
 20
974.2244663693192
 30
0.0
 10
1288.962368591459
 20
974.2244594561538
 30
0.0
 10
1291.356928235952
 20
974.2244512581937
 30
0.0
 10
1294.234296772461
 20
974.2244413349632
 30
0.0
 10
1296.443532964632
 20
974.2244336881589
 30
0.0
 10
1297.636770321592
 20
974.2244295272868
 30
0.0
 10
1297.637774827496
 20
974.2244295237841
 30
0.0
  0
SPLINE
  5
108
330
1F
100
AcDbEntity
  8
0
  6
Continuous
 62
     7
370
    15
100
AcDbSpline
210
0.0
220
0.0
230
1.0
 70
     8
 71
     3
 72
   103
 73
    99
 74
     0
 42
0.000000001
 43
0.00000001
 40
0.0
 40
0.0
 40
0.0
 40
0.0
 40
0.0011767389887126
 40
0.017422748850686
 40
0.034250491562056
 40
0.0516960996474482
 40
0.0580836329300822
 40
0.0634090440431152
 40
0.068810831505079
 40
0.0742897010337018
 40
0.0798463289774411
 40
0.0854813636858215
 40
0.0911954268190207
 40
0.0969891145981262
 40
0.1128321416275136
 40
0.1292554825594509
 40
0.1462681757456595
 40
0.1696407206169947
 40
0.1727794789137854
 40
0.1759364096383909
 40
0.1791115467005566
 40
0.1823049234300408
 40
0.1855165725887405
 40
0.1887465263825334
 40
0.2069453312544099
 40
0.2261003356723831
 40
0.2462157494767901
 40
0.2672952070972913
 40
0.2866451271864858
 40
0.3067459457222768
 40
0.3113617698138167
 40
0.316015539297609
 40
0.3207072715811953
 40
0.3238046424422209
 40
0.3267430589117096
 40
0.3297605091278166
 40
0.3328569979694618
 40
0.3459549769229239
 40
0.3603035503838987
 40
0.3759028992126056
 40
0.3927531639941867
 40
0.4020787647644745
 40
0.411747631648223
 40
0.4217597767770749
 40
0.4321152110761963
 40
0.4428139444190894
 40
0.4538559857583494
 40
0.4724339431584985
 40
0.4899094588779798
 40
0.5062825539744499
 40
0.5215532540661417
 40
0.535721590751119
 40
0.5487876036251175
 40
0.5559710521698481
 40
0.5627717404239794
 40
0.5691896833375695
 40
0.5752248987050159
 40
0.580877407935257
 40
0.5861472371015201
 40
0.5952989754241554
 40
0.6045196073477918
 40
0.6283315368354472
 40
0.6510161090046175
 40
0.6725760059497058
 40
0.6861909926565292
 40
0.6993184506498679
 40
0.7021985484766365
 40
0.7050541481116975
 40
0.7078852637452986
 40
0.710691909939057
 40
0.713474101638799
 40
0.7162318541879495
 40
0.7189651833414977
 40
0.7398163307005585
 40
0.7599037330147561
 40
0.7792360332354107
 40
0.7978229277166448
 40
0.813571528380243
 40
0.828759653904921
 40
0.8320932136591889
 40
0.8353991058876313
 40
0.8386774456954732
 40
0.8419283511145975
 40
0.8451519431904205
 40
0.8483483460713681
 40
0.851517687101008
 40
0.8703238331811443
 40
0.8884085155530201
 40
0.9058068231258477
 40
0.92255815859824
 40
0.931857423765656
 40
0.9409687761986136
 40
0.9499017600989483
 40
0.9586665023810774
 40
0.9672737238190953
 40
0.9757347439819618
 40
0.9840614787088656
 40
1.0
 40
1.0
 40
1.0
 40
1.0
 10
1308.935171173443
 20
974.2243899558009
 30
0.0
 10
1309.034155509642
 20
974.2243896077185
 30
0.0
 10
1310.499713501924
 20
974.2243844540241
 30
0.0
 10
1313.483249234204
 20
974.2243739146024
 30
0.0
 10
1317.927366178045
 20
974.2243581899227
 30
0.0
 10
1321.574796002783
 20
974.2243452453462
 30
0.0
 10
1324.211810447395
 20
974.2243358725233
 30
0.0
 10
1325.766120447642
 20
974.2243303437706
 30
0.0
 10
1327.242905515073
 20
974.2243250873628
 30
0.0
 10
1328.74555041336
 20
974.2243197355346
 30
0.0
 10
1330.274040101701
 20
974.224314288345
 30
0.0
 10
1331.828378455219
 20
974.224308745779
 30
0.0
 10
1333.408566719837
 20
974.2243031078326
 30
0.0
 10
1335.935727140537
 20
974.2242940862297
 30
0.0
 10
1339.46700747426
 20
974.2242814676556
 30
0.0
 10
1344.061343229037
 20
974.2242650290067
 30
0.0
 10
1349.378688684873
 20
974.22424598056
 30
0.0
 10
1353.468093034697
 20
974.2242313120369
 30
0.0
 10
1356.260432111734
 20
974.2242212886501
 30
0.0
 10
1357.152181260304
 20
974.2242180870745
 30
0.0
 10
1358.049422485546
 20
974.2242148652347
 30
0.0
 10
1358.952157033191
 20
974.2242116231256
 30
0.0
 10
1359.860385153539
 20
974.224208360746
 30
0.0
 10
1362.183880295612
 20
974.2242000133283
 30
0.0
 10
1366.015085641487
 20
974.2241862418631
 30
0.0
 10
1371.447828623557
 20
974.2241666978985
 30
0.0
 10
1377.158907842213
 20
974.2241461377553
 30
0.0
 10
1382.892931056112
 20
974.2241254814558
 30
0.0
 10
1388.628646933445
 20
974.224104807469
 30
0.0
 10
1392.805882244474
 20
974.2240897435869
 30
0.0
 10
1395.590448844494
 20
974.2240796991911
 30
0.0
 10
1396.914177217783
 20
974.224074923804
 30
0.0
 10
1398.093994585396
 20
974.2240706671681
 30
0.0
 10
1399.111205750818
 20
974.2240669968874
 30
0.0
 10
1399.96968735616
 20
974.2240638990936
 30
0.0
 10
1400.82810955208
 20
974.2240608013105
 30
0.0
 10
1402.649995741982
 20
974.2240542262623
 30
0.0
 10
1405.546596083678
 20
974.2240437710445
 30
0.0
 10
1409.629156485777
 20
974.2240290322501
 30
0.0
 10
1414.067756587311
 20
974.2240130054502
 30
0.0
 10
1418.030043162043
 20
974.2239986965069
 30
0.0
 10
1421.429872291233
 20
974.2239864176435
 30
0.0
 10
1424.181130093617
 20
974.2239764805796
 30
0.0
 10
1427.030078598614
 20
974.2239661901075
 30
0.0
 10
1429.976717923455
 20
974.2239555462244
 30
0.0
 10
1433.021048079343
 20
974.2239445489392
 30
0.0
 10
1436.845288770802
 20
974.2239307336603
 30
0.0
 10
1441.312309117089
 20
974.2239145956033
 30
0.0
 10
1446.284976808872
 20
974.2238966298936
 30
0.0
 10
1450.94394017361
 20
974.2238797965542
 30
0.0
 10
1455.289199573944
 20
974.2238640955997
 30
0.0
 10
1459.320755287981
 20
974.2238495270261
 30
0.0
 10
1462.585208365764
 20
974.2238377294054
 30
0.0
 10
1465.150819407022
 20
974.223828456564
 30
0.0
 10
1467.085858648453
 20
974.2238214622881
 30
0.0
 10
1468.911962094946
 20
974.2238148612403
 30
0.0
 10
1470.629129478007
 20
974.2238086534176
 30
0.0
 10
1472.237362610958
 20
974.2238028388286
 30
0.0
 10
1474.141085360885
 20
974.2237959550434
 30
0.0
 10
1476.383060741108
 20
974.2237878468924
 30
0.0
 10
1480.383076836865
 20
974.2237733783936
 30
0.0
 10
1485.665468729807
 20
974.2237542651544
 30
0.0
 10
1492.115336599963
 20
974.2237309153892
 30
0.0
 10
1497.595945357415
 20
974.2237110629959
 30
0.0
 10
1502.168413709915
 20
974.223694491201
 30
0.0
 10
1504.970904959021
 20
974.2236843295967
 30
0.0
 10
1506.754652488658
 20
974.2236778598881
 30
0.0
 10
1507.564610565367
 20
974.2236749218122
 30
0.0
 10
1508.36747701315
 20
974.2236720091258
 30
0.0
 10
1509.16325202633
 20
974.2236691218283
 30
0.0
 10
1509.951935309206
 20
974.2236662599202
 30
0.0
 10
1510.733527858001
 20
974.223663423399
 30
0.0
 10
1513.221576596205
 20
974.223654392758
 30
0.0
 10
1517.342580427222
 20
974.2236394272105
 30
0.0
 10
1523.017171664592
 20
974.2236187986604
 30
0.0
 10
1528.462990474597
 20
974.2235989797734
 30
0.0
 10
1533.483292205472
 20
974.2235806874316
 30
0.0
 10
1538.096053333551
 20
974.2235638592081
 30
0.0
 10
1541.272650473142
 20
974.2235522558572
 30
0.0
 10
1543.288413740894
 20
974.2235448865423
 30
0.0
 10
1544.203047274693
 20
974.2235415417424
 30
0.0
 10
1545.108743877492
 20
974.2235382285724
 30
0.0
 10
1546.005504777805
 20
974.2235349470271
 30
0.0
 10
1546.893328688311
 20
974.2235316971115
 30
0.0
 10
1547.772219591243
 20
974.2235284788114
 30
0.0
 10
1550.075308416942
 20
974.2235200425159
 30
0.0
 10
1553.718362765599
 20
974.2235066815938
 30
0.0
 10
1558.588899751894
 20
974.2234887769813
 30
0.0
 10
1563.196708300325
 20
974.2234717940047
 30
0.0
 10
1566.950315629521
 20
974.2234579189849
 30
0.0
 10
1569.926137387375
 20
974.2234468905405
 30
0.0
 10
1572.202026495581
 20
974.2234384390541
 30
0.0
 10
1574.39198471162
 20
974.2234302890366
 30
0.0
 10
1576.495855729589
 20
974.2234224410167
 30
0.0
 10
1578.5142191374
 20
974.223414893014
 30
0.0
 10
1580.444904989183
 20
974.2234076524467
 30
0.0
 10
1582.868472380589
 20
974.2233985388596
 30
0.0
 10
1584.547571393002
 20
974.2233921822768
 30
0.0
 10
1585.650479820564
 20
974.2233880069848
 30
0.0
  0
SPLINE
  5
109
330
1F
100
AcDbEntity
  8
0
  6
Continuous
 62
     7
370
    15
100
AcDbSpline
210
0.0
220
0.0
230
1.0
 70
     8
 71
     3
 72
    52
 73
    48
 74
     0
 42
0.000000001
 43
0.00000001
 40
0.0
 40
0.0
 40
0.0
 40
0.0
 40
0.0035600677703338
 40
0.0386594733594985
 40
0.0648873907752848
 40
0.0896670501749645
 40
0.1149518351590321
 40
0.1250313970034311
 40
0.1351962529129102
 40
0.1454483539456579
 40
0.1557896017790022
 40
0.166221849339112
 40
0.1767469014909997
 40
0.2104603399648261
 40
0.2456400570154675
 40
0.2823290134232852
 40
0.3205650831130855
 40
0.3555195074829415
 40
0.3917182867141744
 40
0.4000176257181868
 40
0.408380795114771
 40
0.4168079847013161
 40
0.4252993799823259
 40
0.4338551622860253
 40
0.4424755088775152
 40
0.4511605930685693
 40
0.488773570527586
 40
0.5283872085859134
 40
0.5700119485083529
 40
0.6136567882206971
 40
0.65374155223583
 40
0.6954014075326261
 40
0.704970572818795
 40
0.7146193705496702
 40
0.7243478435688675
 40
0.7305846444073061
 40
0.7364768589025424
 40
0.7425456222013818
 40
0.7487909456327245
 40
0.772395830140983
 40
0.7982277536767
 40
0.8262870127870745
 40
0.8565738385938877
 40
0.8890884147166436
 40
0.9238308894528195
 40
0.960801384290004
 40
1.0
 40
1.0
 40
1.0
 40
1.0
 10
1591.535465642113
 20
974.2233655204445
 30
0.0
 10
1591.639156739351
 20
974.2233651226256
 30
0.0
 10
1592.765158678039
 20
974.2233608026316
 30
0.0
 10
1594.429980546704
 20
974.2233543324078
 30
0.0
 10
1596.531909341401
 20
974.2233461234704
 30
0.0
 10
1598.252137258657
 20
974.2233393474581
 30
0.0
 10
1599.521078033368
 20
974.2233343120738
 30
0.0
 10
1600.433985435279
 20
974.2233306681794
 30
0.0
 10
1601.027951742477
 20
974.2233282891644
 30
0.0
 10
1601.6094114396
 20
974.223325951833
 30
0.0
 10
1602.178393381381
 20
974.223323656083
 30
0.0
 10
1602.734901063109
 20
974.2233214019018
 30
0.0
 10
1603.67674071758
 20
974.2233175713571
 30
0.0
 10
1604.955042642798
 20
974.2233123248927
 30
0.0
 10
1606.488580602565
 20
974.2233059385558
 30
0.0
 10
1607.926964971483
 20
974.2232998503802
 30
0.0
 10
1609.213340110609
 20
974.2232943054896
 30
0.0
 10
1610.364699784562
 20
974.2232892464569
 30
0.0
 10
1611.118400560195
 20
974.2232858668024
 30
0.0
 10
1611.588715442901
 20
974.2232837296064
 30
0.0
 10
1611.806526408734
 20
974.2232827345925
 30
0.0
 10
1612.020626140553
 20
974.2232817512042
 30
0.0
 10
1612.231013728463
 20
974.223280779444
 30
0.0
 10
1612.437691893997
 20
974.2232798193027
 30
0.0
 10
1612.640650575308
 20
974.2232788708158
 30
0.0
 10
1613.060677656661
 20
974.2232768959186
 30
0.0
 10
1613.671565395483
 20
974.2232739718906
 30
0.0
 10
1614.424888752428
 20
974.2232702558542
 30
0.0
 10
1615.129248036145
 20
974.2232666641173
 30
0.0
 10
1615.756614522759
 20
974.2232633448652
 30
0.0
 10
1616.315963197135
 20
974.2232602697487
 30
0.0
 10
1616.68013411198
 20
974.2232581855409
 30
0.0
 10
1616.906809927601
 20
974.223256853992
 30
0.0
 10
1617.011770763587
 20
974.2232562310069
 30
0.0
 10
1617.102240197941
 20
974.2232556884059
 30
0.0
 10
1617.177668298845
 20
974.2232552317636
 30
0.0
 10
1617.239097187862
 20
974.2232548565091
 30
0.0
 10
1617.299405972195
 20
974.2232544852142
 30
0.0
 10
1617.416198482023
 20
974.2232537605732
 30
0.0
 10
1617.589803764397
 20
974.2232526640346
 30
0.0
 10
1617.818501360125
 20
974.2232511844323
 30
0.0
 10
1618.055075739859
 20
974.2232496198984
 30
0.0
 10
1618.299506813177
 20
974.2232479705053
 30
0.0
 10
1618.551815762737
 20
974.2232462361762
 30
0.0
 10
1618.811851911116
 20
974.223244417454
 30
0.0
 10
1619.08019166554
 20
974.2232425122615
 30
0.0
 10
1619.25783227086
 20
974.2232412277965
 30
0.0
 10
1619.349250770727
 20
974.2232405667772
 30
0.0
  0
SPLINE
  5
10A
330
1F
100
AcDbEntity
  8
0
  6
Continuous
 62
     7
370
    15
100
AcDbSpline
210
0.0
220
0.0
230
1.0
 70
     8
 71
     3
 72
   130
 73
   126
 74
     0
 42
0.000000001
 43
0.00000001
 40
0.0
 40
0.0
 40
0.0
 40
0.0
 40
0.0040191473650281
 40
0.015844322220676
 40
0.0254142049755713
 40
0.0342041826354758
 40
0.0358394805846951
 40
0.0374448626526868
 40
0.03902036394688
 40
0.0405660216108038
 40
0.0420818749817982
 40
0.043567965763995
 40
0.0450243382183392
 40
0.0464510393716579
 40
0.0608855941954446
 40
0.0751081658377375
 40
0.0891449960981737
 40
0.1030233804379062
 40
0.1102396802350478
 40
0.1174243980300562
 40
0.1245817391360614
 40
0.1317159572784809
 40
0.1388313476529904
 40
0.1459322396210328
 40
0.1533330243006552
 40
0.16062533154723
 40
0.1678150626482467
 40
0.1749083749107636
 40
0.1819116799608372
 40
0.1888316396151532
 40
0.1956751590921842
 40
0.2042818230055858
 40
0.2127417112526116
 40
0.2210691773674341
 40
0.2292792694462301
 40
0.2373876891010416
 40
0.2454107349043631
 40
0.258006828323418
 40
0.2709603378377403
 40
0.2843192044706538
 40
0.2981271477047692
 40
0.3106814523907278
 40
0.323638686276526
 40
0.3266053291983731
 40
0.3295936411136879
 40
0.332603854139595
 40
0.3356361953638189
 40
0.3386908869390154
 40
0.3417681461773122
 40
0.3448681856448758
 40
0.3588159899024123
 40
0.3733580285348829
 40
0.3885087692351363
 40
0.4042810047184373
 40
0.4206860738347626
 40
0.4377340527612646
 40
0.4443325245952554
 40
0.4494187082159125
 40
0.4546026949562761
 40
0.459886413107791
 40
0.4652700379513691
 40
0.4707537351876775
 40
0.4763376616085722
 40
0.4922113499345959
 40
0.5088469296975546
 40
0.5150856446205122
 40
0.5214255352007677
 40
0.5278667028915401
 40
0.5344092444346297
 40
0.5410532521435968
 40
0.5462824246732996
 40
0.550637852017956
 40
0.5591610618312848
 40
0.5683809617580768
 40
0.5782976596847719
 40
0.5853278830616708
 40
0.5926706265566402
 40
0.6003259093533225
 40
0.6082937483779195
 40
0.6165741586399198
 40
0.6251671535108968
 40
0.6340727449544045
 40
0.6432909437169161
 40
0.6571511904326036
 40
0.6702031804475646
 40
0.6824469268133626
 40
0.6938824453489513
 40
0.704509755482472
 40
0.7143288814394358
 40
0.7197367150121894
 40
0.7248639187111569
 40
0.7297105015445947
 40
0.7342764741816803
 40
0.7385618493874729
 40
0.7425666426101997
 40
0.749380042732407
 40
0.7562470002909453
 40
0.7740151748203015
 40
0.7909937769468072
 40
0.8071845249725866
 40
0.8174398170684551
 40
0.8273534238294117
 40
0.8295320431180064
 40
0.8316934872958387
 40
0.8338377651554869
 40
0.8359648857024038
 40
0.8380748581617268
 40
0.8401676919853575
 40
0.8422433968593237
 40
0.8625491908210177
 40
0.8820421231262398
 40
0.9007347323980879
 40
0.9126405120310274
 40
0.9242083899084871
 40
0.9267593610158732
 40
0.9292936112312584
 40
0.9318112008269746
 40
0.934312191279886
 40
0.9367966452990751
 40
0.939264626854151
 40
0.9417162012041844
 40
0.9571908763991199
 40
0.9721151372468865
 40
0.986512998101764
 40
1.0
 40
1.0
 40
1.0
 40
1.0
 10
1621.055525827646
 20
974.2232237950996
 30
0.0
 10
1621.049250729333
 20
974.223223724528
 30
0.0
 10
1621.024512975125
 20
974.2232234463194
 30
0.0
 10
1620.922822654014
 20
974.2232232242984
 30
0.0
 10
1620.751871063026
 20
974.2232231422581
 30
0.0
 10
1620.589258287175
 20
974.2232232667392
 30
0.0
 10
1620.470852524313
 20
974.2232234162286
 30
0.0
 10
1620.420663215619
 20
974.2232234861881
 30
0.0
 10
1620.368591683974
 20
974.2232235650641
 30
0.0
 10
1620.314630136019
 20
974.2232236528853
 30
0.0
 10
1620.258787437385
 20
974.2232237496193
 30
0.0
 10
1620.201036776518
 20
974.2232238553636
 30
0.0
 10
1620.141474151222
 20
974.223223969769
 30
0.0
 10
1619.891747238639
 20
974.2232244728044
 30
0.0
 10
1619.369821936584
 20
974.2232256667837
 30
0.0
 10
1618.4071106192
 20
974.2232281699155
 30
0.0
 10
1617.229870318849
 20
974.2232314693052
 30
0.0
 10
1616.056971240979
 20
974.2232349203887
 30
0.0
 10
1614.994232881711
 20
974.2232381334637
 30
0.0
 10
1614.121926538283
 20
974.2232408111342
 30
0.0
 10
1613.191030005957
 20
974.2232437063078
 30
0.0
 10
1612.201574656746
 20
974.2232468188661
 30
0.0
 10
1611.153438370633
 20
974.223250149261
 30
0.0
 10
1610.030978709425
 20
974.2232537474143
 30
0.0
 10
1608.834960977075
 20
974.2232576131171
 30
0.0
 10
1607.564714507862
 20
974.2232617515435
 30
0.0
 10
1606.243413360167
 20
974.2232660875796
 30
0.0
 10
1604.870945691786
 20
974.223270621639
 30
0.0
 10
1603.44728054333
 20
974.2232753538403
 30
0.0
 10
1601.972614936278
 20
974.2232802834426
 30
0.0
 10
1600.309981088723
 20
974.2232858710656
 30
0.0
 10
1598.446989755568
 20
974.223292165631
 30
0.0
 10
1596.369066509707
 20
974.2232992246683
 30
0.0
 10
1594.225100317517
 20
974.2233065454814
 30
0.0
 10
1592.015236019872
 20
974.2233141275461
 30
0.0
 10
1589.73979443069
 20
974.2233219696209
 30
0.0
 10
1586.945943123796
 20
974.2233316396196
 30
0.0
 10
1583.532775766274
 20
974.2233435103029
 30
0.0
 10
1579.40629416871
 20
974.2233579311718
 30
0.0
 10
1574.997906208283
 20
974.2233734026412
 30
0.0
 10
1570.505470145785
 20
974.2233892274834
 30
0.0
 10
1565.959151600645
 20
974.2234052913853
 30
0.0
 10
1562.608824932514
 20
974.2234171601294
 30
0.0
 10
1560.364775124753
 20
974.2234251211974
 30
0.0
 10
1559.297700562627
 20
974.2234289087456
 30
0.0
 10
1558.21963082344
 20
974.2234327372587
 30
0.0
 10
1557.130560632148
 20
974.2234366067551
 30
0.0
 10
1556.030491982801
 20
974.2234405172279
 30
0.0
 10
1554.919422141998
 20
974.2234444686866
 30
0.0
 10
1552.491376697027
 20
974.2234531079234
 30
0.0
 10
1548.655140349089
 20
974.2234667746689
 30
0.0
 10
1543.311499329972
 20
974.2234858460164
 30
0.0
 10
1537.707292792157
 20
974.2235058800463
 30
0.0
 10
1531.842537206423
 20
974.2235268766989
 30
0.0
 10
1525.717185168882
 20
974.2235488361367
 30
0.0
 10
1520.717037070403
 20
974.2235667840707
 30
0.0
 10
1517.12394525273
 20
974.2235796914672
 30
0.0
 10
1515.012851206096
 20
974.2235872779534
 30
0.0
 10
1513.065106649613
 20
974.2235942796459
 30
0.0
 10
1511.079022975844
 20
974.2236014213231
 30
0.0
 10
1509.054380232857
 20
974.2236087037795
 30
0.0
 10
1506.991178045259
 20
974.2236161270156
 30
0.0
 10
1503.611020278144
 20
974.2236282918443
 30
0.0
 10
1498.828360189453
 20
974.2236455126592
 30
0.0
 10
1493.959934493912
 20
974.2236630536544
 30
0.0
 10
1490.288079650651
 20
974.2236762886474
 30
0.0
 10
1487.897119190187
 20
974.2236849085245
 30
0.0
 10
1485.467599330525
 20
974.2236936691817
 30
0.0
 10
1482.999519026064
 20
974.2237025706211
 30
0.0
 10
1480.683577195854
 20
974.22371092494
 30
0.0
 10
1478.642510845249
 20
974.2237182888799
 30
0.0
 10
1476.364932264826
 20
974.2237265074003
 30
0.0
 10
1473.585202568601
 20
974.2237365396355
 30
0.0
 10
1470.105712822876
 20
974.2237490997027
 30
0.0
 10
1466.8138896519
 20
974.2237609842507
 30
0.0
 10
1463.758139925589
 20
974.2237720177715
 30
0.0
 10
1460.986842424885
 20
974.223782025069
 30
0.0
 10
1458.097552164119
 20
974.2237924592675
 30
0.0
 10
1455.090268928576
 20
974.2238033203683
 30
0.0
 10
1451.964992669359
 20
974.2238146083708
 30
0.0
 10
1448.721723303311
 20
974.2238263232789
 30
0.0
 10
1445.360460803657
 20
974.2238384650786
 30
0.0
 10
1441.336514647913
 20
974.2238530015107
 30
0.0
 10
1436.790904085614
 20
974.2238694231928
 30
0.0
 10
1431.864648061028
 20
974.2238872207976
 30
0.0
 10
1427.243456633557
 20
974.2239039171802
 30
0.0
 10
1422.927329540481
 20
974.2239195123201
 30
0.0
 10
1418.916266562814
 20
974.2239340062223
 30
0.0
 10
1415.663573157865
 20
974.2239457607374
 30
0.0
 10
1413.102869699591
 20
974.2239550152815
 30
0.0
 10
1411.167768879523
 20
974.2239620093045
 30
0.0
 10
1409.338603772506
 20
974.223968620914
 30
0.0
 10
1407.61537452414
 20
974.2239748501124
 30
0.0
 10
1405.998079963331
 20
974.2239806968934
 30
0.0
 10
1404.09811960692
 20
974.2239875662958
 30
0.0
 10
1401.873510077614
 20
974.2239956106135
 30
0.0
 10
1397.917854327718
 20
974.2240099167049
 30
0.0
 10
1392.684292460717
 20
974.2240288502658
 30
0.0
 10
1386.280102063994
 20
974.2240520301345
 30
0.0
 10
1380.822875392913
 20
974.2240717930739
 30
0.0
 10
1376.255900442695
 20
974.2240883402193
 30
0.0
 10
1373.450325303571
 20
974.2240985096773
 30
0.0
 10
1371.661565650115
 20
974.2241049952537
 30
0.0
 10
1370.847932374671
 20
974.2241079455778
 30
0.0
 10
1370.040882627946
 20
974.2241108723334
 30
0.0
 10
1369.240416271642
 20
974.2241137755212
 30
0.0
 10
1368.446533454324
 20
974.2241166551405
 30
0.0
 10
1367.659233711181
 20
974.2241195111934
 30
0.0
 10
1364.590806503569
 20
974.2241306436239
 30
0.0
 10
1359.346003203666
 20
974.224149683852
 30
0.0
 10
1352.039165564303
 20
974.2241762429987
 30
0.0
 10
1345.803464607483
 20
974.2241989396025
 30
0.0
 10
1340.574823018288
 20
974.2242179944699
 30
0.0
 10
1337.359453277612
 20
974.2242297246257
 30
0.0
 10
1335.30751413772
 20
974.2242372155954
 30
0.0
 10
1334.371666113428
 20
974.2242406329482
 30
0.0
 10
1333.442946561773
 20
974.2242440251497
 30
0.0
 10
1332.521354749457
 20
974.2242473922028
 30
0.0
 10
1331.606890744291
 20
974.2242507341065
 30
0.0
 10
1330.699554956479
 20
974.2242540508623
 30
0.0
 10
1328.203348066465
 20
974.2242631782068
 30
0.0
 10
1324.20120796244
 20
974.2242778276353
 30
0.0
 10
1318.804922821844
 20
974.224297622911
 30
0.0
 10
1313.708709000716
 20
974.2243163565558
 30
0.0
 10
1310.461555578129
 20
974.2243283325276
 30
0.0
 10
1308.891012995151
 20
974.2243341249158
 30
0.0
  0
SPLINE
  5
10B
330
1F
100
AcDbEntity
  8
0
  6
Continuous
 62
     7
370
    15
100
AcDbSpline
210
0.0
220
0.0
230
1.0
 70
     8
 71
     3
 72
    47
 73
    43
 74
     0
 42
0.000000001
 43
0.00000001
 40
0.0
 40
0.0
 40
0.0
 40
0.0
 40
0.032293953606269
 40
0.0643004647944908
 40
0.0960477556540851
 40
0.1215259130537188
 40
0.1471248780233917
 40
0.1728978185158907
 40
0.198896835166808
 40
0.2251726838319386
 40
0.2603032404855193
 40
0.2956241577078284
 40
0.3312221724609036
 40
0.3671820166429257
 40
0.3861915104050977
 40
0.4053343597593551
 40
0.4246218244177035
 40
0.4440649128487061
 40
0.463674371427822
 40
0.4834606754545426
 40
0.5152803146450915
 40
0.54745824564399
 40
0.5800364308593003
 40
0.612995552964864
 40
0.6428538184520478
 40
0.6675163809789516
 40
0.6932395376373731
 40
0.7200252537420193
 40
0.7467124102246435
 40
0.7702684345844963
 40
0.7877330536169278
 40
0.8057303705590283
 40
0.8242606262707389
 40
0.8433240414114961
 40
0.862920818630642
 40
0.8784739232146829
 40
0.8924774775880187
 40
0.9098522890836984
 40
0.929291910936929
 40
0.950796384348927
 40
0.9743657396923089
 40
1.0
 40
1.0
 40
1.0
 40
1.0
 10
1291.161695803339
 20
974.2244000015962
 30
0.0
 10
1289.917206575498
 20
974.2244046726056
 30
0.0
 10
1287.439305084786
 20
974.2244139730489
 30
0.0
 10
1283.983046390919
 20
974.2244270355229
 30
0.0
 10
1280.967684374449
 20
974.2244385011139
 30
0.0
 10
1278.343362837307
 20
974.2244485421932
 30
0.0
 10
1276.035565146133
 20
974.2244574186727
 30
0.0
 10
1273.849366303308
 20
974.2244658785837
 30
0.0
 10
1271.782432904568
 20
974.224473930006
 30
0.0
 10
1269.628085970634
 20
974.224482385611
 30
0.0
 10
1267.433680505501
 20
974.2244910774104
 30
0.0
 10
1265.254180764792
 20
974.2244998097743
 30
0.0
 10
1263.292291405938
 20
974.224507781669
 30
0.0
 10
1261.828035029652
 20
974.224513834785
 30
0.0
 10
1260.75264952373
 20
974.2245183516995
 30
0.0
 10
1259.984283589127
 20
974.2245216209203
 30
0.0
 10
1259.275264947407
 20
974.2245246827547
 30
0.0
 10
1258.625544078028
 20
974.2245275373829
 30
0.0
 10
1258.035258583286
 20
974.2245301843133
 30
0.0
 10
1257.397860639699
 20
974.2245331124843
 30
0.0
 10
1256.767532241097
 20
974.2245361294367
 30
0.0
 10
1256.211942125228
 20
974.2245389936619
 30
0.0
 10
1255.814849073703
 20
974.2245412985279
 30
0.0
 10
1255.598250647993
 20
974.2245429326972
 30
0.0
 10
1255.500047684566
 20
974.2245440690078
 30
0.0
 10
1255.445127051147
 20
974.2245449844166
 30
0.0
 10
1255.428207637508
 20
974.2245457351524
 30
0.0
 10
1255.442467008224
 20
974.2245463913409
 30
0.0
 10
1255.484504122175
 20
974.2245469277739
 30
0.0
 10
1255.543096724509
 20
974.2245473210481
 30
0.0
 10
1255.607844308141
 20
974.2245476143929
 30
0.0
 10
1255.676913021354
 20
974.2245478471832
 30
0.0
 10
1255.757580973474
 20
974.2245480523021
 30
0.0
 10
1255.849842784052
 20
974.2245482297687
 30
0.0
 10
1255.945625759636
 20
974.2245483678719
 30
0.0
 10
1256.038756068248
 20
974.2245484703288
 30
0.0
 10
1256.134170945306
 20
974.2245485446432
 30
0.0
 10
1256.242090727246
 20
974.2245486084449
 30
0.0
 10
1256.370466823671
 20
974.2245486652726
 30
0.0
 10
1256.516529103358
 20
974.2245487134696
 30
0.0
 10
1256.68009624032
 20
974.2245487536927
 30
0.0
 10
1256.796518974666
 20
974.224548772262
 30
0.0
 10
1256.85717327087
 20
974.2245487819362
 30
0.0
  0
SPLINE
  5
10C
330
1F
100
AcDbEntity
  8
0
  6
Continuous
 62
     7
370
    15
100
AcDbSpline
210
0.0
220
0.0
230
1.0
 70
    24
 71
     3
 72
    88
 73
    84
 74
     0
 42
0.000000001
 43
0.00000001
 40
-0.0000000000037765
 40
-0.0000000000037765
 40
-0.0000000000037765
 40
-0.0000000000037765
 40
38.96078367990557
 40
59.08996890086652
 40
68.64795065922993
 40
78.55569409845704
 40
93.03015736367313
 40
101.8618332573879
 40
107.6315226162503
 40
115.5949163671528
 40
121.4848934391692
 40
123.307462278441
 40
125.1300311177138
 40
128.8559429527926
 40
132.5818547878714
 40
134.3388211758908
 40
136.0957875639114
 40
137.9669705281738
 40
139.8381534924372
 40
141.7663162080296
 40
143.6944789236231
 40
145.4827219838619
 40
147.2709650441006
 40
155.8055532457673
 40
157.9543870312049
 40
160.1032208166437
 40
163.921507541053
 40
167.7397942654613
 40
186.6144561288159
 40
196.4498003384541
 40
206.2851445480923
 40
216.4535132506158
 40
226.6218819531394
 40
244.9270744447398
 40
263.2322669363414
 40
274.7024670740487
 40
279.8408390001384
 40
284.9792109262279
 40
295.5824984471419
 40
306.1857859680559
 40
316.3965321475029
 40
326.6072783269503
 40
346.714392706287
 40
356.4402164490746
 40
366.1660401918623
 40
370.7249112778925
 40
375.283782363923
 40
380.6167700060549
 40
385.0077797473846
 40
389.3987894887132
 40
392.2548749286938
 40
395.1109603686732
 40
402.9601387242286
 40
405.843009057782
 40
408.7258793913364
 40
409.6111479032969
 40
410.4964164152575
 40
412.2669534391786
 40
413.2365136324667
 40
414.2060738257546
 40
415.0728793012536
 40
415.9396847767516
 40
417.7772134579963
 40
419.6147421392425
 40
421.4063405102198
 40
423.1979388811972
 40
425.1763281185276
 40
427.154717355859
 40
429.0909218375017
 40
431.0271263191444
 40
437.0449195070202
 40
441.2429884720232
 40
445.4410574370262
 40
450.0800761015868
 40
454.7190947661475
 40
459.2625264988125
 40
463.8059582314763
 40
473.5334553543271
 40
483.3571466430198
 40
493.1808379317125
 40
510.0538894495002
 40
526.926940967288
 40
537.7190338583943
 40
537.7190338583943
 40
537.7190338583943
 40
537.7190338583943
 10
1586.535127255026
 20
1723.374746983231
 30
0.0
 10
1586.024550106876
 20
1723.374746983231
 30
0.0
 10
1585.258811514707
 20
1723.374746983229
 30
0.0
 10
1583.251099209346
 20
1723.374746983231
 30
0.0
 10
1581.537613452497
 20
1723.374746983231
 30
0.0
 10
1579.670666615636
 20
1723.374746983231
 30
0.0
 10
1577.229931727096
 20
1723.374746983232
 30
0.0
 10
1574.355095052976
 20
1723.374746983232
 30
0.0
 10
1571.666490332507
 20
1723.374746983229
 30
0.0
 10
1568.893810481916
 20
1723.374746983231
 30
0.0
 10
1566.251571870687
 20
1723.374746983229
 30
0.0
 10
1564.482965390466
 20
1723.374746983232
 30
0.0
 10
1563.055807885166
 20
1723.374746983229
 30
0.0
 10
1561.142962516666
 20
1723.374746983231
 30
0.0
 10
1559.089631075066
 20
1723.374746983231
 30
0.0
 10
1557.397858492057
 20
1723.374746983229
 30
0.0
 10
1556.106875159216
 20
1723.374746983231
 30
0.0
 10
1554.756970530696
 20
1723.374746983231
 30
0.0
 10
1553.335561509096
 20
1723.374746983232
 30
0.0
 10
1551.872263647356
 20
1723.374746983231
 30
0.0
 10
1550.405661339896
 20
1723.374746983229
 30
0.0
 10
1548.955584230666
 20
1723.374746983231
 30
0.0
 10
1545.726349280756
 20
1723.374746983227
 30
0.0
 10
1542.299863071356
 20
1723.374746983232
 30
0.0
 10
1538.710967346547
 20
1723.374746983231
 30
0.0
 10
1536.425889431216
 20
1723.374746983231
 30
0.0
 10
1533.649809070957
 20
1723.374746983231
 30
0.0
 10
1526.064709525566
 20
1723.374746983229
 30
0.0
 10
1516.593271334527
 20
1723.374746983231
 30
0.0
 10
1505.284910735196
 20
1723.374746983231
 30
0.0
 10
1496.499489807146
 20
1723.374746983229
 30
0.0
 10
1487.601096432016
 20
1723.374746983231
 30
0.0
 10
1476.192263998077
 20
1723.374746983229
 30
0.0
 10
1462.372748775416
 20
1723.374746983232
 30
0.0
 10
1448.166782174836
 20
1723.374746983231
 30
0.0
 10
1437.851244633166
 20
1723.374746983232
 30
0.0
 10
1431.425882928876
 20
1723.374746983231
 30
0.0
 10
1425.256710370707
 20
1723.374746983229
 30
0.0
 10
1417.472914178656
 20
1723.374746983231
 30
0.0
 10
1408.191105409256
 20
1723.374746983232
 30
0.0
 10
1399.027083477366
 20
1723.374746983231
 30
0.0
 10
1387.062340004607
 20
1723.374746983231
 30
0.0
 10
1375.256795362827
 20
1723.374746983229
 30
0.0
 10
1363.649627691726
 20
1723.374746983231
 30
0.0
 10
1356.645043659347
 20
1723.374746983229
 30
0.0
 10
1351.185643262927
 20
1723.374746983232
 30
0.0
 10
1347.024008484856
 20
1723.374746983231
 30
0.0
 10
1342.943746445477
 20
1723.374746983231
 30
0.0
 10
1338.955384754706
 20
1723.374746983231
 30
0.0
 10
1335.708499520957
 20
1723.374746983231
 30
0.0
 10
1332.928037314876
 20
1723.374746983231
 30
0.0
 10
1329.244279113566
 20
1723.374746983229
 30
0.0
 10
1325.657251661616
 20
1723.374746983231
 30
0.0
 10
1322.228701677157
 20
1723.374746983231
 30
0.0
 10
1320.606922276346
 20
1723.374746983229
 30
0.0
 10
1319.499881904906
 20
1723.374746983231
 30
0.0
 10
1318.668306957626
 20
1723.374746983229
 30
0.0
 10
1317.833292697306
 20
1723.374746983232
 30
0.0
 10
1316.997623284256
 20
1723.374746983229
 30
0.0
 10
1316.375408412997
 20
1723.37474698323
 30
0.0
 10
1315.785747162817
 20
1723.374746983231
 30
0.0
 10
1315.018665943736
 20
1723.374746983229
 30
0.0
 10
1314.067975982517
 20
1723.374746983231
 30
0.0
 10
1312.966069677727
 20
1723.374746983229
 30
0.0
 10
1311.915276596106
 20
1723.374746983231
 30
0.0
 10
1310.880619826416
 20
1723.374746983229
 30
0.0
 10
1309.859490690136
 20
1723.374746983231
 30
0.0
 10
1308.862267698656
 20
1723.374746983231
 30
0.0
 10
1307.918822574317
 20
1723.374746983231
 30
0.0
 10
1306.401052237026
 20
1723.37474698323
 30
0.0
 10
1304.720143147147
 20
1723.374746983231
 30
0.0
 10
1302.968514951917
 20
1723.374746983229
 30
0.0
 10
1301.545229538636
 20
1723.374746983231
 30
0.0
 10
1300.230729916147
 20
1723.374746983229
 30
0.0
 10
1299.030601918226
 20
1723.37474698323
 30
0.0
 10
1297.967303347147
 20
1723.374746983229
 30
0.0
 10
1296.666120884656
 20
1723.374746983231
 30
0.0
 10
1295.276448516436
 20
1723.37474698323
 30
0.0
 10
1293.945641398846
 20
1723.374746983231
 30
0.0
 10
1292.646995432107
 20
1723.37474698323
 30
0.0
 10
1291.544200451746
 20
1723.374746983231
 30
0.0
 10
1290.769462584036
 20
1723.374746983229
 30
0.0
 10
1290.374009982546
 20
1723.374746983229
 30
0.0
 10
1290.224258318636
 20
1723.37474698323
 30
0.0
  0
SPLINE
  5
10D
330
1F
100
AcDbEntity
  8
0
  6
Continuous
 62
     7
370
    15
100
AcDbSpline
210
0.0
220
0.0
230
1.0
 70
    24
 71
     3
 72
    18
 73
    14
 74
     0
 42
0.000000001
 43
0.00000001
 40
0.0
 40
0.0
 40
0.0
 40
0.0
 40
0.0828887148971795
 40
0.1616758741029623
 40
0.2363615284616228
 40
0.3167978574392727
 40
0.3961368025057742
 40
0.4721599946216481
 40
0.5521830236339406
 40
0.632581647042844
 40
0.7938994362081863
 40
0.9582947749338243
 40
1.0
 40
1.0
 40
1.0
 40
1.0
 10
1290.224258318646
 20
1723.374746983231
 30
0.0
 10
1290.186090727334
 20
1723.374746983231
 30
0.0
 10
1290.111644179389
 20
1723.374746983231
 30
0.0
 10
1290.004991909165
 20
1723.374746983231
 30
0.0
 10
1289.901274412514
 20
1723.374746983231
 30
0.0
 10
1289.799666265066
 20
1723.374746983231
 30
0.0
 10
1289.700209308235
 20
1723.374746983231
 30
0.0
 10
1289.60390861555
 20
1723.374746983231
 30
0.0
 10
1289.510706183621
 20
1723.374746983231
 30
0.0
 10
1289.389203439839
 20
1723.374746983231
 30
0.0
 10
1289.251279938184
 20
1723.374746983231
 30
0.0
 10
1289.138618564176
 20
1723.374746983231
 30
0.0
 10
1289.098862179914
 20
1723.374746983231
 30
0.0
 10
1289.090817325873
 20
1723.374746983231
 30
0.0
  0
SPLINE
  5
10E
330
1F
100
AcDbEntity
  8
0
  6
Continuous
 62
     7
370
    15
100
AcDbSpline
210
0.0
220
0.0
230
1.0
 70
    24
 71
     3
 72
    28
 73
    24
 74
     0
 42
0.000000001
 43
0.00000001
 40
0.0
 40
0.0
 40
0.0
 40
0.0
 40
0.1161967003869256
 40
0.2168827162896618
 40
0.3132767369893973
 40
0.4113052735586822
 40
0.5126159866254022
 40
0.6053292126678562
 40
0.6364032047733574
 40
0.6684029155604246
 40
0.7013283570716018
 40
0.7351795403614533
 40
0.7667885001311971
 40
0.7973630504527909
 40
0.8294010179010982
 40
0.8461791288069781
 40
0.863232547925633
 40
0.8819262969953017
 40
0.9022603763121296
 40
0.92423478610594
 40
0.9478495265586677
 40
0.973104597816793
 40
1.0
 40
1.0
 40
1.0
 40
1.0
 10
1587.552339040601
 20
1723.374746983231
 30
0.0
 10
1587.534522497168
 20
1723.374746983231
 30
0.0
 10
1587.501267677351
 20
1723.374746983231
 30
0.0
 10
1587.426984853987
 20
1723.374746983231
 30
0.0
 10
1587.344321069124
 20
1723.374746983231
 30
0.0
 10
1587.249183972837
 20
1723.374746983231
 30
0.0
 10
1587.145458138952
 20
1723.374746983231
 30
0.0
 10
1587.059169348007
 20
1723.374746983231
 30
0.0
 10
1586.997404634066
 20
1723.374746983231
 30
0.0
 10
1586.958746085951
 20
1723.374746983231
 30
0.0
 10
1586.918391164503
 20
1723.374746983231
 30
0.0
 10
1586.877652298082
 20
1723.374746983231
 30
0.0
 10
1586.837402709835
 20
1723.374746983231
 30
0.0
 10
1586.79753519864
 20
1723.374746983231
 30
0.0
 10
1586.7636701227
 20
1723.374746983231
 30
0.0
 10
1586.735407914924
 20
1723.374746983231
 30
0.0
 10
1586.712775516727
 20
1723.374746983231
 30
0.0
 10
1586.688538158231
 20
1723.374746983231
 30
0.0
 10
1586.662104914685
 20
1723.374746983231
 30
0.0
 10
1586.633476676598
 20
1723.374746983231
 30
0.0
 10
1586.602652288114
 20
1723.374746983231
 30
0.0
 10
1586.569635265971
 20
1723.374746983231
 30
0.0
 10
1586.54686862452
 20
1723.374746983231
 30
0.0
 10
1586.535127255022
 20
1723.374746983231
 30
0.0
  0
SPLINE
  5
10F
330
1F
100
AcDbEntity
  8
0
  6
Continuous
 62
     7
370
    15
100
AcDbSpline
210
0.0
220
0.0
230
1.0
 70
     8
 71
     3
 72
    22
 73
    18
 74
     0
 42
0.000000001
 43
0.00000001
 40
-0.0070278433954079
 40
-0.0070278433954079
 40
-0.0070278433954079
 40
-0.0070278433954079
 40
0.1131761450657301
 40
0.2159362085398468
 40
0.3082806897574371
 40
0.3902094814463253
 40
0.5228196866050914
 40
0.6137670839416213
 40
0.6818918770896708
 40
0.7500160938532789
 40
0.812615752228944
 40
0.8341584461362309
 40
0.8571708999347277
 40
0.8852636845460737
 40
0.9184356919884944
 40
0.9592291155892767
 40
1.007382219660446
 40
1.007382219660446
 40
1.007382219660446
 40
1.007382219660446
 10
1591.882152960422
 20
1588.908109264336
 30
0.0
 10
1592.192459212737
 20
1579.49869270663
 30
0.0
 10
1592.768060157679
 20
1562.045348677839
 30
0.0
 10
1593.581216453895
 20
1537.363368093128
 30
0.0
 10
1594.292366790148
 20
1515.677416542612
 30
0.0
 10
1595.080189137136
 20
1491.65482110734
 30
0.0
 10
1595.867601958944
 20
1467.741693333431
 30
0.0
 10
1596.622178139613
 20
1444.909216831205
 30
0.0
 10
1597.198737200787
 20
1427.124243369528
 30
0.0
 10
1597.69342475231
 20
1411.558014116682
 30
0.0
 10
1598.056825412381
 20
1399.63783387215
 30
0.0
 10
1598.307597780673
 20
1391.249077574604
 30
0.0
 10
1598.476033849833
 20
1385.561690496676
 30
0.0
 10
1598.669680846074
 20
1378.963827923571
 30
0.0
 10
1598.903779862039
 20
1370.973924406484
 30
0.0
 10
1599.184180812066
 20
1361.413552100029
 30
0.0
 10
1599.394914487894
 20
1354.450332053217
 30
0.0
 10
1599.508654718657
 20
1350.680633741663
 30
0.0
  0
SPLINE
  5
110
330
1F
100
AcDbEntity
  8
0
  6
Continuous
 62
     7
370
    15
100
AcDbSpline
210
0.0
220
0.0
230
1.0
 70
     8
 71
     3
 72
    21
 73
    17
 74
     0
 42
0.000000001
 43
0.00000001
 40
-0.0073821183119633
 40
-0.0073821183119633
 40
-0.0073821183119633
 40
-0.0073821183119633
 40
0.0156250006719975
 40
0.0312500008908157
 40
0.0625000018876314
 40
0.0937500026212642
 40
0.125000003529693
 40
0.2499999913144893
 40
0.3749999825824545
 40
0.4374999841557818
 40
0.4999999858945501
 40
0.5624999876617607
 40
0.6249999893979422
 40
0.7499999929366971
 40
0.8749999964384216
 40
0.9999999999999983
 40
0.9999999999999983
 40
0.9999999999999983
 40
0.9999999999999983
 10
1277.014153144136
 20
1350.680366487016
 30
0.0
 10
1277.068496425798
 20
1352.481497532838
 30
0.0
 10
1277.159980420041
 20
1355.505837371593
 30
0.0
 10
1277.323961636018
 20
1360.976648741616
 30
0.0
 10
1277.504399501199
 20
1367.092850768619
 30
0.0
 10
1277.718985991533
 20
1374.432350080878
 30
0.0
 10
1278.146328981693
 20
1389.111400153064
 30
0.0
 10
1278.803945046657
 20
1411.1295016288
 30
0.0
 10
1279.590608565873
 20
1435.592315974644
 30
0.0
 10
1280.232110253012
 20
1455.162160418887
 30
0.0
 10
1280.715206598484
 20
1469.839480871451
 30
0.0
 10
1281.198809492618
 20
1484.516784370283
 30
0.0
 10
1281.842647390051
 20
1504.086554464458
 30
0.0
 10
1282.646318275016
 20
1528.54880437449
 30
0.0
 10
1283.612485086534
 20
1557.903446652728
 30
0.0
 10
1284.257015149143
 20
1577.473194752173
 30
0.0
 10
1284.579280180525
 20
1587.258068804237
 30
0.0
  0
SPLINE
  5
111
330
1F
100
AcDbEntity
  8
0
  6
Continuous
 62
     7
370
    15
100
AcDbSpline
210
0.0
220
0.0
230
1.0
 70
     8
 71
     3
 72
    30
 73
    26
 74
     0
 42
0.000000001
 43
0.00000001
 40
0.0
 40
0.0
 40
0.0
 40
0.0
 40
0.0451240056600045
 40
0.0902280858474999
 40
0.1353075739643994
 40
0.1791997421438314
 40
0.2215313041884813
 40
0.2631066389985528
 40
0.3435828504198241
 40
0.4198495394886855
 40
0.4918593236064199
 40
0.6211065045391244
 40
0.7304304313692136
 40
0.7785089278773393
 40
0.8231043292908964
 40
0.8651854618799893
 40
0.9071047807892294
 40
0.9288895457474444
 40
0.9401151144019765
 40
0.9515943070024344
 40
0.9609606919846322
 40
0.9704781127192094
 40
0.980143315866191
 40
0.9899734972776487
 40
1.0
 40
1.0
 40
1.0
 40
1.0
 10
1591.882152960422
 20
1588.908109264336
 30
0.0
 10
1591.857333582599
 20
1589.657850701581
 30
0.0
 10
1591.807705786483
 20
1591.157002511659
 30
0.0
 10
1591.733256329281
 20
1593.405153727594
 30
0.0
 10
1591.659415730327
 20
1595.632833466756
 30
0.0
 10
1591.585852651221
 20
1597.814406854336
 30
0.0
 10
1591.510795139881
 20
1599.937584923658
 30
0.0
 10
1591.411260609001
 20
1602.668132950855
 30
0.0
 10
1591.286340435519
 20
1605.961276516557
 30
0.0
 10
1591.132670597955
 20
1609.754702664085
 30
0.0
 10
1590.926490345241
 20
1614.340236497599
 30
0.0
 10
1590.662528321041
 20
1619.428707418106
 30
0.0
 10
1590.342184140903
 20
1623.958441518313
 30
0.0
 10
1590.055337418233
 20
1626.920729657173
 30
0.0
 10
1589.836217400134
 20
1628.768328342771
 30
0.0
 10
1589.600195536607
 20
1630.372252432077
 30
0.0
 10
1589.396109638773
 20
1631.537486322103
 30
0.0
 10
1589.255804863765
 20
1632.273503658796
 30
0.0
 10
1589.174489732766
 20
1632.685803934303
 30
0.0
 10
1589.116973978686
 20
1632.970998974787
 30
0.0
 10
1589.063499090399
 20
1633.230540146589
 30
0.0
 10
1589.013953375856
 20
1633.465730079676
 30
0.0
 10
1588.964368701386
 20
1633.695337183884
 30
0.0
 10
1588.914710744757
 20
1633.920314657612
 30
0.0
 10
1588.882265481095
 20
1634.06428631581
 30
0.0
 10
1588.865882457512
 20
1634.136983862548
 30
0.0
  0
SPLINE
  5
112
330
1F
100
AcDbEntity
  8
0
  6
Continuous
 62
     7
370
    15
100
AcDbSpline
210
0.0
220
0.0
230
1.0
 70
     8
 71
     3
 72
   134
 73
   130
 74
     0
 42
0.000000001
 43
0.00000001
 40
0.0000000000001527
 40
0.0000000000001527
 40
0.0000000000001527
 40
0.0000000000001527
 40
0.0015914716063916
 40
0.0032420798035491
 40
0.0049577531822833
 40
0.0076654911010776
 40
0.0105437830953992
 40
0.0120394739346508
 40
0.0135737828880985
 40
0.0167993148123091
 40
0.0200920945249148
 40
0.0234305467287005
 40
0.0302426785715129
 40
0.0372688641244913
 40
0.0446118522330701
 40
0.0483702781682398
 40
0.0522037769153162
 40
0.056098482652697
 40
0.060025228669861
 40
0.0640079235690088
 40
0.0680556278494249
 40
0.0762939346537356
 40
0.0846290225398993
 40
0.1013859186299895
 40
0.1097673022476295
 40
0.1181470676507693
 40
0.1265264246147054
 40
0.1349059752683028
 40
0.1432862416741238
 40
0.1516665540958441
 40
0.1600480656362651
 40
0.1684299735213579
 40
0.1768144832034775
 40
0.1851989927264343
 40
0.1935875374252306
 40
0.2019765354236694
 40
0.206174152564179
 40
0.2103726960567058
 40
0.2187704191857157
 40
0.2271712129378951
 40
0.2355774425725395
 40
0.243984569450414
 40
0.2523946885628974
 40
0.2608054077486558
 40
0.2692177682707549
 40
0.2776302832308353
 40
0.286043585169131
 40
0.2944575587748937
 40
0.3028719692193097
 40
0.319700240377805
 40
0.3365292014836466
 40
0.3449445046456757
 40
0.3533598547633304
 40
0.3701898485016002
 40
0.38702015859931
 40
0.4206812702758456
 40
0.429096514482025
 40
0.4375115906085255
 40
0.4543420920644103
 40
0.4627574849060592
 40
0.4711726339795982
 40
0.4880028973610987
 40
0.5216640852235415
 40
0.5384943038446239
 40
0.5553242791947064
 40
0.5721545684455216
 40
0.5889831788935265
 40
0.5973982055056157
 40
0.6058130215330807
 40
0.6142267351578294
 40
0.6226400375650889
 40
0.6310535009281089
 40
0.6394657785150824
 40
0.6478777525960305
 40
0.6562879449390169
 40
0.664697304696511
 40
0.6731029612340662
 40
0.6898909762489616
 40
0.6982869262191393
 40
0.7024838329911116
 40
0.7066806362561066
 40
0.7150672256087185
 40
0.7234546151773344
 40
0.7276471686133568
 40
0.7318393256294358
 40
0.7402226380961018
 40
0.7486038645670923
 40
0.7569849313727477
 40
0.7653650053645894
 40
0.7737450023659591
 40
0.7821244914825086
 40
0.790504058514131
 40
0.8072653672390038
 40
0.8240055596076359
 40
0.8281674279797107
 40
0.8323091405898169
 40
0.840458916433778
 40
0.8483733117975352
 40
0.8561077812549001
 40
0.8598700654902748
 40
0.8635745440919643
 40
0.8707703266085545
 40
0.8776790447720152
 40
0.8844066354944797
 40
0.8877001150271779
 40
0.8909226294917341
 40
0.8939704459240718
 40
0.896851185826395
 40
0.899568649172413
 40
0.9021247941272464
 40
0.9068312995311021
 40
0.9111405065562405
 40
0.9151343953899799
 40
0.9189831157585732
 40
0.9229466055696036
 40
0.9271802238101384
 40
0.9317409205401477
 40
0.9366914370388123
 40
0.942111279204496
 40
0.9479562400472598
 40
0.9542691205429026
 40
0.9681027389100797
 40
0.9755967431580364
 40
0.9794574614399717
 40
0.9833878125093088
 40
0.9874710322398718
 40
0.9916454508839535
 40
0.9958207034810558
 40
1.006013476584731
 40
1.006013476584731
 40
1.006013476584731
 40
1.006013476584731
 10
1588.865882457505
 20
1634.136983862582
 30
0.0
 10
1588.839148376537
 20
1634.254440168831
 30
0.0
 10
1588.784686818047
 20
1634.493717273606
 30
0.0
 10
1588.70581598421
 20
1634.828751228704
 30
0.0
 10
1588.612936395577
 20
1635.213234454324
 30
0.0
 10
1588.507409160649
 20
1635.633979368412
 30
0.0
 10
1588.41050830736
 20
1636.000040202559
 30
0.0
 10
1588.331210987888
 20
1636.282139022583
 30
0.0
 10
1588.248098075449
 20
1636.564445111891
 30
0.0
 10
1588.149193539195
 20
1636.900751500711
 30
0.0
 10
1588.026185722659
 20
1637.272822954067
 30
0.0
 10
1587.857862908894
 20
1637.727574462029
 30
0.0
 10
1587.638567871091
 20
1638.213022898219
 30
0.0
 10
1587.353594385349
 20
1638.667389564788
 30
0.0
 10
1587.103522528116
 20
1638.959294651033
 30
0.0
 10
1586.883991664975
 20
1639.153389212927
 30
0.0
 10
1586.710923635258
 20
1639.28218047531
 30
0.0
 10
1586.529380525103
 20
1639.395557597946
 30
0.0
 10
1586.335744747219
 20
1639.49495302705
 30
0.0
 10
1586.131254597974
 20
1639.582749001106
 30
0.0
 10
1585.84134332417
 20
1639.688819044559
 30
0.0
 10
1585.448322921559
 20
1639.806188212148
 30
0.0
 10
1584.741801287248
 20
1639.984808409088
 30
0.0
 10
1583.901989065384
 20
1640.155705400065
 30
0.0
 10
1582.888179261232
 20
1640.323363269865
 30
0.0
 10
1582.030403540038
 20
1640.445337843487
 30
0.0
 10
1581.06315036754
 20
1640.563131301466
 30
0.0
 10
1579.972117880113
 20
1640.676271181931
 30
0.0
 10
1578.742157108564
 20
1640.784055567917
 30
0.0
 10
1577.352413241082
 20
1640.885328177456
 30
0.0
 10
1575.783624904224
 20
1640.979318582723
 30
0.0
 10
1574.009448974761
 20
1641.064585005633
 30
0.0
 10
1572.005016001711
 20
1641.139788622747
 30
0.0
 10
1569.738898474292
 20
1641.203075808399
 30
0.0
 10
1567.184220687248
 20
1641.252537735291
 30
0.0
 10
1564.794527667387
 20
1641.280515349885
 30
0.0
 10
1562.720266438103
 20
1641.29388538757
 30
0.0
 10
1560.537076957989
 20
1641.30100930924
 30
0.0
 10
1557.617687551669
 20
1641.298478858228
 30
0.0
 10
1553.887732888906
 20
1641.280740746791
 30
0.0
 10
1549.985957712835
 20
1641.251357077419
 30
0.0
 10
1545.958636874657
 20
1641.213266924188
 30
0.0
 10
1541.837780672697
 20
1641.168635276269
 30
0.0
 10
1537.648057111099
 20
1641.119422457603
 30
0.0
 10
1533.406231160853
 20
1641.066970104443
 30
0.0
 10
1529.125703719221
 20
1641.012569406236
 30
0.0
 10
1524.815509056869
 20
1640.957100206839
 30
0.0
 10
1520.482726104817
 20
1640.901336159754
 30
0.0
 10
1514.682881147455
 20
1640.82746398561
 30
0.0
 10
1507.400369091166
 20
1640.737392314195
 30
0.0
 10
1500.093510138855
 20
1640.653153158269
 30
0.0
 10
1494.239283762349
 20
1640.590364492137
 30
0.0
 10
1488.380563453325
 20
1640.531012269642
 30
0.0
 10
1481.051268785842
 20
1640.463865957536
 30
0.0
 10
1469.318023005366
 20
1640.373323527864
 30
0.0
 10
1459.047398348839
 20
1640.318414171192
 30
0.0
 10
1450.244140294385
 20
1640.291301361969
 30
0.0
 10
1444.375250328128
 20
1640.278705820277
 30
0.0
 10
1438.506316756241
 20
1640.274449389193
 30
0.0
 10
1432.637377058418
 20
1640.278944739013
 30
0.0
 10
1426.768478820803
 20
1640.289184193243
 30
0.0
 10
1416.498013003131
 20
1640.321621354822
 30
0.0
 10
1404.760378721822
 20
1640.39024839304
 30
0.0
 10
1393.028009329699
 20
1640.48623559933
 30
0.0
 10
1384.234328708607
 20
1640.570630547664
 30
0.0
 10
1375.451193949076
 20
1640.666010668466
 30
0.0
 10
1368.147661245344
 20
1640.752808238795
 30
0.0
 10
1362.321604834141
 20
1640.825505139185
 30
0.0
 10
1357.962999908761
 20
1640.881214528148
 30
0.0
 10
1353.619272141418
 20
1640.937554963113
 30
0.0
 10
1349.294712196089
 20
1640.994008305851
 30
0.0
 10
1344.994819547311
 20
1641.049953163417
 30
0.0
 10
1340.728128253269
 20
1641.10441867331
 30
0.0
 10
1336.504839253838
 20
1641.156479396866
 30
0.0
 10
1332.340467821659
 20
1641.204698620959
 30
0.0
 10
1328.253694705379
 20
1641.247579437387
 30
0.0
 10
1322.953845353015
 20
1641.294598426301
 30
0.0
 10
1317.926672791969
 20
1641.321692518131
 30
0.0
 10
1313.999070058985
 20
1641.315833026977
 30
0.0
 10
1311.930880095185
 20
1641.302177915619
 30
0.0
 10
1309.9840061198
 20
1641.281835588342
 30
0.0
 10
1307.768441395857
 20
1641.244800849026
 30
0.0
 10
1305.81194205299
 20
1641.195138773186
 30
0.0
 10
1304.378717065769
 20
1641.149346056536
 30
0.0
 10
1303.029905717166
 20
1641.099752609331
 30
0.0
 10
1301.491901822964
 20
1641.03120070037
 30
0.0
 10
1299.852928749114
 20
1640.940130610828
 30
0.0
 10
1298.399152839154
 20
1640.841381006727
 30
0.0
 10
1297.106676006782
 20
1640.736123623987
 30
0.0
 10
1295.958824777808
 20
1640.625172219471
 30
0.0
 10
1294.93864584845
 20
1640.509283764332
 30
0.0
 10
1293.730428729595
 20
1640.349149142944
 30
0.0
 10
1292.472805453547
 20
1640.138969287904
 30
0.0
 10
1291.58255658121
 20
1639.945367094453
 30
0.0
 10
1291.064739731534
 20
1639.809160806324
 30
0.0
 10
1290.742660165834
 20
1639.716511334851
 30
0.0
 10
1290.374534447828
 20
1639.593668492431
 30
0.0
 10
1289.97502841539
 20
1639.410301781133
 30
0.0
 10
1289.679224768072
 20
1639.210874547667
 30
0.0
 10
1289.455802883451
 20
1639.014615863556
 30
0.0
 10
1289.248698852524
 20
1638.794269072148
 30
0.0
 10
1289.007075042018
 20
1638.465990048299
 30
0.0
 10
1288.733589389486
 20
1637.953148170769
 30
0.0
 10
1288.521989291987
 20
1637.416362782196
 30
0.0
 10
1288.357836478584
 20
1636.918748349405
 30
0.0
 10
1288.239606102585
 20
1636.521091642299
 30
0.0
 10
1288.118893299876
 20
1636.09969984958
 30
0.0
 10
1288.00117392402
 20
1635.654564950263
 30
0.0
 10
1287.884599864835
 20
1635.186869365105
 30
0.0
 10
1287.732407868356
 20
1634.548470015676
 30
0.0
 10
1287.537624211059
 20
1633.686757612332
 30
0.0
 10
1287.294947908264
 20
1632.516188824324
 30
0.0
 10
1287.050906927336
 20
1631.229362389303
 30
0.0
 10
1286.809577162875
 20
1629.793918503262
 30
0.0
 10
1286.584024152357
 20
1628.157581560964
 30
0.0
 10
1286.374694085836
 20
1626.277646525271
 30
0.0
 10
1286.17847909455
 20
1624.128780693139
 30
0.0
 10
1285.994904365481
 20
1621.693941113508
 30
0.0
 10
1285.823383172192
 20
1618.975746102841
 30
0.0
 10
1285.660268120434
 20
1615.976380058355
 30
0.0
 10
1285.444598677505
 20
1611.494154473474
 30
0.0
 10
1285.24836170068
 20
1606.684937162822
 30
0.0
 10
1285.085581445716
 20
1602.298384140541
 30
0.0
 10
1284.990100968171
 20
1599.635340566403
 30
0.0
 10
1284.918234305325
 20
1597.566311004128
 30
0.0
 10
1284.847658318761
 20
1595.442458676879
 30
0.0
 10
1284.776550942672
 20
1593.275905098611
 30
0.0
 10
1284.670452115625
 20
1590.044699421145
 30
0.0
 10
1284.588427451663
 20
1587.540919114954
 30
0.0
 10
1284.530102203008
 20
1585.764726972043
 30
0.0
  0
SPLINE
  5
113
330
1F
100
AcDbEntity
  8
0
  6
Continuous
 62
     7
370
    15
100
AcDbSpline
210
0.0
220
0.0
230
1.0
 70
     8
 71
     3
 72
   118
 73
   114
 74
     0
 42
0.000000001
 43
0.00000001
 40
-0.000000000000191
 40
-0.000000000000191
 40
-0.000000000000191
 40
-0.000000000000191
 40
2.840722714784797
 40
7.437097130703742
 40
12.10148016043949
 40
16.58923456345386
 40
19.17800366046621
 40
21.84359280447647
 40
24.80044163396989
 40
30.56520679598876
 40
33.98238266248669
 40
37.17225952656467
 40
40.54796105614984
 40
44.58120365884751
 40
48.46878375032569
 40
52.56943187901394
 40
57.24986995308704
 40
61.56463462371088
 40
63.78953211655111
 40
65.87739980117219
 40
70.13591950839695
 40
73.74336240174004
 40
77.25234162106021
 40
81.02379407977814
 40
86.95906035850969
 40
92.48559046295297
 40
98.03482508597192
 40
100.8760391233409
 40
103.3051336589873
 40
105.671342508327
 40
107.9522011288514
 40
110.1501805719941
 40
112.30130106361
 40
116.5272283476062
 40
120.9270767557114
 40
129.4522077996166
 40
137.8973613322354
 40
152.2366616473204
 40
165.8359119268675
 40
172.1517822394948
 40
178.560652140632
 40
185.5092792144145
 40
191.5955664386326
 40
197.5892216613624
 40
204.2035107725181
 40
210.0917130759555
 40
215.6966816901626
 40
221.2403740369056
 40
225.9789413895555
 40
230.5873737989127
 40
234.1538516679231
 40
238.5579535528013
 40
240.9620861089276
 40
243.1209886548872
 40
245.3050318098453
 40
251.3423251801184
 40
260.9303620650068
 40
270.7517806806434
 40
278.7753044707727
 40
282.0361245541193
 40
288.8928394322446
 40
295.5337327676971
 40
307.1333611057373
 40
313.9074131162989
 40
321.6016077769111
 40
335.6135921725477
 40
350.5066502762447
 40
365.6302395755615
 40
381.035571747511
 40
389.6528325815632
 40
397.3051192905426
 40
413.4524996006534
 40
428.8720818510848
 40
444.8541326795367
 40
459.6878065573173
 40
472.6683988939776
 40
485.2059901920979
 40
490.9928107655684
 40
496.8340165074691
 40
503.1283528515056
 40
508.6034643871092
 40
513.9550909837723
 40
519.8141415431351
 40
524.9933356104494
 40
530.0216264702815
 40
535.7985969969991
 40
538.058749494155
 40
540.4831266032079
 40
545.0253325102892
 40
549.1072688441665
 40
553.8292949882538
 40
558.6836771350531
 40
564.2974254554643
 40
569.5435943795792
 40
574.7714200935493
 40
580.6316638564743
 40
586.1868219935757
 40
591.82044778471
 40
598.6388613241065
 40
605.6273973140284
 40
612.6901999602015
 40
627.5425212116446
 40
642.6262086360223
 40
657.2144188943621
 40
660.854091416518
 40
664.1551096508605
 40
667.9974347946146
 40
672.055375065339
 40
676.1404836331731
 40
678.2821926073524
 40
680.5166183969054
 40
683.0443311861854
 40
685.2853533108033
 40
685.2853533108033
 40
685.2853533108033
 40
685.2853533108033
 10
1277.01415314412
 20
1350.680366487017
 30
0.0
 10
1276.98793414552
 20
1349.828830885083
 30
0.0
 10
1276.91893297836
 20
1347.620547153681
 30
0.0
 10
1276.80540685954
 20
1344.20018233933
 30
0.0
 10
1276.6768047271
 20
1340.442745619396
 30
0.0
 10
1276.56669551412
 20
1337.380218602239
 30
0.0
 10
1276.47632747691
 20
1334.955606796849
 30
0.0
 10
1276.40088750807
 20
1332.977170163283
 30
0.0
 10
1276.29827222736
 20
1330.337955469879
 30
0.0
 10
1276.19148453805
 20
1327.726687385894
 30
0.0
 10
1276.08921064025
 20
1325.26862026212
 30
0.0
 10
1276.01214912771
 20
1323.417095957426
 30
0.0
 10
1275.93667766983
 20
1321.610317824373
 30
0.0
 10
1275.86675060957
 20
1319.856283807291
 30
0.0
 10
1275.80611494544
 20
1318.17525537466
 30
0.0
 10
1275.76013000698
 20
1316.589502620411
 30
0.0
 10
1275.7388477053
 20
1315.146344103703
 30
0.0
 10
1275.74317380589
 20
1314.042111693881
 30
0.0
 10
1275.76085581585
 20
1313.256305679864
 30
0.0
 10
1275.79026863741
 20
1312.530482228622
 30
0.0
 10
1275.84059568917
 20
1311.711285320422
 30
0.0
 10
1275.91788697601
 20
1310.820841638767
 30
0.0
 10
1276.01083172083
 20
1310.053127511374
 30
0.0
 10
1276.14303938512
 20
1309.208220271468
 30
0.0
 10
1276.31728274781
 20
1308.36720155636
 30
0.0
 10
1276.53355737221
 20
1307.633344851176
 30
0.0
 10
1276.72071146465
 20
1307.184493724415
 30
0.0
 10
1276.87307965481
 20
1306.9097339304
 30
0.0
 10
1276.98335778078
 20
1306.748701024929
 30
0.0
 10
1277.08943428793
 20
1306.624969941372
 30
0.0
 10
1277.19540177994
 20
1306.523501165789
 30
0.0
 10
1277.30174746765
 20
1306.437568464114
 30
0.0
 10
1277.44211892736
 20
1306.335726081412
 30
0.0
 10
1277.62524007661
 20
1306.217830434242
 30
0.0
 10
1277.93409594735
 20
1306.038060988244
 30
0.0
 10
1278.36096593911
 20
1305.825885966505
 30
0.0
 10
1279.09207588917
 20
1305.523094211322
 30
0.0
 10
1280.14737560495
 20
1305.178000367788
 30
0.0
 10
1281.47785336672
 20
1304.866083665346
 30
0.0
 10
1282.750950632
 20
1304.635890520105
 30
0.0
 10
1283.84103847819
 20
1304.469367727205
 30
0.0
 10
1285.08330653269
 20
1304.311266326581
 30
0.0
 10
1286.48350267717
 20
1304.164016414984
 30
0.0
 10
1288.051945993371
 20
1304.027241065168
 30
0.0
 10
1289.832728505851
 20
1303.901495311736
 30
0.0
 10
1291.835984107411
 20
1303.789524373118
 30
0.0
 10
1293.979750438752
 20
1303.695595186896
 30
0.0
 10
1296.246162132732
 20
1303.620177841746
 30
0.0
 10
1298.632072154203
 20
1303.561901127057
 30
0.0
 10
1300.927832853643
 20
1303.522580721439
 30
0.0
 10
1303.371470006604
 20
1303.495072322336
 30
0.0
 10
1305.559368977665
 20
1303.481790404463
 30
0.0
 10
1307.578755434126
 20
1303.477787918462
 30
0.0
 10
1309.157337425486
 20
1303.478341749152
 30
0.0
 10
1311.664871275087
 20
1303.484050941125
 30
0.0
 10
1316.199356437488
 20
1303.508501508657
 30
0.0
 10
1323.13621911312
 20
1303.573930067169
 30
0.0
 10
1330.975490998221
 20
1303.668952367907
 30
0.0
 10
1337.156904348262
 20
1303.751136920235
 30
0.0
 10
1342.523950331283
 20
1303.824201848674
 30
0.0
 10
1347.519544000763
 20
1303.892999903725
 30
0.0
 10
1355.053300656424
 20
1303.996211052222
 30
0.0
 10
1362.611718769794
 20
1304.096790256403
 30
0.0
 10
1370.515996966205
 20
1304.195786085529
 30
0.0
 10
1379.169226188556
 20
1304.297766134757
 30
0.0
 10
1390.309805911656
 20
1304.41443836042
 30
0.0
 10
1403.725567776256
 20
1304.526573135169
 30
0.0
 10
1417.570573584206
 20
1304.607567175375
 30
0.0
 10
1429.503462918086
 20
1304.643766089064
 30
0.0
 10
1439.158887630856
 20
1304.64982670988
 30
0.0
 10
1449.040513187766
 20
1304.639376735302
 30
0.0
 10
1460.995648887017
 20
1304.598501812246
 30
0.0
 10
1475.488623424377
 20
1304.507266619417
 30
0.0
 10
1489.575012073737
 20
1304.382349975468
 30
0.0
 10
1502.900043370358
 20
1304.23533462735
 30
0.0
 10
1515.139724845258
 20
1304.081352727417
 30
0.0
 10
1524.581090475049
 20
1303.953445927613
 30
0.0
 10
1531.81109915616
 20
1303.853779165317
 30
0.0
 10
1537.13478752619
 20
1303.780639066401
 30
0.0
 10
1542.313492513941
 20
1303.710926745256
 30
0.0
 10
1547.278519800242
 20
1303.647069033109
 30
0.0
 10
1552.033502063693
 20
1303.590146668941
 30
0.0
 10
1556.589982335754
 20
1303.541874562616
 30
0.0
 10
1560.904709409975
 20
1303.50483892664
 30
0.0
 10
1565.012093913426
 20
1303.480309070153
 30
0.0
 10
1568.161623494267
 20
1303.473578714688
 30
0.0
 10
1570.522146632418
 20
1303.477932439613
 30
0.0
 10
1572.513562383909
 20
1303.48706230323
 30
0.0
 10
1574.736022319669
 20
1303.507125139153
 30
0.0
 10
1577.18477245606
 20
1303.543820770794
 30
0.0
 10
1579.458105308701
 20
1303.593104599129
 30
0.0
 10
1581.728210801921
 20
1303.660342775387
 30
0.0
 10
1583.813968738502
 20
1303.742070943309
 30
0.0
 10
1585.704368762622
 20
1303.836684147968
 30
0.0
 10
1587.412102694592
 20
1303.941951070697
 30
0.0
 10
1588.950700134003
 20
1304.057769715636
 30
0.0
 10
1590.341854802803
 20
1304.184107054715
 30
0.0
 10
1591.642789530853
 20
1304.324432223952
 30
0.0
 10
1592.869434258563
 20
1304.483090421594
 30
0.0
 10
1594.004683348423
 20
1304.66060424435
 30
0.0
 10
1595.357131410953
 20
1304.915050741642
 30
0.0
 10
1596.715184413153
 20
1305.255081717899
 30
0.0
 10
1597.912720684173
 20
1305.680694932711
 30
0.0
 10
1598.586044176303
 20
1306.006762970519
 30
0.0
 10
1598.964514779643
 20
1306.234099632719
 30
0.0
 10
1599.145680597033
 20
1306.353019174283
 30
0.0
 10
1599.326506749493
 20
1306.48682202419
 30
0.0
 10
1599.510592506773
 20
1306.662035569582
 30
0.0
 10
1599.658478475343
 20
1306.867442855787
 30
0.0
 10
1599.776113857793
 20
1307.081061677582
 30
0.0
 10
1599.870126344043
 20
1307.279120497064
 30
0.0
 10
1599.962949630483
 20
1307.509825899731
 30
0.0
 10
1600.024532708823
 20
1307.687808185978
 30
0.0
 10
1600.053118323343
 20
1307.776695749272
 30
0.0
  0
SPLINE
  5
114
330
1F
100
AcDbEntity
  8
0
  6
Continuous
 62
     7
370
    15
100
AcDbSpline
210
0.0
220
0.0
230
1.0
 70
     8
 71
     3
 72
    36
 73
    32
 74
     0
 42
0.000000001
 43
0.00000001
 40
-0.0000000000315081
 40
-0.0000000000315081
 40
-0.0000000000315081
 40
-0.0000000000315081
 40
4.916433353537241
 40
5.992115079966266
 40
7.093869675139726
 40
8.195624270313187
 40
10.49238394866276
 40
12.78914362701235
 40
15.48223242042579
 40
18.17532121383915
 40
20.95588629371526
 40
23.7364513735914
 40
27.00779185528381
 40
30.27913233697631
 40
33.30225319050591
 40
36.32537404403539
 40
39.3470545745203
 40
42.36873510500524
 40
47.55885340055062
 40
50.0848850330167
 40
52.6109166654829
 40
54.79870522801617
 40
56.98649379054952
 40
61.35409854733675
 40
65.21353900629087
 40
70.04791027086239
 40
73.58754086424808
 40
76.90771095145513
 40
80.13278925523655
 40
82.94147199205378
 40
83.73331584081606
 40
83.73331584081606
 40
83.73331584081606
 40
83.73331584081606
 10
1600.053118323325
 20
1307.776695749269
 30
0.0
 10
1600.121877921746
 20
1307.98693337841
 30
0.0
 10
1600.202636458066
 20
1308.286241898701
 30
0.0
 10
1600.292900547026
 20
1308.686296648704
 30
0.0
 10
1600.333334366657
 20
1308.881485535456
 30
0.0
 10
1600.387310824926
 20
1309.160346249118
 30
0.0
 10
1600.452688996897
 20
1309.533795407731
 30
0.0
 10
1600.529823368866
 20
1310.047492925175
 30
0.0
 10
1600.601996740756
 20
1310.632010882247
 30
0.0
 10
1600.666542983306
 20
1311.306382063463
 30
0.0
 10
1600.718800473487
 20
1312.03581086744
 30
0.0
 10
1600.762208852596
 20
1312.829675221572
 30
0.0
 10
1600.788726854897
 20
1313.719410191385
 30
0.0
 10
1600.794771692056
 20
1314.734088863806
 30
0.0
 10
1600.785652083616
 20
1315.803091056591
 30
0.0
 10
1600.761498773576
 20
1316.943350886501
 30
0.0
 10
1600.723164778526
 20
1318.196072913127
 30
0.0
 10
1600.661399999366
 20
1319.899100220978
 30
0.0
 10
1600.586701462126
 20
1321.727364716749
 30
0.0
 10
1600.504567420716
 20
1323.671862806255
 30
0.0
 10
1600.442637313986
 20
1325.144393642299
 30
0.0
 10
1600.380547373126
 20
1326.62796643811
 30
0.0
 10
1600.298757296666
 20
1328.588533959634
 30
0.0
 10
1600.197576180667
 20
1331.073979909541
 30
0.0
 10
1600.067535482576
 20
1334.432584303499
 30
0.0
 10
1599.942392554316
 20
1337.77120409133
 30
0.0
 10
1599.822311080577
 20
1341.159630422662
 30
0.0
 10
1599.718810839896
 20
1344.178449597093
 30
0.0
 10
1599.622810434476
 20
1347.059943854759
 30
0.0
 10
1599.553039831696
 20
1349.241309346234
 30
0.0
 10
1599.516700934636
 20
1350.422609297734
 30
0.0
 10
1599.508654718657
 20
1350.680633741663
 30
0.0
  0
SPLINE
  5
115
330
1F
100
AcDbEntity
  8
0
  6
Continuous
 62
     7
370
    15
100
AcDbSpline
210
0.0
220
0.0
230
1.0
 70
     8
 71
     3
 72
    43
 73
    39
 74
     0
 42
0.000000001
 43
0.00000001
 40
0.0
 40
0.0
 40
0.0
 40
0.0
 40
0.018962978958384
 40
0.0406589954072129
 40
0.0580705763796937
 40
0.0731576376417308
 40
0.0996901262875583
 40
0.1221599647383795
 40
0.1487915973111803
 40
0.1807443268031858
 40
0.2158837689103428
 40
0.2489087105783913
 40
0.2796888672104266
 40
0.3084359823046496
 40
0.3354459383826494
 40
0.361329357634966
 40
0.3864135752080984
 40
0.4109374716542479
 40
0.4351894992666964
 40
0.4596434604243496
 40
0.4848401895335466
 40
0.5110211885813726
 40
0.5384610680403319
 40
0.5667557547764491
 40
0.5939162093334669
 40
0.6198698782246999
 40
0.6444819453617077
 40
0.6653905694747835
 40
0.6787261044849253
 40
0.6899636125870728
 40
0.7056350647597114
 40
0.7272202154094749
 40
0.7551733575085958
 40
0.7900192679430019
 40
0.8323011087590154
 40
0.882466726882836
 40
0.9406851315112943
 40
1.0
 40
1.0
 40
1.0
 40
1.0
 10
923.8299998351566
 20
974.2239542070499
 30
0.0
 10
923.9346962518422
 20
974.2239432939838
 30
0.0
 10
924.1591784460431
 20
974.2239198950067
 30
0.0
 10
924.5015822488639
 20
974.2245088089177
 30
0.0
 10
924.8375780304923
 20
974.2265033680163
 30
0.0
 10
925.1549577342329
 20
974.2299147132579
 30
0.0
 10
925.4561213263805
 20
974.2351498495717
 30
0.0
 10
925.7904485713843
 20
974.2438072899778
 30
0.0
 10
926.1710277561994
 20
974.2576416498688
 30
0.0
 10
926.6207046213267
 20
974.281249144666
 30
0.0
 10
927.108356270183
 20
974.3178506750728
 30
0.0
 10
927.615652194448
 20
974.3708602926715
 30
0.0
 10
928.1098493890423
 20
974.4400193609914
 30
0.0
 10
928.5887551723624
 20
974.526843090269
 30
0.0
 10
929.0532992783814
 20
974.6335572900898
 30
0.0
 10
929.4989647492944
 20
974.7610002355095
 30
0.0
 10
929.9270661723251
 20
974.9113625184627
 30
0.0
 10
930.3367627087131
 20
975.0865276746083
 30
0.0
 10
930.7269369919616
 20
975.2882922559988
 30
0.0
 10
931.0976497708967
 20
975.5191132325666
 30
0.0
 10
931.4517935171255
 20
975.7846870218178
 30
0.0
 10
931.7871810722331
 20
976.0889054307037
 30
0.0
 10
932.0977199205199
 20
976.4316495659975
 30
0.0
 10
932.3718344123258
 20
976.8015834400682
 30
0.0
 10
932.6067057811055
 20
977.1890658573434
 30
0.0
 10
932.7993676593597
 20
977.5760082085413
 30
0.0
 10
932.9503961714025
 20
977.9429449775154
 30
0.0
 10
933.0576169057043
 20
978.2536695428247
 30
0.0
 10
933.1312890454788
 20
978.4986181764033
 30
0.0
 10
933.1914612537901
 20
978.7202405494536
 30
0.0
 10
933.2585511080676
 20
978.9988234225464
 30
0.0
 10
933.3349491901652
 20
979.3781339955066
 30
0.0
 10
933.4124912535527
 20
979.8753313196337
 30
0.0
 10
933.4795833301429
 20
980.4992612407265
 30
0.0
 10
933.525281570082
 20
981.2587309883683
 30
0.0
 10
933.5411626902318
 20
982.1592769696703
 30
0.0
 10
933.5255466285464
 20
983.1615449513521
 30
0.0
 10
933.5014709339262
 20
983.8637432933332
 30
0.0
 10
933.4893207859526
 20
984.2181178564077
 30
0.0
  0
SPLINE
  5
116
330
1F
100
AcDbEntity
  8
0
  6
Continuous
 62
     7
370
    15
100
AcDbSpline
210
0.0
220
0.0
230
1.0
 70
     8
 71
     3
 72
    16
 73
    12
 74
     0
 42
0.000000001
 43
0.00000001
 40
0.0
 40
0.0
 40
0.0
 40
0.0
 40
0.0677447118576709
 40
0.2096466766304156
 40
0.350959111247572
 40
0.4796775486226281
 40
0.607350215733686
 40
0.7339321717805394
 40
0.8596730701812513
 40
0.984844826617716
 40
1.0
 40
1.0
 40
1.0
 40
1.0
 10
910.348930228717
 20
1665.900189734071
 30
0.0
 10
910.3195095697121
 20
1666.76670673876
 30
0.0
 10
910.2284627084074
 20
1669.448280034971
 30
0.0
 10
910.0760608258914
 20
1673.936332599704
 30
0.0
 10
909.8972810153994
 20
1679.20070597241
 30
0.0
 10
909.724880414229
 20
1684.2766288237
 30
0.0
 10
909.5592053569242
 20
1689.153959326701
 30
0.0
 10
909.3953079251379
 20
1693.978377779079
 30
0.0
 10
909.2331685340399
 20
1698.750474239121
 30
0.0
 10
909.119179171353
 20
1702.105180727275
 30
0.0
 10
909.0594238713503
 20
1703.863571000155
 30
0.0
 10
909.0529703564532
 20
1704.053475457508
 30
0.0
  0
LWPOLYLINE
  5
117
330
1F
100
AcDbEntity
  8
0
  6
Continuous
 62
     7
370
    15
100
AcDbPolyline
 90
        6
 70
   128
 43
0.0
 10
933.4900935042
 20
984.2104145466
 10
933.0717595622
 20
996.5334949005
 10
932.6579320455
 20
1008.7238271396
 10
932.2486126965
 20
1020.7813597497
 10
931.8438031439
 20
1032.7060445845
 10
931.6974338433
 20
1037.0177207534
  0
SPLINE
  5
118
330
1F
100
AcDbEntity
  8
0
  6
Continuous
 62
     7
370
    15
100
AcDbSpline
210
0.0
220
0.0
230
1.0
 70
     8
 71
     3
 72
    32
 73
    28
 74
     0
 42
0.000000001
 43
0.00000001
 40
0.0
 40
0.0
 40
0.0
 40
0.0
 40
0.0691626634091132
 40
0.1370555475954384
 40
0.1961896615114991
 40
0.2467060463955527
 40
0.2891400129558315
 40
0.3241781070693569
 40
0.3524934682447678
 40
0.3746538791881966
 40
0.3998822328266586
 40
0.4278175046506654
 40
0.4585638436624474
 40
0.5079439346816974
 40
0.5573167782812488
 40
0.6075775133392132
 40
0.6591106079588971
 40
0.7122776218909167
 40
0.7673642838007934
 40
0.8241033768326926
 40
0.8783559932391883
 40
0.8951794285908745
 40
0.9113322226831737
 40
0.9279628091362968
 40
0.9491976052714404
 40
0.9758821182589067
 40
1.0
 40
1.0
 40
1.0
 40
1.0
 10
580.6394947734077
 20
984.2181276965441
 30
0.0
 10
580.6259633252372
 20
983.8254542914423
 30
0.0
 10
580.5991488570352
 20
983.0473166965372
 30
0.0
 10
580.5867491114342
 20
981.9326461976921
 30
0.0
 10
580.6179081174727
 20
980.9241143707629
 30
0.0
 10
580.6922588586482
 20
980.0628164982022
 30
0.0
 10
580.8007242848762
 20
979.3433185062231
 30
0.0
 10
580.9301241096126
 20
978.7559770501566
 30
0.0
 10
581.0658963023075
 20
978.2891996777887
 30
0.0
 10
581.210900184783
 20
977.8841614271075
 30
0.0
 10
581.3802565770968
 20
977.4911232531497
 30
0.0
 10
581.6028133975254
 20
977.069205427902
 30
0.0
 10
581.9398333632552
 20
976.5554265763343
 30
0.0
 10
582.4280511176066
 20
976.0001467779636
 30
0.0
 10
583.0946433390767
 20
975.471744501937
 30
0.0
 10
583.8495521179036
 20
975.055148753936
 30
0.0
 10
584.674858238071
 20
974.7420784720846
 30
0.0
 10
585.5555899570626
 20
974.5187008991171
 30
0.0
 10
586.480791235428
 20
974.3699584181054
 30
0.0
 10
587.4174699306114
 20
974.283051074441
 30
0.0
 10
588.1426971848999
 20
974.2495103334722
 30
0.0
 10
588.638178496909
 20
974.2362846269125
 30
0.0
 10
588.9195276008352
 20
974.2309343284725
 30
0.0
 10
589.2263580144116
 20
974.2270723766093
 30
0.0
 10
589.5715047765154
 20
974.2247191927289
 30
0.0
 10
589.9383974110464
 20
974.2239141154174
 30
0.0
 10
590.1832947694179
 20
974.2239447073675
 30
0.0
 10
590.2995571141256
 20
974.2239592305615
 30
0.0
  0
SPLINE
  5
119
330
1F
100
AcDbEntity
  8
0
  6
Continuous
 62
     7
370
    15
100
AcDbSpline
210
0.0
220
0.0
230
1.0
 70
     8
 71
     3
 72
    83
 73
    79
 74
     0
 42
0.000000001
 43
0.00000001
 40
0.0
 40
0.0
 40
0.0
 40
0.0
 40
0.0038086401201626
 40
0.0246560199689646
 40
0.0449345506984508
 40
0.0646458443608589
 40
0.0837912134255263
 40
0.1023717278029972
 40
0.1193739249618492
 40
0.1358753579719968
 40
0.1518765257433171
 40
0.1673778414706311
 40
0.182379646463317
 40
0.1968822208577347
 40
0.210885791809146
 40
0.224390539686576
 40
0.2373966027256945
 40
0.2499040517393085
 40
0.2617026864682341
 40
0.2730200411695028
 40
0.2838559453637591
 40
0.2942102437812493
 40
0.3026179263455521
 40
0.3106791949605713
 40
0.3185222933112091
 40
0.3262471407773862
 40
0.3338537031560096
 40
0.341341947910079
 40
0.3528700660487473
 40
0.3641058251497047
 40
0.3750491241718603
 40
0.3892470364964366
 40
0.4029200144841102
 40
0.4160678976051075
 40
0.4286905538652718
 40
0.4336527691811123
 40
0.4385288283227013
 40
0.443318726078521
 40
0.4480224578403507
 40
0.4526400195776926
 40
0.457172567270724
 40
0.4618628073715667
 40
0.4668939746054335
 40
0.4737025468121286
 40
0.4810498771173143
 40
0.4889359453805892
 40
0.4973607313465611
 40
0.5063242149198512
 40
0.5158263764553013
 40
0.52586719706266
 40
0.5364466589254298
 40
0.5475647456336583
 40
0.5592214425305816
 40
0.5711942409851156
 40
0.583686563645073
 40
0.5966984036319153
 40
0.6102297571077597
 40
0.6232176341786746
 40
0.636650618088972
 40
0.6505287145095539
 40
0.6648519324958525
 40
0.6796202847952545
 40
0.6948337881687602
 40
0.71049246372847
 40
0.7282312116828488
 40
0.7465086908227069
 40
0.7653249507213604
 40
0.7846800497181049
 40
0.8045740556528787
 40
0.8250070436259047
 40
0.8459790421871197
 40
0.8674900301413521
 40
0.88953997827774
 40
0.9121288504562493
 40
0.9348388823559541
 40
0.9580686723784979
 40
0.9818181643426065
 40
1.0
 40
1.0
 40
1.0
 40
1.0
 10
590.2677140879204
 20
1285.436730611608
 30
0.0
 10
590.2522031537917
 20
1285.054434569268
 30
0.0
 10
590.1517899119139
 20
1282.579562027725
 30
0.0
 10
589.9959464788958
 20
1278.0681555
 30
0.0
 10
589.7995030010268
 20
1271.959699466923
 30
0.0
 10
589.6299545612628
 20
1266.021471039895
 30
0.0
 10
589.479490501033
 20
1260.253375522755
 30
0.0
 10
589.3471580409962
 20
1254.757062587873
 30
0.0
 10
589.2284786795905
 20
1249.526111090063
 30
0.0
 10
589.1201930997963
 20
1244.554110372258
 30
0.0
 10
589.017578482354
 20
1239.732799215399
 30
0.0
 10
588.9187299057423
 20
1235.062092537585
 30
0.0
 10
588.8220618524431
 20
1230.541919917162
 30
0.0
 10
588.7262870271386
 20
1226.172224234553
 30
0.0
 10
588.6303941797008
 20
1221.952960500771
 30
0.0
 10
588.5336131647041
 20
1217.884095107572
 30
0.0
 10
588.4354339576299
 20
1213.965606454738
 30
0.0
 10
588.3359981682478
 20
1210.218600768894
 30
0.0
 10
588.2362235050724
 20
1206.641312636934
 30
0.0
 10
588.1370706031247
 20
1203.231996037766
 30
0.0
 10
588.0386603945921
 20
1199.967817122897
 30
0.0
 10
587.9462490390166
 20
1196.995893029125
 30
0.0
 10
587.8604106792279
 20
1194.302636104293
 30
0.0
 10
587.7810521974039
 20
1191.861572765338
 30
0.0
 10
587.7025575308791
 20
1189.489114620292
 30
0.0
 10
587.6243522576591
 20
1187.162351357911
 30
0.0
 10
587.546245652557
 20
1184.871253261332
 30
0.0
 10
587.45395557215
 20
1182.198346011947
 30
0.0
 10
587.3475517652554
 20
1179.161125324313
 30
0.0
 10
587.2272300918172
 20
1175.77709013107
 30
0.0
 10
587.0958074354464
 20
1172.125076927617
 30
0.0
 10
586.9540160763758
 20
1168.228439237668
 30
0.0
 10
586.8028506260615
 20
1164.110527073466
 30
0.0
 10
586.6567237974084
 20
1160.150784550203
 30
0.0
 10
586.5426216628819
 20
1157.065526320588
 30
0.0
 10
586.4592646574689
 20
1154.810674425759
 30
0.0
 10
586.4050115082576
 20
1153.34215153871
 30
0.0
 10
586.3517720488995
 20
1151.899575795725
 30
0.0
 10
586.2995635843779
 20
1150.482947953391
 30
0.0
 10
586.2483970113229
 20
1149.092152276413
 30
0.0
 10
586.1973866721322
 20
1147.702707124814
 30
0.0
 10
586.1449812279927
 20
1146.271735003585
 30
0.0
 10
586.0843892824287
 20
1144.612263339257
 30
0.0
 10
586.01435178873
 20
1142.686031320142
 30
0.0
 10
585.9342887737737
 20
1140.473175176699
 30
0.0
 10
585.8487981871817
 20
1138.098046748695
 30
0.0
 10
585.7579581358227
 20
1135.560649391829
 30
0.0
 10
585.6618462588052
 20
1132.860986455442
 30
0.0
 10
585.5605388812844
 20
1129.999061225277
 30
0.0
 10
585.454109757533
 20
1126.974876874859
 30
0.0
 10
585.3426288436093
 20
1123.78843641028
 30
0.0
 10
585.2261609695958
 20
1120.439742612964
 30
0.0
 10
585.1055368313465
 20
1116.951136260224
 30
0.0
 10
584.9808569403124
 20
1113.324533986998
 30
0.0
 10
584.8522123363728
 20
1109.561851972258
 30
0.0
 10
584.7189292894119
 20
1105.642666977198
 30
0.0
 10
584.584635554683
 20
1101.673704965889
 30
0.0
 10
584.4495270990881
 20
1097.662438862151
 30
0.0
 10
584.3137956074867
 20
1093.616340742174
 30
0.0
 10
584.1740767127677
 20
1089.436154569964
 30
0.0
 10
584.0303357264288
 20
1085.121878798071
 30
0.0
 10
583.8825232561873
 20
1080.673511237247
 30
0.0
 10
583.7305739229174
 20
1076.091048999844
 30
0.0
 10
583.5689699802657
 20
1071.210341315168
 30
0.0
 10
583.3973141032938
 20
1066.021995272934
 30
0.0
 10
583.215146401072
 20
1060.516617164026
 30
0.0
 10
583.0273929848175
 20
1054.848958761722
 30
0.0
 10
582.8338219990211
 20
1049.019010099771
 30
0.0
 10
582.6341788866583
 20
1043.026759446926
 30
0.0
 10
582.4281159912113
 20
1036.872201269554
 30
0.0
 10
582.2155282967686
 20
1030.555330987865
 30
0.0
 10
581.996544817895
 20
1024.076146619187
 30
0.0
 10
581.7712698395643
 20
1017.434653449448
 30
0.0
 10
581.5412755219818
 20
1010.672796924871
 30
0.0
 10
581.306801409202
 20
1003.792499066645
 30
0.0
 10
581.0681264808322
 20
996.7956825291939
 30
0.0
 10
580.844897521453
 20
990.2534996335128
 30
0.0
 10
580.7014592458353
 20
986.0435828768815
 30
0.0
 10
580.6392630001595
 20
984.2181216062223
 30
0.0
  0
SPLINE
  5
11A
330
1F
100
AcDbEntity
  8
0
  6
Continuous
 62
     7
370
    15
100
AcDbSpline
210
0.0
220
0.0
230
1.0
 70
     8
 71
     3
 72
    38
 73
    34
 74
     0
 42
0.000000001
 43
0.00000001
 40
0.0
 40
0.0
 40
0.0
 40
0.0
 40
0.0475066537872636
 40
0.0969365987488183
 40
0.1423432683087401
 40
0.1837015799795792
 40
0.2210487776785499
 40
0.2544527962439165
 40
0.2800030660087534
 40
0.3027511356086803
 40
0.3227305277165284
 40
0.339966957083137
 40
0.3544794763377765
 40
0.3669970056852183
 40
0.3810960421687371
 40
0.4001647424683213
 40
0.422060761556613
 40
0.4467949975505438
 40
0.4743854540393071
 40
0.5048585770584438
 40
0.5382497901073217
 40
0.5562029253649956
 40
0.5770526536788413
 40
0.6015690510603551
 40
0.6298706651629564
 40
0.6620468461200553
 40
0.6981700539535449
 40
0.7383006710909296
 40
0.7824866430625433
 40
0.8307587349681276
 40
0.8831225461190716
 40
0.9395520353802326
 40
1.0
 40
1.0
 40
1.0
 40
1.0
 10
891.9907226644036
 20
1645.287347974499
 30
0.0
 10
892.5198517692737
 20
1645.329115734552
 30
0.0
 10
893.5995315959103
 20
1645.414342208618
 30
0.0
 10
895.1828619297819
 20
1645.565593564286
 30
0.0
 10
896.6904427144873
 20
1645.775947479988
 30
0.0
 10
898.0516480231604
 20
1646.04362523613
 30
0.0
 10
899.2638131519158
 20
1646.361303828255
 30
0.0
 10
900.285474383782
 20
1646.699856948645
 30
0.0
 10
901.1338227804264
 20
1647.036654372533
 30
0.0
 10
901.8276568767769
 20
1647.353110371586
 30
0.0
 10
902.4233983731351
 20
1647.658600395744
 30
0.0
 10
902.9258145411444
 20
1647.942860099944
 30
0.0
 10
903.3465183998593
 20
1648.201116378839
 30
0.0
 10
903.7293028889464
 20
1648.452611805469
 30
0.0
 10
904.1450415667246
 20
1648.744288425943
 30
0.0
 10
904.6316737523408
 20
1649.114277088595
 30
0.0
 10
905.1899373886047
 20
1649.582268049164
 30
0.0
 10
905.7903495283593
 20
1650.143943195993
 30
0.0
 10
906.4201317929341
 20
1650.809675318072
 30
0.0
 10
907.0643372589153
 20
1651.589963620484
 30
0.0
 10
907.5872869958304
 20
1652.327292017901
 30
0.0
 10
908.0109869922786
 20
1653.004790313176
 30
0.0
 10
908.3503403566973
 20
1653.603357095625
 30
0.0
 10
908.7037141640046
 20
1654.303358142305
 30
0.0
 10
909.0609737521971
 20
1655.117140271614
 30
0.0
 10
909.4066818692925
 20
1656.049647135664
 30
0.0
 10
909.7243850247147
 20
1657.104556170719
 30
0.0
 10
909.9974040638201
 20
1658.283511234534
 30
0.0
 10
910.2103307285754
 20
1659.58585337187
 30
0.0
 10
910.3511617725342
 20
1661.008572995765
 30
0.0
 10
910.4143516712147
 20
1662.54646105941
 30
0.0
 10
910.4051431994241
 20
1664.194541079814
 30
0.0
 10
910.3663589233337
 20
1665.323214527671
 30
0.0
 10
910.3463000456709
 20
1665.906954251441
 30
0.0
  0
SPLINE
  5
11B
330
1F
100
AcDbEntity
  8
0
  6
Continuous
 62
     7
370
    15
100
AcDbSpline
210
0.0
220
0.0
230
1.0
 70
     8
 71
     3
 72
    34
 73
    30
 74
     0
 42
0.000000001
 43
0.00000001
 40
0.0
 40
0.0
 40
0.0
 40
0.0
 40
0.0534501575377711
 40
0.103589700589725
 40
0.1503257934119827
 40
0.193632228847686
 40
0.233539927008931
 40
0.2701126712265668
 40
0.298865441084044
 40
0.3252713300607615
 40
0.3493745526295651
 40
0.3712151443428385
 40
0.3908298267502707
 40
0.4085345224712998
 40
0.4279121514541624
 40
0.4540315977142875
 40
0.4839743728592495
 40
0.5177818393163011
 40
0.5457050107344935
 40
0.5758543752318706
 40
0.6082594238854179
 40
0.6429543645289794
 40
0.6854567838391543
 40
0.7310594145403779
 40
0.7798174903596943
 40
0.8317691621906858
 40
0.8869182079729375
 40
0.9452184382171311
 40
1.0
 40
1.0
 40
1.0
 40
1.0
 10
931.68871161381
 20
1037.000726762435
 30
0.0
 10
931.6682213945276
 20
1037.60583190331
 30
0.0
 10
931.6285100863056
 20
1038.778562971955
 30
0.0
 10
931.5187869616492
 20
1040.476221421728
 30
0.0
 10
931.3380881146127
 20
1042.050782733836
 30
0.0
 10
931.081565441269
 20
1043.495339408304
 30
0.0
 10
930.7561963319687
 20
1044.805416008436
 30
0.0
 10
930.3915506687524
 20
1045.930824270171
 30
0.0
 10
930.0122307164447
 20
1046.886191558944
 30
0.0
 10
929.6390690235164
 20
1047.688870886352
 30
0.0
 10
929.2609101386759
 20
1048.398937313668
 30
0.0
 10
928.8883672428041
 20
1049.020758629732
 30
0.0
 10
928.5294174647643
 20
1049.561722173304
 30
0.0
 10
928.167881129226
 20
1050.060143545474
 30
0.0
 10
927.7499946555446
 20
1050.588972479347
 30
0.0
 10
927.2281939372084
 20
1051.185248560913
 30
0.0
 10
926.5733578660643
 20
1051.847041532911
 30
0.0
 10
925.868433034028
 20
1052.467631565905
 30
0.0
 10
925.1289916273032
 20
1053.037260371878
 30
0.0
 10
924.3726919296253
 20
1053.550062580862
 30
0.0
 10
923.5305727784886
 20
1054.045882716419
 30
0.0
 10
922.5507008776719
 20
1054.538619689908
 30
0.0
 10
921.4193363116185
 20
1055.007500714851
 30
0.0
 10
920.125429614664
 20
1055.428845665853
 30
0.0
 10
918.7151587421381
 20
1055.771625989108
 30
0.0
 10
917.1934503255294
 20
1056.027797432003
 30
0.0
 10
915.5675947075373
 20
1056.196995599315
 30
0.0
 10
913.9103086557219
 20
1056.287995156177
 30
0.0
 10
912.7983863922045
 20
1056.318287822777
 30
0.0
 10
912.2597246228364
 20
1056.332962860704
 30
0.0
  0
SPLINE
  5
11C
330
1F
100
AcDbEntity
  8
0
  6
Continuous
 62
     7
370
    15
100
AcDbSpline
210
0.0
220
0.0
230
1.0
 70
     8
 71
     3
 72
    32
 73
    28
 74
     0
 42
0.000000001
 43
0.00000001
 40
0.0
 40
0.0
 40
0.0
 40
0.0
 40
0.0579488463853035
 40
0.1122255039324832
 40
0.162719106692151
 40
0.2093957681151147
 40
0.2522862775386381
 40
0.2914582843545684
 40
0.3269922767216632
 40
0.3589659002472037
 40
0.3874458064861696
 40
0.4124848518999104
 40
0.4341973140245538
 40
0.456832483492524
 40
0.4828379808364115
 40
0.5122257398169568
 40
0.5450230396800688
 40
0.5812769153683508
 40
0.6210574671709602
 40
0.6644586422228846
 40
0.7046308266822504
 40
0.7476234633551544
 40
0.7935064648768754
 40
0.8423261637523939
 40
0.8940836815955181
 40
0.9487154106793911
 40
1.0
 40
1.0
 40
1.0
 40
1.0
 10
609.552482549481
 20
1304.647821837559
 30
0.0
 10
608.9516795874415
 20
1304.626739199731
 30
0.0
 10
607.7881462406222
 20
1304.58590992008
 30
0.0
 10
606.1027952813238
 20
1304.47580714255
 30
0.0
 10
604.5404330646809
 20
1304.296584540421
 30
0.0
 10
603.1076810873398
 20
1304.043400136463
 30
0.0
 10
601.8088133527714
 20
1303.722966282198
 30
0.0
 10
600.6450740863401
 20
1303.348696775433
 30
0.0
 10
599.6147647714761
 20
1302.93737479652
 30
0.0
 10
598.7137038326207
 20
1302.506838680038
 30
0.0
 10
597.9358481220014
 20
1302.074472747747
 30
0.0
 10
597.2733474503266
 20
1301.655905936699
 30
0.0
 10
596.6818425028166
 20
1301.239371283932
 30
0.0
 10
596.1025775925108
 20
1300.788240994101
 30
0.0
 10
595.4873543378789
 20
1300.254059200312
 30
0.0
 10
594.8298397260882
 20
1299.608653313582
 30
0.0
 10
594.1467562197297
 20
1298.839302848208
 30
0.0
 10
593.4577283267579
 20
1297.933766782285
 30
0.0
 10
592.7850729162577
 20
1296.881233633568
 30
0.0
 10
592.1868649417265
 20
1295.737798437134
 30
0.0
 10
591.672222446732
 20
1294.518227716051
 30
0.0
 10
591.2448165270175
 20
1293.237865272283
 30
0.0
 10
590.892852813104
 20
1291.841291113697
 30
0.0
 10
590.6241013610537
 20
1290.333257080309
 30
0.0
 10
590.4389815484163
 20
1288.720840387199
 30
0.0
 10
590.3297878775359
 20
1287.076036585253
 30
0.0
 10
590.2870111054189
 20
1285.969761907229
 30
0.0
 10
590.2662986295367
 20
1285.434104669583
 30
0.0
  0
SPLINE
  5
11D
330
1F
100
AcDbEntity
  8
0
  6
Continuous
 62
     7
370
    15
100
AcDbSpline
210
0.0
220
0.0
230
1.0
 70
     8
 71
     3
 72
   135
 73
   131
 74
     0
 42
0.000000001
 43
0.00000001
 40
0.0
 40
0.0
 40
0.0
 40
0.0
 40
0.0026387490263778
 40
0.0069703795314333
 40
0.0111537900343571
 40
0.0151287917936738
 40
0.0181465433876791
 40
0.0212683613227668
 40
0.0244103058405506
 40
0.0274604469640881
 40
0.0303479172864717
 40
0.0344551015584037
 40
0.0384763470464995
 40
0.0424196624768966
 40
0.0462508727830951
 40
0.0499398776918125
 40
0.0535239421305571
 40
0.0564780278882049
 40
0.0592733961108234
 40
0.0619174446431838
 40
0.0644724442525725
 40
0.0664802560407889
 40
0.0684143453408608
 40
0.0701895380449075
 40
0.0719038038398289
 40
0.0736006553176494
 40
0.0756234685165044
 40
0.0776110156278098
 40
0.0795700473094407
 40
0.0814939128922394
 40
0.0840111646699444
 40
0.0864821222733053
 40
0.0889052391379377
 40
0.0914026871546502
 40
0.0938516574777336
 40
0.096197750899851
 40
0.0983985938506945
 40
0.1004185330171513
 40
0.1022332844229712
 40
0.1040172598237272
 40
0.1058540520131042
 40
0.1077298429730951
 40
0.1122886537427052
 40
0.1169086167724376
 40
0.1216501089621348
 40
0.1267901299112904
 40
0.1321552133086995
 40
0.1377612112218506
 40
0.1432360215689613
 40
0.1487527251863602
 40
0.1571608556089594
 40
0.1657903286508249
 40
0.1746144240800218
 40
0.1836066067109697
 40
0.1927234232084467
 40
0.2019931067919202
 40
0.2188220511216789
 40
0.2358467883534031
 40
0.2530471162402576
 40
0.270397884516262
 40
0.2878749424646053
 40
0.3054521237435319
 40
0.3267436898521384
 40
0.3482650879505006
 40
0.3700172278161313
 40
0.3919956749606422
 40
0.4141925180568188
 40
0.4435090294520841
 40
0.4729273712504098
 40
0.5024282369358267
 40
0.5391009795467677
 40
0.5758978752505056
 40
0.6128497708496673
 40
0.6499880160266205
 40
0.6646348747790732
 40
0.6793159332425384
 40
0.6940321025463061
 40
0.7087832295014004
 40
0.7235079417600809
 40
0.7380900705247677
 40
0.7524860339834174
 40
0.7666874558304121
 40
0.7809657884016294
 40
0.7950694911898136
 40
0.8090053340602699
 40
0.8227818072885137
 40
0.8364188199075816
 40
0.8453054722729034
 40
0.8542107942661484
 40
0.863079045063278
 40
0.8718697173041007
 40
0.8805464385230701
 40
0.8890613955102055
 40
0.8943588785672765
 40
0.8995613297662025
 40
0.904848975950755
 40
0.9101334055039904
 40
0.9153266491646939
 40
0.9205618395854329
 40
0.9237336642290522
 40
0.9269257379109664
 40
0.930106713897435
 40
0.9331229869610261
 40
0.9360071556718766
 40
0.9389016464643432
 40
0.9419788433789555
 40
0.9450778175439899
 40
0.9473178015844008
 40
0.949523328296811
 40
0.9517496424499408
 40
0.9531231709057287
 40
0.954474332108033
 40
0.9556968927633104
 40
0.9568623367391813
 40
0.9580469675364814
 40
0.9596451206116159
 40
0.9613600936844562
 40
0.9631413946541209
 40
0.9649380310466581
 40
0.9673242327717693
 40
0.9697376684099642
 40
0.9722253566359242
 40
0.9751593583067169
 40
0.9781896501003743
 40
0.9811206995638213
 40
0.9840654573370833
 40
0.9871553092132028
 40
0.990443907970239
 40
0.9955945411355981
 40
1.0
 40
1.0
 40
1.0
 40
1.0
 10
912.2597209504559
 20
1056.333492088434
 30
0.0
 10
911.6864951959004
 20
1056.349327095303
 30
0.0
 10
910.1722924329619
 20
1056.391156009935
 30
0.0
 10
907.7492585715895
 20
1056.456161812047
 30
0.0
 10
905.0359616649732
 20
1056.52980863613
 30
0.0
 10
902.6081296142082
 20
1056.597192081588
 30
0.0
 10
900.4109921133723
 20
1056.661249590436
 30
0.0
 10
898.3951703517453
 20
1056.731354772847
 30
0.0
 10
896.3727260803687
 20
1056.812676901303
 30
0.0
 10
894.4017459026915
 20
1056.905426865239
 30
0.0
 10
892.2221942394199
 20
1057.026813081739
 30
0.0
 10
889.8335981985055
 20
1057.188060212106
 30
0.0
 10
887.2194248516959
 20
1057.4099601656
 30
0.0
 10
884.6705902964918
 20
1057.685290771424
 30
0.0
 10
882.2008604804149
 20
1058.014100418572
 30
0.0
 10
879.8195227237447
 20
1058.407867645026
 30
0.0
 10
877.6426882102577
 20
1058.859815578913
 30
0.0
 10
875.6748849866484
 20
1059.353597927733
 30
0.0
 10
873.9247342710014
 20
1059.869869870474
 30
0.0
 10
872.2858561813625
 20
1060.449252191579
 30
0.0
 10
870.8436490033916
 20
1061.063032680742
 30
0.0
 10
869.5804717166395
 20
1061.6951412019
 30
0.0
 10
868.4999950012713
 20
1062.310056675538
 30
0.0
 10
867.5182126125447
 20
1062.964259005933
 30
0.0
 10
866.6307267173951
 20
1063.660594041417
 30
0.0
 10
865.7534482936654
 20
1064.452636546131
 30
0.0
 10
864.9080642567122
 20
1065.362792329029
 30
0.0
 10
864.1113580774982
 20
1066.388349957073
 30
0.0
 10
863.4074049562929
 20
1067.453680814589
 30
0.0
 10
862.7234723033971
 20
1068.665875207336
 30
0.0
 10
862.0805870988079
 20
1070.025208230181
 30
0.0
 10
861.4961440016541
 20
1071.527061247594
 30
0.0
 10
860.9939295626713
 20
1073.053622523624
 30
0.0
 10
860.5774405156774
 20
1074.600769332118
 30
0.0
 10
860.2310908618737
 20
1076.147608373636
 30
0.0
 10
859.94938170033
 20
1077.64185724086
 30
0.0
 10
859.7242865560642
 20
1079.051240721199
 30
0.0
 10
859.5480623694518
 20
1080.351086313053
 30
0.0
 10
859.409892693872
 20
1081.564347374396
 30
0.0
 10
859.2958420061243
 20
1082.740101620252
 30
0.0
 10
859.1970518622879
 20
1083.930541744574
 30
0.0
 10
859.0714018607707
 20
1085.723695988361
 30
0.0
 10
858.949909884626
 20
1088.123259998431
 30
0.0
 10
858.8655513114574
 20
1091.147354491876
 30
0.0
 10
858.823834269706
 20
1094.29857102164
 30
0.0
 10
858.8142635342583
 20
1097.611927435793
 30
0.0
 10
858.8147386811148
 20
1101.113139497991
 30
0.0
 10
858.8147829765691
 20
1104.687112062853
 30
0.0
 10
858.8150143271457
 20
1108.294032860799
 30
0.0
 10
858.815043835766
 20
1112.509905015717
 30
0.0
 10
858.8151581295882
 20
1117.411338805834
 30
0.0
 10
858.8152629669711
 20
1123.03152503251
 30
0.0
 10
858.8153580203019
 20
1128.778635705038
 30
0.0
 10
858.8154291182047
 20
1134.63165438662
 30
0.0
 10
858.8154314170595
 20
1140.581506935601
 30
0.0
 10
858.8154000579384
 20
1148.234420837301
 30
0.0
 10
858.8153764544011
 20
1157.605860160092
 30
0.0
 10
858.8153639279413
 20
1168.700763128596
 30
0.0
 10
858.8153653532972
 20
1179.90906730166
 30
0.0
 10
858.8153708094441
 20
1191.215668447917
 30
0.0
 10
858.8153778724266
 20
1202.604166236082
 30
0.0
 10
858.8153751222194
 20
1214.849066296535
 30
0.0
 10
858.8153729444682
 20
1227.972870132854
 30
0.0
 10
858.8153705710126
 20
1242.003963348739
 30
0.0
 10
858.8153692580291
 20
1256.184327476103
 30
0.0
 10
858.8153688332021
 20
1270.511477269284
 30
0.0
 10
858.8153689096262
 20
1286.482493414641
 30
0.0
 10
858.8153692768948
 20
1304.070324973389
 30
0.0
 10
858.8153698103969
 20
1323.245444639115
 30
0.0
 10
858.8153702721753
 20
1344.019198232713
 30
0.0
 10
858.81537020226
 20
1366.396436853617
 30
0.0
 10
858.8153696216567
 20
1390.392910768848
 30
0.0
 10
858.8153690800042
 20
1414.49054629438
 30
0.0
 10
858.8153690909775
 20
1433.774602755365
 30
0.0
 10
858.8153694059434
 20
1448.218828220938
 30
0.0
 10
858.8153697324816
 20
1457.790355945906
 30
0.0
 10
858.8153701663317
 20
1467.38454292144
 30
0.0
 10
858.8153706796162
 20
1476.988216607773
 30
0.0
 10
858.8153711186607
 20
1486.562761009393
 30
0.0
 10
858.8153718126213
 20
1496.060122353725
 30
0.0
 10
858.8153708991761
 20
1505.443763807841
 30
0.0
 10
858.815369154986
 20
1514.761385191653
 30
0.0
 10
858.8153680606546
 20
1524.015493370144
 30
0.0
 10
858.8153679528514
 20
1533.21188672837
 30
0.0
 10
858.8153705595674
 20
1542.299217531454
 30
0.0
 10
858.8153769800999
 20
1551.285128637871
 30
0.0
 10
858.8153856215147
 20
1559.173764928966
 30
0.0
 10
858.815387698965
 20
1566.003817360106
 30
0.0
 10
858.8153688199167
 20
1571.797536890673
 30
0.0
 10
858.8153579638131
 20
1577.570398305997
 30
0.0
 10
858.8153573755885
 20
1583.293580909823
 30
0.0
 10
858.8153896290848
 20
1588.939986706394
 30
0.0
 10
858.815552857792
 20
1593.827263401975
 30
0.0
 10
858.8153281058355
 20
1597.959521691742
 30
0.0
 10
858.815543068644
 20
1601.390432199547
 30
0.0
 10
858.8150699303814
 20
1604.818499937584
 30
0.0
 10
858.8285503495072
 20
1608.244585831406
 30
0.0
 10
858.8835705213224
 20
1611.658920333696
 30
0.0
 10
858.9857540187586
 20
1614.613028870621
 30
0.0
 10
859.1295036690643
 20
1617.129719471988
 30
0.0
 10
859.2896225414124
 20
1619.198049930141
 30
0.0
 10
859.5091538795494
 20
1621.226920770315
 30
0.0
 10
859.7659357651078
 20
1623.183897537249
 30
0.0
 10
860.078143873724
 20
1625.070037721983
 30
0.0
 10
860.4814255065912
 20
1626.952717292329
 30
0.0
 10
860.9944326108632
 20
1628.856742980635
 30
0.0
 10
861.5559575535975
 20
1630.598686830902
 30
0.0
 10
862.1634612965324
 20
1632.122736308905
 30
0.0
 10
862.7921901581169
 20
1633.430616472849
 30
0.0
 10
863.4244891675153
 20
1634.523926261729
 30
0.0
 10
864.0203210238278
 20
1635.420184770145
 30
0.0
 10
864.525380195363
 20
1636.113929478523
 30
0.0
 10
865.0380956110154
 20
1636.744970246611
 30
0.0
 10
865.565380578841
 20
1637.315488080151
 30
0.0
 10
866.1803888841577
 20
1637.914181265247
 30
0.0
 10
866.9180936629267
 20
1638.556740308248
 30
0.0
 10
867.8082631512304
 20
1639.216705987056
 30
0.0
 10
868.7761510469496
 20
1639.839707910397
 30
0.0
 10
869.9096667759718
 20
1640.469620009625
 30
0.0
 10
871.2001179840405
 20
1641.095817469502
 30
0.0
 10
872.664178609608
 20
1641.701816456515
 30
0.0
 10
874.2712300940703
 20
1642.266708760101
 30
0.0
 10
876.0327280808867
 20
1642.78928645883
 30
0.0
 10
877.9052723939832
 20
1643.270730182607
 30
0.0
 10
879.7949122424075
 20
1643.691029043872
 30
0.0
 10
881.7105759061347
 20
1644.04848263819
 30
0.0
 10
883.7123160250134
 20
1644.362951175064
 30
0.0
 10
886.1946912143341
 20
1644.702799883891
 30
0.0
 10
888.9678433370093
 20
1645.025663838208
 30
0.0
 10
891.0371534263293
 20
1645.201689455257
 30
0.0
 10
891.9911271268545
 20
1645.282839114822
 30
0.0
  0
SPLINE
  5
11E
330
1F
100
AcDbEntity
  8
0
  6
Continuous
 62
     7
370
    15
100
AcDbSpline
210
0.0
220
0.0
230
1.0
 70
     8
 71
     3
 72
    40
 73
    36
 74
     0
 42
0.000000001
 43
0.00000001
 40
0.0
 40
0.0
 40
0.0
 40
0.0
 40
0.0446744328944955
 40
0.0930748227454227
 40
0.1390803760736568
 40
0.1826535655566104
 40
0.2237914241787862
 40
0.2625154560509844
 40
0.2988591296161902
 40
0.3328584036445403
 40
0.3645461718969277
 40
0.3939498176310727
 40
0.4210907247971787
 40
0.4459847904891229
 40
0.4760836572995426
 40
0.5036333722913172
 40
0.5286985099375061
 40
0.5538274735948323
 40
0.575849127950899
 40
0.5961259437389214
 40
0.6056027754018647
 40
0.6150272466026829
 40
0.6243996671238928
 40
0.6349138066121268
 40
0.6482791783854165
 40
0.6669539292305307
 40
0.6893543510243093
 40
0.7155035521458186
 40
0.7454319973142054
 40
0.7791770153597046
 40
0.8167793740673579
 40
0.8582748982452478
 40
0.903679874028493
 40
0.9529736853528554
 40
1.0
 40
1.0
 40
1.0
 40
1.0
 10
626.0171276171939
 20
1660.950820994083
 30
0.0
 10
626.000135849678
 20
1660.461831373711
 30
0.0
 10
625.9647351596816
 20
1659.443069202785
 30
0.0
 10
625.947323778477
 20
1657.919658720368
 30
0.0
 10
625.9945081902123
 20
1656.408627602141
 30
0.0
 10
626.1185638712058
 20
1654.981555140224
 30
0.0
 10
626.3207397876907
 20
1653.643934417264
 30
0.0
 10
626.5957591141962
 20
1652.40033394025
 30
0.0
 10
626.934061586987
 20
1651.253798550965
 30
0.0
 10
627.3236609266264
 20
1650.205625735493
 30
0.0
 10
627.7514697106351
 20
1649.255387488011
 30
0.0
 10
628.2042402650368
 20
1648.401109695477
 30
0.0
 10
628.6692147445902
 20
1647.63951748982
 30
0.0
 10
629.180832245464
 20
1646.899331174526
 30
0.0
 10
629.7391102499546
 20
1646.187686765625
 30
0.0
 10
630.3427095872933
 20
1645.511753909246
 30
0.0
 10
630.9459551364223
 20
1644.910608065078
 30
0.0
 10
631.5363633469843
 20
1644.384119450497
 30
0.0
 10
632.112201664648
 20
1643.921833706286
 30
0.0
 10
632.5702025593432
 20
1643.58765509817
 30
0.0
 10
632.9245817351618
 20
1643.346131230324
 30
0.0
 10
633.1838012529741
 20
1643.17706121353
 30
0.0
 10
633.4559825125534
 20
1643.007221040968
 30
0.0
 10
633.7687168332245
 20
1642.821120503096
 30
0.0
 10
634.1747352485149
 20
1642.59311592916
 30
0.0
 10
634.7035992826361
 20
1642.318881445362
 30
0.0
 10
635.3702701634638
 20
1642.0079176724
 30
0.0
 10
636.165177782852
 20
1641.682845784438
 30
0.0
 10
637.0936799198531
 20
1641.360104281914
 30
0.0
 10
638.159854016533
 20
1641.057198496819
 30
0.0
 10
639.3658428025956
 20
1640.79131652606
 30
0.0
 10
640.7113587451998
 20
1640.577047114342
 30
0.0
 10
642.1935805176785
 20
1640.423122063835
 30
0.0
 10
643.7412069180214
 20
1640.330753833754
 30
0.0
 10
644.7940272351299
 20
1640.294499177927
 30
0.0
 10
645.3080450377427
 20
1640.276798590068
 30
0.0
  0
SPLINE
  5
11F
330
1F
100
AcDbEntity
  8
0
  6
Continuous
 62
     7
370
    15
100
AcDbSpline
210
0.0
220
0.0
230
1.0
 70
     8
 71
     3
 72
    17
 73
    13
 74
     0
 42
0.000000001
 43
0.00000001
 40
0.0
 40
0.0
 40
0.0
 40
0.0
 40
0.0724595807210949
 40
0.1669816388455486
 40
0.263041311198184
 40
0.3608551078987811
 40
0.4606167590010871
 40
0.5623016391484869
 40
0.6866817878054665
 40
0.8134007026291904
 40
0.9421857765486441
 40
1.0
 40
1.0
 40
1.0
 40
1.0
 10
627.492193312223
 20
1704.052632059424
 30
0.0
 10
627.457283247301
 20
1703.024257423715
 30
0.0
 10
627.3768337084704
 20
1700.654388866528
 30
0.0
 10
627.2492778388564
 20
1696.903301471788
 30
0.0
 10
627.1087650468369
 20
1692.778429176817
 30
0.0
 10
626.9649222242916
 20
1688.565489322036
 30
0.0
 10
626.8175680376634
 20
1684.261317924149
 30
0.0
 10
626.6565508807114
 20
1679.567389668827
 30
0.0
 10
626.4817900335344
 20
1674.479552433076
 30
0.0
 10
626.2934556231335
 20
1668.998008697372
 30
0.0
 10
626.1381239096963
 20
1664.476222611716
 30
0.0
 10
626.0458373685224
 20
1661.783680883256
 30
0.0
 10
626.0172441487828
 20
1660.949448325392
 30
0.0
  0
SPLINE
  5
120
330
1F
100
AcDbEntity
  8
0
  6
Continuous
 62
     7
370
    15
100
AcDbSpline
210
0.0
220
0.0
230
1.0
 70
     8
 71
     3
 72
    37
 73
    33
 74
     0
 42
0.000000001
 43
0.00000001
 40
0.0
 40
0.0
 40
0.0
 40
0.0
 40
0.0492149114477788
 40
0.1016631745620665
 40
0.1511118340103789
 40
0.1975160578208854
 40
0.240882541035763
 40
0.2812513422803356
 40
0.3186771791006391
 40
0.3532162492433101
 40
0.3849188506688669
 40
0.4138262725453761
 40
0.4399703005332173
 40
0.4641455846710865
 40
0.496637286028388
 40
0.5296309288801226
 40
0.563152325901168
 40
0.5972293114274623
 40
0.6318913199314937
 40
0.6671685619463619
 40
0.702780330497999
 40
0.7373791261073176
 40
0.7708013202896834
 40
0.7925958699674767
 40
0.8138484454492715
 40
0.8345527869472535
 40
0.8547269087326002
 40
0.8768872358926397
 40
0.9022544084214497
 40
0.9312231505667138
 40
0.9638062293757845
 40
1.0
 40
1.0
 40
1.0
 40
1.0
 10
909.0521195352331
 20
1704.053403962056
 30
0.0
 10
909.0344748856534
 20
1704.580701012821
 30
0.0
 10
908.9980263574013
 20
1705.669937801855
 30
0.0
 10
908.9013402386223
 20
1707.287403993686
 30
0.0
 10
908.731886014286
 20
1708.869001923802
 30
0.0
 10
908.4834878270553
 20
1710.341782765368
 30
0.0
 10
908.158259475892
 20
1711.699747723847
 30
0.0
 10
907.7655916268628
 20
1712.93915020365
 30
0.0
 10
907.3191895842726
 20
1714.058839391425
 30
0.0
 10
906.8347674344204
 20
1715.060163462687
 30
0.0
 10
906.3284926597246
 20
1715.946630934216
 30
0.0
 10
905.8159605350173
 20
1716.723448514045
 30
0.0
 10
905.3065956161174
 20
1717.403652030433
 30
0.0
 10
904.7359874391557
 20
1718.084106964978
 30
0.0
 10
904.0730186586937
 20
1718.781234768235
 30
0.0
 10
903.2870859250198
 20
1719.495999068549
 30
0.0
 10
902.4373890362136
 20
1720.161720262975
 30
0.0
 10
901.525978633432
 20
1720.772876353566
 30
0.0
 10
900.5556082085609
 20
1721.324459285861
 30
0.0
 10
899.5327132809938
 20
1721.810740603344
 30
0.0
 10
898.4784844604397
 20
1722.222590777841
 30
0.0
 10
897.4180664656976
 20
1722.556772892191
 30
0.0
 10
896.4831855934455
 20
1722.789800355274
 30
0.0
 10
895.6793639815863
 20
1722.951530194839
 30
0.0
 10
895.0051407150751
 20
1723.063861661695
 30
0.0
 10
894.3451966210608
 20
1723.153330167981
 30
0.0
 10
893.6733365203509
 20
1723.225852968458
 30
0.0
 10
892.951035373922
 20
1723.285143053109
 30
0.0
 10
892.1360485796587
 20
1723.331344487506
 30
0.0
 10
891.2117339166223
 20
1723.361585379137
 30
0.0
 10
890.1746002120557
 20
1723.374700773456
 30
0.0
 10
889.4471121076277
 20
1723.374731050144
 30
0.0
 10
889.0642719833642
 20
1723.37474698323
 30
0.0
  0
SPLINE
  5
121
330
1F
100
AcDbEntity
  8
0
  6
Continuous
 62
     7
370
    15
100
AcDbSpline
210
0.0
220
0.0
230
1.0
 70
     8
 71
     3
 72
    33
 73
    29
 74
     0
 42
0.000000001
 43
0.00000001
 40
0.0
 40
0.0
 40
0.0
 40
0.0
 40
0.0371120640589769
 40
0.0719971695572993
 40
0.1049573061904481
 40
0.1370084403744097
 40
0.1683237195276651
 40
0.1988931559363378
 40
0.2434725374113898
 40
0.2875226081786952
 40
0.3312742537354437
 40
0.3747628592664865
 40
0.3964283386652157
 40
0.4182393172375847
 40
0.4421822698215846
 40
0.4687783391885474
 40
0.4980336727870424
 40
0.5299626393264116
 40
0.5645899149235536
 40
0.6019525117524329
 40
0.6421013224894185
 40
0.6851012108185974
 40
0.7310278418689491
 40
0.7799585468579671
 40
0.8319543320951983
 40
0.8870324766823692
 40
0.9451376995408177
 40
1.0
 40
1.0
 40
1.0
 40
1.0
 10
647.4806680964341
 20
1723.374746983232
 30
0.0
 10
647.0883784284878
 20
1723.374737070128
 30
0.0
 10
646.3273389537279
 20
1723.374717838768
 30
0.0
 10
645.2046067673612
 20
1723.35947817565
 30
0.0
 10
644.1345680092934
 20
1723.319970409296
 30
0.0
 10
643.104862804742
 20
1723.250296542537
 30
0.0
 10
642.1036781312216
 20
1723.14540567756
 30
0.0
 10
640.9749510102146
 20
1722.979197284379
 30
0.0
 10
639.7230597197183
 20
1722.721286079303
 30
0.0
 10
638.3583682868287
 20
1722.329706749563
 30
0.0
 10
637.041426680564
 20
1721.830880586326
 30
0.0
 10
635.9891528389613
 20
1721.322880135228
 30
0.0
 10
635.1795594481538
 20
1720.861212407896
 30
0.0
 10
634.5691622245225
 20
1720.474535190076
 30
0.0
 10
633.935428356946
 20
1720.027622355607
 30
0.0
 10
633.2647176201758
 20
1719.496780132542
 30
0.0
 10
632.5641300460109
 20
1718.868428138814
 30
0.0
 10
631.8474781581447
 20
1718.132345208185
 30
0.0
 10
631.1307553679885
 20
1717.278987291377
 30
0.0
 10
630.43197606905
 20
1716.300098197001
 30
0.0
 10
629.7707483977924
 20
1715.189370828071
 30
0.0
 10
629.1674583399948
 20
1713.943110672194
 30
0.0
 10
628.6419113971298
 20
1712.560827899175
 30
0.0
 10
628.2112688290628
 20
1711.045639667013
 30
0.0
 10
627.8869845932228
 20
1709.404307074161
 30
0.0
 10
627.6708815793257
 20
1707.646620593941
 30
0.0
 10
627.5530229949875
 20
1705.84949050359
 30
0.0
 10
627.5126309142864
 20
1704.639866167883
 30
0.0
 10
627.4930146351778
 20
1704.052416148626
 30
0.0
  0
SPLINE
  5
122
330
1F
100
AcDbEntity
  8
0
  6
Continuous
 62
     7
370
    15
100
AcDbSpline
210
0.0
220
0.0
230
1.0
 70
     8
 71
     3
 72
    76
 73
    72
 74
     0
 42
0.000000001
 43
0.00000001
 40
0.0
 40
0.0
 40
0.0
 40
0.0
 40
0.0144024872110428
 40
0.0282267515516776
 40
0.0414707200795208
 40
0.0541342811433614
 40
0.0662191385499343
 40
0.077726282130592
 40
0.0886567197117017
 40
0.0990114124063773
 40
0.1087845163959906
 40
0.1179752017230805
 40
0.1265883965208179
 40
0.1346263462783398
 40
0.1420857582431361
 40
0.1489673353751783
 40
0.1552668438853265
 40
0.1609857959674764
 40
0.1661299012839848
 40
0.1706985793451634
 40
0.1746876460585918
 40
0.1782346145689031
 40
0.1816902276730785
 40
0.1875613111666343
 40
0.1932149247378122
 40
0.1986494211875905
 40
0.2038584950406857
 40
0.2095375686462736
 40
0.214927815259693
 40
0.2200279895086172
 40
0.2248811719876312
 40
0.2302646274550656
 40
0.2364675200070876
 40
0.2434904851684846
 40
0.2503087431105553
 40
0.2577534486811019
 40
0.2658257004753106
 40
0.2745274997411761
 40
0.283859057865549
 40
0.2938176276186112
 40
0.3044018889916785
 40
0.3156146738205928
 40
0.3289690877048703
 40
0.3431160961299901
 40
0.3580548745768315
 40
0.3737868670785928
 40
0.3903126054612199
 40
0.4073156886516778
 40
0.4250840235543026
 40
0.443617520218968
 40
0.462916177188885
 40
0.4833974264676915
 40
0.504675384434676
 40
0.5267500507414343
 40
0.5496214252956823
 40
0.5732895082909089
 40
0.5977543002371318
 40
0.6230158019927092
 40
0.6490740147972422
 40
0.6759289403055599
 40
0.703580580622798
 40
0.7320289383405517
 40
0.7612740165741484
 40
0.7913158185183389
 40
0.822154345100803
 40
0.8511228949670034
 40
0.8807609148816218
 40
0.9110684048235927
 40
0.9420453647437468
 40
0.9736917945629695
 40
1.0
 40
1.0
 40
1.0
 40
1.0
 10
778.5995308751205
 20
1351.939066798397
 30
0.0
 10
778.5996507253041
 20
1350.976917553384
 30
0.0
 10
778.5998856139942
 20
1349.091246884375
 30
0.0
 10
778.5877128435333
 20
1346.320828259005
 30
0.0
 10
778.5518585028562
 20
1343.666758534507
 30
0.0
 10
778.4845436886758
 20
1341.129504069556
 30
0.0
 10
778.3811928926151
 20
1338.709553911399
 30
0.0
 10
778.2371488102203
 20
1336.407618148055
 30
0.0
 10
778.0472622763173
 20
1334.22495280998
 30
0.0
 10
777.8102683186197
 20
1332.163388627033
 30
0.0
 10
777.522122420578
 20
1330.225678993718
 30
0.0
 10
777.1827270224904
 20
1328.414464391725
 30
0.0
 10
776.7958308498756
 20
1326.731513431451
 30
0.0
 10
776.3665374542738
 20
1325.178483706311
 30
0.0
 10
775.8976492081068
 20
1323.758223839573
 30
0.0
 10
775.3971095217139
 20
1322.472677934498
 30
0.0
 10
774.8735332251176
 20
1321.322988240702
 30
0.0
 10
774.3384369060344
 20
1320.308241732722
 30
0.0
 10
773.8050920540365
 20
1319.425359256437
 30
0.0
 10
773.2886224357428
 20
1318.669101753276
 30
0.0
 10
772.7985492419033
 20
1318.025466068024
 30
0.0
 10
772.326154160174
 20
1317.46296082345
 30
0.0
 10
771.7431118645279
 20
1316.830380463087
 30
0.0
 10
771.0173991141197
 20
1316.139474706223
 30
0.0
 10
770.1356928769716
 20
1315.426341711262
 30
0.0
 10
769.2426558301388
 20
1314.802208134813
 30
0.0
 10
768.3109161123645
 20
1314.234558953485
 30
0.0
 10
767.3506387214553
 20
1313.722974946173
 30
0.0
 10
766.3726675312859
 20
1313.263459977936
 30
0.0
 10
765.4277910828807
 20
1312.8655032337
 30
0.0
 10
764.4698540632777
 20
1312.501535994257
 30
0.0
 10
763.4305654531736
 20
1312.145946175046
 30
0.0
 10
762.2410737636803
 20
1311.783691140377
 30
0.0
 10
760.9470948759332
 20
1311.438202117046
 30
0.0
 10
759.562143907356
 20
1311.114924099519
 30
0.0
 10
758.1001013616125
 20
1310.816057643845
 30
0.0
 10
756.5065677150853
 20
1310.535105037611
 30
0.0
 10
754.7815973722462
 20
1310.277123963741
 30
0.0
 10
752.9258585323544
 20
1310.04543526699
 30
0.0
 10
750.9405326376349
 20
1309.840531967598
 30
0.0
 10
748.8264235209455
 20
1309.663135840833
 30
0.0
 10
746.4830195888895
 20
1309.51012373762
 30
0.0
 10
743.8997828925732
 20
1309.383483653618
 30
0.0
 10
741.0672013570714
 20
1309.261903018484
 30
0.0
 10
738.0754761982392
 20
1309.144439975028
 30
0.0
 10
734.924708037963
 20
1309.027614467439
 30
0.0
 10
731.6359797372138
 20
1308.909790747545
 30
0.0
 10
728.21120351169
 20
1308.789901143393
 30
0.0
 10
724.6523704810587
 20
1308.665661014509
 30
0.0
 10
720.9402788366193
 20
1308.536002168738
 30
0.0
 10
717.0470616551769
 20
1308.400058995229
 30
0.0
 10
712.9706137773302
 20
1308.25772833623
 30
0.0
 10
708.7088286181882
 20
1308.108945911423
 30
0.0
 10
704.2874693158795
 20
1307.954608457502
 30
0.0
 10
699.7065358860158
 20
1307.794716005158
 30
0.0
 10
694.9660283354561
 20
1307.629267187719
 30
0.0
 10
690.065946616778
 20
1307.458260373694
 30
0.0
 10
685.0062906352371
 20
1307.281693283114
 30
0.0
 10
679.7870602406672
 20
1307.09956303094
 30
0.0
 10
674.4082552235412
 20
1306.911866044664
 30
0.0
 10
668.8698753092195
 20
1306.718598027731
 30
0.0
 10
663.1719201542172
 20
1306.519753859004
 30
0.0
 10
657.3143893672753
 20
1306.315327699734
 30
0.0
 10
651.2972827174909
 20
1306.105312304723
 30
0.0
 10
645.2986388189967
 20
1305.895921490511
 30
0.0
 10
639.3269535287255
 20
1305.687453793618
 30
0.0
 10
633.3907227761922
 20
1305.48020748754
 30
0.0
 10
627.3204037019669
 20
1305.26826423895
 30
0.0
 10
621.1159963193979
 20
1305.05162395265
 30
0.0
 10
615.1785963047582
 20
1304.844294687031
 30
0.0
 10
611.3093322840724
 20
1304.709173180516
 30
0.0
 10
609.5528999936056
 20
1304.64783547497
 30
0.0
  0
LINE
  5
123
330
1F
100
AcDbEntity
  8
0
  6
Continuous
 62
     7
370
    15
100
AcDbLine
 10
778.5989346334
 20
1353.7269347736
 30
0.0
 11
778.5995308751
 21
1351.9390667984
 31
0.0
  0
LINE
  5
124
330
1F
100
AcDbEntity
  8
0
  6
Continuous
 62
     7
370
    15
100
AcDbLine
 10
778.5199646289
 20
1586.1233465487
 30
0.0
 11
778.5989346337
 21
1353.7269347735
 31
0.0
  0
LINE
  5
125
330
1F
100
AcDbEntity
  8
0
  6
Continuous
 62
     7
370
    15
100
AcDbLine
 10
778.5193981493
 20
1587.8220053878
 30
0.0
 11
778.5199646287
 21
1586.1233465486
 31
0.0
  0
SPLINE
  5
126
330
1F
100
AcDbEntity
  8
0
  6
Continuous
 62
     7
370
    15
100
AcDbSpline
210
0.0
220
0.0
230
1.0
 70
     8
 71
     3
 72
    83
 73
    79
 74
     0
 42
0.000000001
 43
0.00000001
 40
0.0
 40
0.0
 40
0.0
 40
0.0
 40
0.0180130030112203
 40
0.0412730110600366
 40
0.063755617511356
 40
0.0854608223647061
 40
0.1063886256195933
 40
0.1265390272733019
 40
0.1448259409870974
 40
0.1624217605202646
 40
0.1793264858644201
 40
0.1955401170136059
 40
0.2110626539640365
 40
0.2287398867644646
 40
0.2454262817633512
 40
0.2611218389636046
 40
0.2758265583705606
 40
0.2895404399915
 40
0.3020449754115522
 40
0.3135937441712329
 40
0.3241867462805116
 40
0.3338239817496743
 40
0.3408456181510548
 40
0.3472555639145354
 40
0.3530934260887519
 40
0.3589014405480274
 40
0.3648518520053154
 40
0.3769547280130123
 40
0.3896070313948785
 40
0.4049659869312537
 40
0.4210636865078229
 40
0.4379001321345693
 40
0.4554753253501116
 40
0.4737892539316225
 40
0.4926690978523258
 40
0.5117677592155202
 40
0.5308793113146488
 40
0.5501955179408391
 40
0.5697167547164543
 40
0.5894426692780727
 40
0.6093726986531598
 40
0.6295099423065991
 40
0.641474565677806
 40
0.6534892103089308
 40
0.6651531207242991
 40
0.6763083665485189
 40
0.68695679784972
 40
0.6970957022487826
 40
0.7067270281777162
 40
0.7158523138303249
 40
0.7237072965668586
 40
0.7311481107711022
 40
0.7381668125232662
 40
0.7447588250462395
 40
0.7509302643276053
 40
0.7546847052154642
 40
0.7589437268737712
 40
0.7637875896367637
 40
0.769212572278881
 40
0.7752171827215427
 40
0.7818038039484216
 40
0.7889697217629805
 40
0.7967157503621947
 40
0.8050802814323599
 40
0.8140393077794442
 40
0.8235840500950262
 40
0.8337062911645903
 40
0.8444134823102136
 40
0.8555044379600867
 40
0.8671653145868705
 40
0.8793906757122154
 40
0.892180198659264
 40
0.9081442349232861
 40
0.9249114069014459
 40
0.9424806927378332
 40
0.9608512595474195
 40
0.9800244315633667
 40
1.0
 40
1.0
 40
1.0
 40
1.0
 10
645.3080217027905
 20
1640.27607544793
 30
0.0
 10
646.3301153506952
 20
1640.240380242401
 30
0.0
 10
648.672028157132
 20
1640.158592180095
 30
0.0
 10
652.2896487077352
 20
1640.032248918141
 30
0.0
 10
656.1167720603678
 20
1639.898586759857
 30
0.0
 10
659.8115613919263
 20
1639.769543932721
 30
0.0
 10
663.374016710637
 20
1639.645120678291
 30
0.0
 10
666.7425113290145
 20
1639.527469611566
 30
0.0
 10
669.9219424861776
 20
1639.416419256822
 30
0.0
 10
672.9172074283862
 20
1639.311798352077
 30
0.0
 10
675.7948300922059
 20
1639.211283116089
 30
0.0
 10
678.5548104722229
 20
1639.114873423483
 30
0.0
 10
681.3586243082945
 20
1639.016928471676
 30
0.0
 10
684.1892635289695
 20
1638.91804159823
 30
0.0
 10
687.0297200630973
 20
1638.818806138577
 30
0.0
 10
689.7015101541925
 20
1638.72545779879
 30
0.0
 10
692.2046338237876
 20
1638.637997170244
 30
0.0
 10
694.5266925023465
 20
1638.556858178154
 30
0.0
 10
696.6696762236828
 20
1638.481972123576
 30
0.0
 10
698.6355750225528
 20
1638.413270330064
 30
0.0
 10
700.4387775245107
 20
1638.350250767503
 30
0.0
 10
701.9851016502193
 20
1638.296205926099
 30
0.0
 10
703.2940709833166
 20
1638.250454709716
 30
0.0
 10
704.3874564769507
 20
1638.212237172323
 30
0.0
 10
705.4119786750477
 20
1638.176425430903
 30
0.0
 10
706.410425965329
 20
1638.141523846557
 30
0.0
 10
707.764362173936
 20
1638.094194757827
 30
0.0
 10
709.5066562562253
 20
1638.033282631838
 30
0.0
 10
711.7828098233298
 20
1637.953725198435
 30
0.0
 10
714.2856421354028
 20
1637.866380294798
 30
0.0
 10
717.0259028396138
 20
1637.771083564021
 30
0.0
 10
719.8919351580413
 20
1637.67190930584
 30
0.0
 10
722.8837547629138
 20
1637.569331747301
 30
0.0
 10
725.9915035836855
 20
1637.46220211137
 30
0.0
 10
729.1855947038597
 20
1637.349091192724
 30
0.0
 10
732.4247450267667
 20
1637.228903030915
 30
0.0
 10
735.6883506075425
 20
1637.099674518193
 30
0.0
 10
738.9749076441286
 20
1636.944839220973
 30
0.0
 10
742.2941527987538
 20
1636.747028497458
 30
0.0
 10
745.6447487369152
 20
1636.495140560888
 30
0.0
 10
749.0243676708512
 20
1636.170486320457
 30
0.0
 10
751.956056446917
 20
1635.801574298483
 30
0.0
 10
754.4310784742892
 20
1635.41519917226
 30
0.0
 10
756.4224402686779
 20
1635.053570670351
 30
0.0
 10
758.358332973178
 20
1634.64757890956
 30
0.0
 10
760.206438207004
 20
1634.204743332283
 30
0.0
 10
761.9580120928672
 20
1633.733568845179
 30
0.0
 10
763.6100559712969
 20
1633.22844352824
 30
0.0
 10
765.1550759409341
 20
1632.674447563779
 30
0.0
 10
766.5469431785916
 20
1632.084144950214
 30
0.0
 10
767.7883932332935
 20
1631.464720824138
 30
0.0
 10
768.8846777736247
 20
1630.827840034347
 30
0.0
 10
769.8759315090824
 20
1630.158273457333
 30
0.0
 10
770.760239736544
 20
1629.46421369719
 30
0.0
 10
771.4534059841973
 20
1628.831119302626
 30
0.0
 10
772.0139162265183
 20
1628.252464691626
 30
0.0
 10
772.4970222924121
 20
1627.704805980119
 30
0.0
 10
773.0107000362643
 20
1627.058941887408
 30
0.0
 10
773.545452952291
 20
1626.304857610389
 30
0.0
 10
774.0884056133209
 20
1625.437272275364
 30
0.0
 10
774.6278234204847
 20
1624.453037057445
 30
0.0
 10
775.1532303149436
 20
1623.350584275136
 30
0.0
 10
775.6554830161461
 20
1622.127483845818
 30
0.0
 10
776.1255854587221
 20
1620.783314755747
 30
0.0
 10
776.5570941669451
 20
1619.319532984822
 30
0.0
 10
776.9468581390453
 20
1617.741184655992
 30
0.0
 10
777.2932842600954
 20
1616.051357325407
 30
0.0
 10
777.5901640306279
 20
1614.263109522677
 30
0.0
 10
777.8382206605587
 20
1612.379374245771
 30
0.0
 10
778.0402248593527
 20
1610.403562602315
 30
0.0
 10
778.2033769209486
 20
1608.327476025253
 30
0.0
 10
778.3374074888658
 20
1606.004548148552
 30
0.0
 10
778.4340852098627
 20
1603.421667037505
 30
0.0
 10
778.4907530701585
 20
1600.566237967278
 30
0.0
 10
778.5140237706777
 20
1597.57376156283
 30
0.0
 10
778.5172186031787
 20
1594.444629078874
 30
0.0
 10
778.5183738584625
 20
1591.178880765812
 30
0.0
 10
778.5190520856796
 20
1588.956148988422
 30
0.0
 10
778.519398149794
 20
1587.822004435565
 30
0.0
  0
SPLINE
  5
127
330
1F
100
AcDbEntity
  8
0
  6
Continuous
 62
     7
370
    15
100
AcDbSpline
210
0.0
220
0.0
230
1.0
 70
     8
 71
     3
 72
   106
 73
   102
 74
     0
 42
0.000000001
 43
0.00000001
 40
0.0
 40
0.0
 40
0.0
 40
0.0
 40
0.0171562628649254
 40
0.0333506165276862
 40
0.0485830999231182
 40
0.0628537598589106
 40
0.076162653291023
 40
0.0885098504849211
 40
0.0985799391974575
 40
0.107905433717879
 40
0.1164864290084653
 40
0.1186276096102958
 40
0.120716912637362
 40
0.1227543409320136
 40
0.1247664381328215
 40
0.1287888691046383
 40
0.1441095834764379
 40
0.162758582540996
 40
0.1801302770910145
 40
0.1962272462646012
 40
0.2110527344932793
 40
0.2230507121861646
 40
0.2340709052841988
 40
0.2361211151789771
 40
0.2381338188592253
 40
0.2401090603399188
 40
0.2420468861887369
 40
0.2439473457237895
 40
0.2458104912304864
 40
0.2476363781997719
 40
0.2494250655902392
 40
0.2675219922943757
 40
0.285353150906262
 40
0.3029514413615322
 40
0.3203510845950109
 40
0.3293983222894318
 40
0.3384059649159928
 40
0.3473792847705432
 40
0.3563236148445079
 40
0.3652443401215094
 40
0.3741468884195625
 40
0.3834254189690131
 40
0.3925679489158208
 40
0.4015818768371129
 40
0.4104749222875196
 40
0.4192551236671312
 40
0.4279308330456686
 40
0.4365107076511588
 40
0.4473010761737334
 40
0.457907428735388
 40
0.46834776068541
 40
0.4786409381611257
 40
0.4888066466274302
 40
0.4988653199719921
 40
0.5146573261783389
 40
0.5308974329986567
 40
0.5476457451743661
 40
0.5649570748061528
 40
0.5806966895359952
 40
0.5969414656847709
 40
0.6006608127771759
 40
0.6044073267750607
 40
0.6081812986888953
 40
0.6119830132236784
 40
0.615812748897201
 40
0.6196707781585755
 40
0.6235573675067957
 40
0.64104404405579
 40
0.6592757256333107
 40
0.6782705507119506
 40
0.6980445578071554
 40
0.7186119626906926
 40
0.7399853980929516
 40
0.7482580509455538
 40
0.7546347139816131
 40
0.7611339949931051
 40
0.7677583115224732
 40
0.7745078833233473
 40
0.7813829181383882
 40
0.7883836125410795
 40
0.8082848133517188
 40
0.8291412146281183
 40
0.8369628321332675
 40
0.8449112958402369
 40
0.8529867329432139
 40
0.8611892647295734
 40
0.8695190069349069
 40
0.8760749383888768
 40
0.881535435812154
 40
0.8922211760486044
 40
0.9037803723820914
 40
0.9162131600722756
 40
0.9250271095649052
 40
0.934232872573042
 40
0.9438304731476508
 40
0.9538199325094922
 40
0.9642012694763007
 40
0.974974500812319
 40
0.9861396415165244
 40
0.9976967050620125
 40
1.0
 40
1.0
 40
1.0
 40
1.0
 10
757.5702662335101
 20
974.2232405667772
 30
0.0
 10
759.2897264445395
 20
974.2232399373919
 30
0.0
 10
762.6322409877206
 20
974.2232387139095
 30
0.0
 10
767.5018407797621
 20
974.2232369630716
 30
0.0
 10
772.0825474778136
 20
974.223235341782
 30
0.0
 10
776.3743880717672
 20
974.2232338519194
 30
0.0
 10
780.3773563601981
 20
974.2232324929954
 30
0.0
 10
783.9595518762038
 20
974.2232313086815
 30
0.0
 10
787.1426762640059
 20
974.2232302874343
 30
0.0
 10
789.9484291711435
 20
974.2232294169085
 30
0.0
 10
791.9592272213894
 20
974.2232288178935
 30
0.0
 10
793.2443287037189
 20
974.2232284474187
 30
0.0
 10
793.8730744915722
 20
974.2232282687647
 30
0.0
 10
794.4888911536293
 20
974.2232280963852
 30
0.0
 10
795.2986579797639
 20
974.2232278737021
 30
0.0
 10
797.4410626222946
 20
974.2232272961519
 30
0.0
 10
801.2528907481876
 20
974.2232263259182
 30
0.0
 10
806.4048013326701
 20
974.2232251760588
 30
0.0
 10
811.6349372015367
 20
974.2232242208087
 30
0.0
 10
816.4809696969386
 20
974.2232235634515
 30
0.0
 10
820.7864713847454
 20
974.223223216059
 30
0.0
 10
824.5802755561715
 20
974.2232231441697
 30
0.0
 10
827.0908734515665
 20
974.2232232666612
 30
0.0
 10
828.5998269013118
 20
974.2232234162358
 30
0.0
 10
829.2036764080035
 20
974.2232234861862
 30
0.0
 10
829.7960457477379
 20
974.2232235650647
 30
0.0
 10
830.376934846947
 20
974.2232236528853
 30
0.0
 10
830.9463446740968
 20
974.2232237496193
 30
0.0
 10
831.5042718473014
 20
974.2232238553636
 30
0.0
 10
832.0507289219834
 20
974.223223969769
 30
0.0
 10
834.2151194817503
 20
974.2232244728044
 30
0.0
 10
837.9651513799762
 20
974.2232256667837
 30
0.0
 10
843.251138252931
 20
974.2232281699155
 30
0.0
 10
848.4219304301671
 20
974.2232314693052
 30
0.0
 10
852.6850902666204
 20
974.2232349203887
 30
0.0
 10
856.0808288475907
 20
974.2232381334637
 30
0.0
 10
858.6492995963854
 20
974.2232408111342
 30
0.0
 10
861.1861121745607
 20
974.2232437063078
 30
0.0
 10
863.6912950740114
 20
974.2232468188661
 30
0.0
 10
866.1647870533258
 20
974.223250149261
 30
0.0
 10
868.6423192901749
 20
974.2232537474143
 30
0.0
 10
871.1100302885665
 20
974.2232576131171
 30
0.0
 10
873.55300103968
 20
974.2232617515435
 30
0.0
 10
875.92456695883
 20
974.2232660875796
 30
0.0
 10
878.2246769801488
 20
974.223270621639
 30
0.0
 10
880.4532934499737
 20
974.2232753538403
 30
0.0
 10
882.610574821939
 20
974.2232802834426
 30
0.0
 10
884.8819491386939
 20
974.2232858710656
 30
0.0
 10
887.2448356497099
 20
974.223292165631
 30
0.0
 10
889.6727873058513
 20
974.2232992246683
 30
0.0
 10
891.9750041427487
 20
974.2233065454814
 30
0.0
 10
894.1514914088381
 20
974.2233141275461
 30
0.0
 10
896.2026971236124
 20
974.2233219696209
 30
0.0
 10
898.4973874027746
 20
974.2233316396196
 30
0.0
 10
900.9909694511254
 20
974.2233435103029
 30
0.0
 10
903.6296526069139
 20
974.2233579311718
 30
0.0
 10
906.0938572299002
 20
974.2233734026412
 30
0.0
 10
908.2883504390334
 20
974.2233892274834
 30
0.0
 10
910.242065387834
 20
974.2234052913853
 30
0.0
 10
911.5151050567299
 20
974.2234171601294
 30
0.0
 10
912.306078648964
 20
974.2234251211974
 30
0.0
 10
912.671578904619
 20
974.2234289087456
 30
0.0
 10
913.030338364659
 20
974.2234327372587
 30
0.0
 10
913.3823585138011
 20
974.2234366067551
 30
0.0
 10
913.7276388330864
 20
974.2234405172279
 30
0.0
 10
914.0661801515548
 20
974.2234444686866
 30
0.0
 10
914.7841661207174
 20
974.2234531079234
 30
0.0
 10
915.826269670195
 20
974.2234667746689
 30
0.0
 10
917.0912451719133
 20
974.2234858460164
 30
0.0
 10
918.2404226645072
 20
974.2235058800463
 30
0.0
 10
919.2738052444664
 20
974.2235268766989
 30
0.0
 10
920.1914367682407
 20
974.2235488361367
 30
0.0
 10
920.8192430550879
 20
974.2235667840707
 30
0.0
 10
921.2158121049272
 20
974.2235796914672
 30
0.0
 10
921.4333982556783
 20
974.2235872779534
 30
0.0
 10
921.6220909809231
 20
974.2235942796459
 30
0.0
 10
921.802761311455
 20
974.2236014213231
 30
0.0
 10
921.9754082606595
 20
974.2236087037795
 30
0.0
 10
922.1400392772339
 20
974.2236161270156
 30
0.0
 10
922.3919026821269
 20
974.2236282918443
 30
0.0
 10
922.7020182414097
 20
974.2236455126592
 30
0.0
 10
922.9560603740846
 20
974.2236630536544
 30
0.0
 10
923.1191584754633
 20
974.2236762886474
 30
0.0
 10
923.2156253910613
 20
974.2236849085245
 30
0.0
 10
923.3040716503002
 20
974.2236936691817
 30
0.0
 10
923.3845061489562
 20
974.2237025706211
 30
0.0
 10
923.4513828069976
 20
974.22371092494
 30
0.0
 10
923.5039123906782
 20
974.2237182888799
 30
0.0
 10
923.5556384146735
 20
974.2237265074003
 30
0.0
 10
923.6093919120879
 20
974.2237365396355
 30
0.0
 10
923.6639328535751
 20
974.2237490997027
 30
0.0
 10
923.7051806700222
 20
974.2237609842507
 30
0.0
 10
923.7365591880224
 20
974.2237720177715
 30
0.0
 10
923.7603529423758
 20
974.223782025069
 30
0.0
 10
923.7806954473785
 20
974.2237924592677
 30
0.0
 10
923.7975898620175
 20
974.2238033203678
 30
0.0
 10
923.8110161452614
 20
974.2238146083731
 30
0.0
 10
923.8210508288159
 20
974.2238263232698
 30
0.0
 10
923.8273889992623
 20
974.2238384651145
 30
0.0
 10
923.830159530339
 20
974.2238475370461
 30
0.0
 10
923.8300226082368
 20
974.2238525618396
 30
0.0
 10
923.829999854714
 20
974.2238533968527
 30
0.0
  0
LINE
  5
128
330
1F
100
AcDbEntity
  8
0
  6
Continuous
 62
     7
370
    15
100
AcDbLine
 10
910.3500034272
 20
1665.9002261778
 30
0.0
 11
910.3452556643
 21
1665.9088101326
 31
0.0
  0
SPLINE
  5
129
330
1F
100
AcDbEntity
  8
0
  6
Continuous
 62
     7
370
    15
100
AcDbSpline
210
0.0
220
0.0
230
1.0
 70
     8
 71
     3
 72
    10
 73
     6
 74
     0
 42
0.000000001
 43
0.00000001
 40
0.0
 40
0.0
 40
0.0
 40
0.0
 40
0.0260697521369909
 40
0.8095726104973341
 40
1.0
 40
1.0
 40
1.0
 40
1.0
 10
931.6880268711859
 20
1037.000376744686
 30
0.0
 10
931.6884715426471
 20
1037.00082597303
 30
0.0
 10
931.7022804133161
 20
1037.014776353573
 30
0.0
 10
931.6978093769344
 20
1037.021508956587
 30
0.0
 10
931.6972951137986
 20
1037.018333508883
 30
0.0
 10
931.697194562669
 20
1037.017712630521
 30
0.0
  0
SPLINE
  5
12A
330
1F
100
AcDbEntity
  8
0
  6
Continuous
 62
     7
370
    15
100
AcDbSpline
210
0.0
220
0.0
230
1.0
 70
     8
 71
     3
 72
   105
 73
   101
 74
     0
 42
0.000000001
 43
0.00000001
 40
0.0
 40
0.0
 40
0.0
 40
0.0
 40
0.0044313597456618
 40
0.0218733936311065
 40
0.0382803931079364
 40
0.0536523779462667
 40
0.0679893721979391
 40
0.0812914055289972
 40
0.0935585151141505
 40
0.1003027416312452
 40
0.106687611206409
 40
0.1127131378755998
 40
0.1183793383452012
 40
0.1236862327151313
 40
0.1286338454644062
 40
0.1372260134027851
 40
0.1458828625382011
 40
0.1682388445256596
 40
0.1895363998989058
 40
0.2097780467593894
 40
0.2225605639315079
 40
0.2348853616591487
 40
0.2375893598870428
 40
0.2402703578312838
 40
0.2429283688144764
 40
0.245563406507888
 40
0.2481754849435029
 40
0.2507646185265937
 40
0.2533308220488322
 40
0.2729070548366316
 40
0.2917662407141911
 40
0.3099164941715243
 40
0.3273669186925897
 40
0.3421525929465641
 40
0.3564120615389345
 40
0.3595417953918406
 40
0.3626455534115278
 40
0.3657234436652714
 40
0.3687755769680578
 40
0.3718020669641489
 40
0.3748030302110866
 40
0.3777785862661922
 40
0.3954348565503368
 40
0.4124137760269867
 40
0.4287482881425227
 40
0.4444753863720393
 40
0.4532060608302821
 40
0.4617603122183599
 40
0.470147101171085
 40
0.4783759354066969
 40
0.4864568801923829
 40
0.4944005629777125
 40
0.5022181710243646
 40
0.517289453702907
 40
0.5325602362746493
 40
0.5481146147293001
 40
0.5640321907962703
 40
0.5759265480805675
 40
0.5871641205347796
 40
0.5986307673786545
 40
0.6032018474208043
 40
0.607811608310854
 40
0.6124609348534494
 40
0.6171506894590221
 40
0.6218817124293591
 40
0.6266548222705188
 40
0.6419438624231506
 40
0.6578978597279066
 40
0.6745362968933346
 40
0.6918763497396213
 40
0.7077281768416761
 40
0.7241443187185197
 40
0.7279080679240824
 40
0.7317007642047333
 40
0.7355224936335649
 40
0.7393733403368467
 40
0.743253386546906
 40
0.747162712653444
 40
0.7511013972533285
 40
0.7681588778504915
 40
0.7861236577804827
 40
0.8050004721555903
 40
0.8247934015340417
 40
0.842971837026818
 40
0.8618645762198266
 40
0.8662041914863321
 40
0.8705799200566025
 40
0.8749917813602123
 40
0.8778201697643463
 40
0.8804922883047178
 40
0.8832444717055539
 40
0.8860767251045093
 40
0.8967815372916489
 40
0.9084963114006117
 40
0.9212211819155155
 40
0.9349562536500592
 40
0.9497016098756651
 40
0.9654573178452207
 40
0.9822234326533322
 40
1.0
 40
1.0
 40
1.0
 40
1.0
 10
590.2995571086143
 20
974.2239381676799
 30
0.0
 10
590.2993053022057
 20
974.2239365503905
 30
0.0
 10
590.2980623742988
 20
974.2239285673769
 30
0.0
 10
590.300297717918
 20
974.2239145955724
 30
0.0
 10
590.3070224447205
 20
974.2238966299011
 30
0.0
 10
590.3190394514509
 20
974.2238797965524
 30
0.0
 10
590.3359460165971
 20
974.2238640956001
 30
0.0
 10
590.3578336409396
 20
974.2238495270259
 30
0.0
 10
590.3813904989969
 20
974.2238377294054
 30
0.0
 10
590.4043079978396
 20
974.223828456564
 30
0.0
 10
590.424296526576
 20
974.2238214622881
 30
0.0
 10
590.4460043848857
 20
974.2238148612403
 30
0.0
 10
590.4694540758177
 20
974.2238086534176
 30
0.0
 10
590.494562516208
 20
974.2238028388286
 30
0.0
 10
590.5288904869776
 20
974.2237959550434
 30
0.0
 10
590.5761394829068
 20
974.2237878468924
 30
0.0
 10
590.6732158020988
 20
974.2237733783936
 30
0.0
 10
590.8352843795109
 20
974.2237542651544
 30
0.0
 10
591.0996357328448
 20
974.2237309153892
 30
0.0
 10
591.3868003255161
 20
974.2237110629959
 30
0.0
 10
591.6749468865502
 20
974.223694491201
 30
0.0
 10
591.8768181802034
 20
974.2236843295967
 30
0.0
 10
592.016075636847
 20
974.2236778598881
 30
0.0
 10
592.0811110021014
 20
974.2236749218122
 30
0.0
 10
592.1473937763665
 20
974.2236720091258
 30
0.0
 10
592.2149238126312
 20
974.2236691218283
 30
0.0
 10
592.2837024464355
 20
974.2236662599202
 30
0.0
 10
592.3537245331486
 20
974.223663423399
 30
0.0
 10
592.5827236277836
 20
974.223654392758
 30
0.0
 10
593.0049673717668
 20
974.2236394272105
 30
0.0
 10
593.7008345624405
 20
974.2236187986604
 30
0.0
 10
594.4878450009027
 20
974.2235989797734
 30
0.0
 10
595.3328386363088
 20
974.2235806874316
 30
0.0
 10
596.222173696025
 20
974.2235638592081
 30
0.0
 10
596.9133814409727
 20
974.2235522558572
 30
0.0
 10
597.3856895994918
 20
974.2235448865423
 30
0.0
 10
597.6056497786777
 20
974.2235415417424
 30
0.0
 10
597.8291687705414
 20
974.2235382285724
 30
0.0
 10
598.0562472035314
 20
974.2235349470271
 30
0.0
 10
598.2868854285115
 20
974.2235316971115
 30
0.0
 10
598.5210815067672
 20
974.2235284788114
 30
0.0
 10
599.1505308960378
 20
974.2235200425159
 30
0.0
 10
600.2345115126116
 20
974.2235066815941
 30
0.0
 10
601.9108888938431
 20
974.223488776981
 30
0.0
 10
603.7364221236827
 20
974.2234717940057
 30
0.0
 10
605.4424394245193
 20
974.2234579189819
 30
0.0
 10
606.9493370266072
 20
974.2234468905458
 30
0.0
 10
608.1939989984251
 20
974.2234384390339
 30
0.0
 10
609.4873282337959
 20
974.2234302891103
 30
0.0
 10
610.8293533407841
 20
974.2234224407493
 30
0.0
 10
612.2200612582585
 20
974.2234148939858
 30
0.0
 10
613.6595495399104
 20
974.2234076489093
 30
0.0
 10
615.614750770163
 20
974.2233985250892
 30
0.0
 10
618.2082100545362
 20
974.2233877221057
 30
0.0
 10
621.5776162539457
 20
974.2233755708825
 30
0.0
 10
625.2373150932954
 20
974.223364091591
 30
0.0
 10
628.8180428157439
 20
974.223354288494
 30
0.0
 10
632.1677735094081
 20
974.2233461331413
 30
0.0
 10
635.2095184403486
 20
974.2233393447993
 30
0.0
 10
637.6567173782134
 20
974.2233343123332
 30
0.0
 10
639.5323170064636
 20
974.2233306681363
 30
0.0
 10
640.7970694336119
 20
974.2233282891762
 30
0.0
 10
642.0807780232832
 20
974.2233259518296
 30
0.0
 10
643.3834467603157
 20
974.223323656084
 30
0.0
 10
644.7050746106536
 20
974.2233214019017
 30
0.0
 10
647.0261014558579
 20
974.2233175713571
 30
0.0
 10
650.4338561257371
 20
974.2233123248927
 30
0.0
 10
655.0226608381662
 20
974.2233059385558
 30
0.0
 10
659.8587056403103
 20
974.2232998503802
 30
0.0
 10
664.7265746022556
 20
974.2232943054896
 30
0.0
 10
669.6047658948808
 20
974.2232892464569
 30
0.0
 10
673.1664311173137
 20
974.2232858668024
 30
0.0
 10
675.5422161731581
 20
974.2232837296064
 30
0.0
 10
676.670904815287
 20
974.2232827345925
 30
0.0
 10
677.8092566485683
 20
974.2232817512042
 30
0.0
 10
678.9572735220604
 20
974.223280779444
 30
0.0
 10
680.1149543730104
 20
974.2232798193027
 30
0.0
 10
681.2823016755691
 20
974.2232788708158
 30
0.0
 10
683.7631379236692
 20
974.2232768959186
 30
0.0
 10
687.6518159691324
 20
974.2232739718906
 30
0.0
 10
693.0449646252985
 20
974.2232702558542
 30
0.0
 10
698.7232913653892
 20
974.2232666641173
 30
0.0
 10
704.4323200317067
 20
974.2232633448652
 30
0.0
 10
710.149961731622
 20
974.2232602697487
 30
0.0
 10
714.3177854074595
 20
974.2232581855409
 30
0.0
 10
717.0977324655106
 20
974.223256853992
 30
0.0
 10
718.4197810703025
 20
974.2232562310069
 30
0.0
 10
719.5898216006913
 20
974.2232556884059
 30
0.0
 10
720.5883981123462
 20
974.2232552317636
 30
0.0
 10
721.4198802448523
 20
974.2232548565091
 30
0.0
 10
722.2518357989387
 20
974.2232544852142
 30
0.0
 10
723.8933470759729
 20
974.2232537605732
 30
0.0
 10
726.4385691798933
 20
974.2232526640346
 30
0.0
 10
729.9817553150959
 20
974.2232511844323
 30
0.0
 10
733.8311903597925
 20
974.2232496198984
 30
0.0
 10
737.9868763122381
 20
974.2232479705053
 30
0.0
 10
742.4488137332361
 20
974.2232462361762
 30
0.0
 10
747.2170110603897
 20
974.223244417454
 30
0.0
 10
752.2914398512979
 20
974.2232425122615
 30
0.0
 10
755.77667374912
 20
974.2232412277965
 30
0.0
 10
757.5702662335112
 20
974.2232405667772
 30
0.0
  0
SPLINE
  5
12B
330
1F
100
AcDbEntity
  8
0
  6
Continuous
 62
     7
370
    15
100
AcDbSpline
210
0.0
220
0.0
230
1.0
 70
     8
 71
     3
 72
     9
 73
     5
 74
     0
 42
0.000000001
 43
0.00000001
 40
0.0
 40
0.0
 40
0.0
 40
0.0
 40
0.9916593726239548
 40
0.9999999999999999
 40
0.9999999999999999
 40
0.9999999999999999
 40
0.9999999999999999
 10
590.2668616080815
 20
1285.434080372468
 30
0.0
 10
590.2660376929236
 20
1285.435896602596
 30
0.0
 10
590.2652068479977
 20
1285.437728108633
 30
0.0
 10
590.2655948030728
 20
1285.436823355511
 30
0.0
 10
590.2655980388614
 20
1285.436815809303
 30
0.0
  0
LINE
  5
12C
330
1F
100
AcDbEntity
  8
0
  6
Continuous
 62
     7
370
    15
100
AcDbLine
 10
912.2596201424
 20
1056.3296923206
 30
0.0
 11
912.259615793
 21
1056.3296715778
 31
0.0
  0
LINE
  5
12D
330
1F
100
AcDbEntity
  8
0
  6
Continuous
 62
     7
370
    15
100
AcDbLine
 10
609.5529740637
 20
1304.6457041059
 30
0.0
 11
609.55247043
 21
1304.6470332017
 31
0.0
  0
SPLINE
  5
12E
330
1F
100
AcDbEntity
  8
0
  6
Continuous
 62
     7
370
    15
100
AcDbSpline
210
0.0
220
0.0
230
1.0
 70
    24
 71
     3
 72
    55
 73
    51
 74
     0
 42
0.000000001
 43
0.00000001
 40
265.2050438401131
 40
265.2050438401131
 40
265.2050438401131
 40
265.2050438401131
 40
265.3504774252785
 40
270.4004585843101
 40
275.4504397433418
 40
280.8460071770642
 40
286.2415746107852
 40
307.0960239892318
 40
327.7134613952018
 40
347.8894157863788
 40
367.6294889159187
 40
377.5805389628596
 40
386.7489855297757
 40
397.8665905362859
 40
402.311190231035
 40
406.5285493250983
 40
410.3526175952084
 40
414.230928293453
 40
417.6826532771181
 40
421.0999033244759
 40
422.679890079259
 40
424.259876834042
 40
427.6105030335688
 40
430.8382460863093
 40
432.4829870345351
 40
434.127727982761
 40
435.8157165547731
 40
437.5037051267861
 40
441.372766475482
 40
445.2418278241789
 40
449.1963227055096
 40
451.2437930847417
 40
453.2912634639733
 40
457.8243806785181
 40
462.3574978930617
 40
466.8439529021836
 40
469.0871804067442
 40
471.3304079113047
 40
476.2535088225346
 40
478.7150592781501
 40
481.1766097337659
 40
482.3715547386523
 40
483.5664997435379
 40
485.9563897533114
 40
488.3462797630846
 40
490.7361697728569
 40
500.0367663982373
 40
509.3373630236167
 40
519.8228307598315
 40
530.3082984961094
 40
530.3082984961094
 40
530.3082984961094
 40
530.3082984961094
 10
889.0642816181837
 20
1723.37474698323
 30
0.0
 10
889.0642907493835
 20
1723.37474698323
 30
0.0
 10
889.0646122930615
 20
1723.37474698323
 30
0.0
 10
889.0649423054925
 20
1723.374746983229
 30
0.0
 10
889.0633482644931
 20
1723.374746983229
 30
0.0
 10
889.0573781458912
 20
1723.374746983229
 30
0.0
 10
889.031618941395
 20
1723.374746983229
 30
0.0
 10
888.9238662595958
 20
1723.374746983231
 30
0.0
 10
888.4574659279948
 20
1723.374746983228
 30
0.0
 10
887.4596619402943
 20
1723.374746983229
 30
0.0
 10
885.9560404741966
 20
1723.374746983231
 30
0.0
 10
884.1617948790932
 20
1723.374746983231
 30
0.0
 10
882.3555800722967
 20
1723.374746983231
 30
0.0
 10
880.4282735901975
 20
1723.374746983229
 30
0.0
 10
878.4960180453942
 20
1723.374746983229
 30
0.0
 10
877.1132276358
 20
1723.374746983231
 30
0.0
 10
875.6258855719931
 20
1723.374746983229
 30
0.0
 10
874.0588046850932
 20
1723.374746983231
 30
0.0
 10
872.3592338027952
 20
1723.374746983228
 30
0.0
 10
870.867463659
 20
1723.374746983233
 30
0.0
 10
869.6132420087957
 20
1723.374746983231
 30
0.0
 10
868.3110234159973
 20
1723.374746983231
 30
0.0
 10
866.5597388504971
 20
1723.374746983229
 30
0.0
 10
864.642389356291
 20
1723.374746983232
 30
0.0
 10
863.047843742897
 20
1723.37474698323
 30
0.0
 10
861.7945593655945
 20
1723.374746983229
 30
0.0
 10
860.4991557082972
 20
1723.374746983231
 30
0.0
 10
858.5894674943953
 20
1723.374746983231
 30
0.0
 10
856.0298546952977
 20
1723.374746983231
 30
0.0
 10
852.7642665629934
 20
1723.374746983231
 30
0.0
 10
849.9522560018972
 20
1723.374746983231
 30
0.0
 10
847.635669982797
 20
1723.37474698323
 30
0.0
 10
845.1378790206959
 20
1723.374746983229
 30
0.0
 10
841.8958780037971
 20
1723.374746983231
 30
0.0
 10
837.9149911573965
 20
1723.374746983231
 30
0.0
 10
834.5920350096945
 20
1723.374746983232
 30
0.0
 10
831.9388436231961
 20
1723.374746983231
 30
0.0
 10
829.1532733547971
 20
1723.374746983231
 30
0.0
 10
826.2990640310978
 20
1723.37474698323
 30
0.0
 10
823.377477793994
 20
1723.374746983231
 30
0.0
 10
821.561343328594
 20
1723.374746983231
 30
0.0
 10
820.1209342512972
 20
1723.37474698323
 30
0.0
 10
818.7016481825954
 20
1723.374746983228
 30
0.0
 10
816.9272858551972
 20
1723.374746983229
 30
0.0
 10
814.7977476232987
 20
1723.374746983229
 30
0.0
 10
810.6153084954981
 20
1723.374746983232
 30
0.0
 10
804.3802414714969
 20
1723.374746983231
 30
0.0
 10
795.7434470746989
 20
1723.37474698323
 30
0.0
 10
786.7583462346789
 20
1723.374746983231
 30
0.0
 10
780.5352938813609
 20
1723.374746983231
 30
0.0
 10
777.4235370268448
 20
1723.374746983231
 30
0.0
  0
SPLINE
  5
12F
330
1F
100
AcDbEntity
  8
0
  6
Continuous
 62
     7
370
    15
100
AcDbSpline
210
0.0
220
0.0
230
1.0
 70
    24
 71
     3
 72
    41
 73
    37
 74
     0
 42
0.000000001
 43
0.00000001
 40
-0.0000000000037765
 40
-0.0000000000037765
 40
-0.0000000000037765
 40
-0.0000000000037765
 40
38.96078367990557
 40
59.08996890086652
 40
68.64795065922993
 40
78.55569409845704
 40
93.03015736367313
 40
101.8618332573879
 40
107.6315226162503
 40
115.5949163671528
 40
121.4848934391692
 40
123.307462278441
 40
125.1300311177138
 40
128.8559429527926
 40
132.5818547878714
 40
134.3388211758908
 40
136.0957875639114
 40
137.9669705281738
 40
139.8381534924372
 40
141.7663162080296
 40
143.6944789236231
 40
145.4827219838619
 40
147.2709650441006
 40
155.8055532457673
 40
157.9543870312049
 40
160.1032208166437
 40
163.921507541053
 40
167.7397942654613
 40
186.6144561288159
 40
196.4498003384541
 40
206.2851445480923
 40
216.4535132506158
 40
226.6218819531394
 40
244.9270744447398
 40
263.2322669363414
 40
268.8109002698872
 40
268.8109002698872
 40
268.8109002698872
 40
268.8109002698872
 10
777.4235370269031
 20
1723.374746983231
 30
0.0
 10
765.9245105304976
 20
1723.374746983231
 30
0.0
 10
748.476518765197
 20
1723.374746983229
 30
0.0
 10
728.2863696054969
 20
1723.374746983231
 30
0.0
 10
716.7113325716961
 20
1723.374746983231
 30
0.0
 10
706.8570683533959
 20
1723.374746983231
 30
0.0
 10
697.3411372408987
 20
1723.374746983232
 30
0.0
 10
689.2377485536996
 20
1723.374746983232
 30
0.0
 10
683.1335859950956
 20
1723.374746983229
 30
0.0
 10
678.0320211507948
 20
1723.374746983231
 30
0.0
 10
674.2201784380937
 20
1723.374746983229
 30
0.0
 10
672.0266862319945
 20
1723.374746983232
 30
0.0
 10
670.3811691147944
 20
1723.374746983229
 30
0.0
 10
668.4159871472981
 20
1723.374746983231
 30
0.0
 10
666.627346097997
 20
1723.374746983231
 30
0.0
 10
665.317844311097
 20
1723.374746983229
 30
0.0
 10
664.3874241250975
 20
1723.374746983231
 30
0.0
 10
663.4826775378966
 20
1723.374746983231
 30
0.0
 10
662.5953805428977
 20
1723.374746983232
 30
0.0
 10
661.7449894030974
 20
1723.374746983231
 30
0.0
 10
660.9505730984998
 20
1723.374746983229
 30
0.0
 10
660.2139944227943
 20
1723.374746983231
 30
0.0
 10
658.6710444358956
 20
1723.374746983227
 30
0.0
 10
657.3038666656954
 20
1723.374746983232
 30
0.0
 10
656.0820510509944
 20
1723.374746983231
 30
0.0
 10
655.3539338071947
 20
1723.374746983231
 30
0.0
 10
654.5462530576947
 20
1723.374746983231
 30
0.0
 10
652.5820887470959
 20
1723.374746983229
 30
0.0
 10
650.8819778844986
 20
1723.374746983231
 30
0.0
 10
649.5328339036965
 20
1723.374746983231
 30
0.0
 10
648.7749620691972
 20
1723.374746983229
 30
0.0
 10
648.2362406320987
 20
1723.374746983231
 30
0.0
 10
647.7807669401932
 20
1723.374746983229
 30
0.0
 10
647.5270773369954
 20
1723.374746983232
 30
0.0
 10
647.4854946814968
 20
1723.374746983231
 30
0.0
 10
647.4810780602087
 20
1723.374746983232
 30
0.0
 10
647.4806784015541
 20
1723.374746983232
 30
0.0
  0
LINE
  5
130
330
1F
100
AcDbEntity
  8
0
  6
Continuous
 62
     7
370
    15
100
AcDbLine
 10
647.4806680964
 20
1723.3747469832
 30
0.0
 11
647.4806609711
 21
1723.3747469832
 31
0.0
  0
SPLINE
  5
131
330
1F
100
AcDbEntity
  8
0
  6
Continuous
 62
     7
370
    15
100
AcDbSpline
210
0.0
220
0.0
230
1.0
 70
     8
 71
     3
 72
    43
 73
    39
 74
     0
 42
0.000000001
 43
0.00000001
 40
0.0
 40
0.0
 40
0.0
 40
0.0
 40
0.0593148684887135
 40
0.1175332731171795
 40
0.1676988912410065
 40
0.2099807320570278
 40
0.244826642491439
 40
0.2727797845905656
 40
0.2943649352403354
 40
0.3100363874129808
 40
0.3212738955151391
 40
0.3346094305252922
 40
0.3555180546384077
 40
0.3801301217754606
 40
0.4060837906667459
 40
0.4332442452238197
 40
0.4615389319600005
 40
0.4889788114190018
 40
0.5151598104668378
 40
0.5403565395760299
 40
0.5648105007336616
 40
0.5890625283461035
 40
0.613586424792256
 40
0.6386706423653945
 40
0.6645540616177097
 40
0.6915640176957069
 40
0.7203111327899319
 40
0.7510912894219862
 40
0.7841162310900899
 40
0.8192556731973206
 40
0.8512084026893761
 40
0.8778400352621624
 40
0.900309873712913
 40
0.9268423623586797
 40
0.9419294236207563
 40
0.9593410045932665
 40
0.9810370210419248
 40
1.0
 40
1.0
 40
1.0
 40
1.0
 10
1886.496901946538
 20
984.2181178564077
 30
0.0
 10
1886.484751798565
 20
983.8637432933332
 30
0.0
 10
1886.460676103944
 20
983.161544951352
 30
0.0
 10
1886.445060042259
 20
982.1592769696703
 30
0.0
 10
1886.460941162408
 20
981.2587309883683
 30
0.0
 10
1886.506639402347
 20
980.4992612407265
 30
0.0
 10
1886.573731478938
 20
979.8753313196337
 30
0.0
 10
1886.651273542325
 20
979.3781339955066
 30
0.0
 10
1886.727671624423
 20
978.9988234225464
 30
0.0
 10
1886.7947614787
 20
978.7202405494536
 30
0.0
 10
1886.854933687012
 20
978.4986181764033
 30
0.0
 10
1886.928605826786
 20
978.2536695428246
 30
0.0
 10
1887.035826561088
 20
977.9429449775154
 30
0.0
 10
1887.186855073131
 20
977.5760082085412
 30
0.0
 10
1887.379516951385
 20
977.1890658573434
 30
0.0
 10
1887.614388320165
 20
976.8015834400679
 30
0.0
 10
1887.88850281197
 20
976.4316495659975
 30
0.0
 10
1888.199041660257
 20
976.088905430704
 30
0.0
 10
1888.534429215365
 20
975.7846870218181
 30
0.0
 10
1888.888572961593
 20
975.5191132325666
 30
0.0
 10
1889.259285740529
 20
975.2882922559988
 30
0.0
 10
1889.649460023777
 20
975.0865276746082
 30
0.0
 10
1890.059156560165
 20
974.9113625184627
 30
0.0
 10
1890.487257983196
 20
974.7610002355095
 30
0.0
 10
1890.932923454109
 20
974.6335572900898
 30
0.0
 10
1891.397467560128
 20
974.526843090269
 30
0.0
 10
1891.876373343448
 20
974.4400193609914
 30
0.0
 10
1892.370570538043
 20
974.3708602926715
 30
0.0
 10
1892.877866462308
 20
974.3178506750727
 30
0.0
 10
1893.365518111164
 20
974.281249144666
 30
0.0
 10
1893.815194976291
 20
974.2576416498688
 30
0.0
 10
1894.195774161106
 20
974.2438072899778
 30
0.0
 10
1894.53010140611
 20
974.2351498495717
 30
0.0
 10
1894.831264998259
 20
974.2299147132579
 30
0.0
 10
1895.148644701998
 20
974.2265033680163
 30
0.0
 10
1895.484640483625
 20
974.2245088089177
 30
0.0
 10
1895.827044286446
 20
974.2239198950067
 30
0.0
 10
1896.051526480648
 20
974.2239432939838
 30
0.0
 10
1896.156222897334
 20
974.2239542070499
 30
0.0
  0
LWPOLYLINE
  5
132
330
1F
100
AcDbEntity
  8
0
  6
Continuous
 62
     7
370
    15
100
AcDbPolyline
 90
        6
 70
   128
 43
0.0
 10
1888.2887888872
 20
1037.0177207541
 10
1888.2753688415
 20
1036.6223995342
 10
1887.8384876644
 20
1023.7529643827
 10
1887.3963192854
 20
1010.7277809043
 10
1886.9488657422
 20
997.5469093423
 10
1886.4961292283
 20
984.2104145466
  0
SPLINE
  5
133
330
1F
100
AcDbEntity
  8
0
  6
Continuous
 62
     7
370
    15
100
AcDbSpline
210
0.0
220
0.0
230
1.0
 70
     8
 71
     3
 72
    16
 73
    12
 74
     0
 42
0.000000001
 43
0.00000001
 40
0.0
 40
0.0
 40
0.0
 40
0.0
 40
0.0138492907729865
 40
0.1377091348809433
 40
0.2621207955023189
 40
0.387347707677436
 40
0.513636296440193
 40
0.6409601843753693
 40
0.7690748982580726
 40
0.9106015267513374
 40
1.0
 40
1.0
 40
1.0
 40
1.0
 10
1910.933252316257
 20
1704.053475568719
 30
0.0
 10
1910.927354938953
 20
1703.879936323273
 30
0.0
 10
1910.868714916153
 20
1702.154364974527
 30
0.0
 10
1910.75642381438
 20
1698.849642751985
 30
0.0
 10
1910.596018638057
 20
1694.128601060886
 30
0.0
 10
1910.43389705963
 20
1689.356475954633
 30
0.0
 10
1910.270031650356
 20
1684.532448438999
 30
0.0
 10
1910.104571708409
 20
1679.660907203411
 30
0.0
 10
1909.932307867312
 20
1674.588472019337
 30
0.0
 10
1909.776405283923
 20
1669.997386023358
 30
0.0
 10
1909.676117129435
 20
1667.043668680089
 30
0.0
 10
1909.637292385705
 20
1665.900190474798
 30
0.0
  0
SPLINE
  5
134
330
1F
100
AcDbEntity
  8
0
  6
Continuous
 62
     7
370
    15
100
AcDbSpline
210
0.0
220
0.0
230
1.0
 70
     8
 71
     3
 72
    33
 73
    29
 74
     0
 42
0.000000001
 43
0.00000001
 40
0.0
 40
0.0
 40
0.0
 40
0.0
 40
0.0241165065559636
 40
0.050799498010815
 40
0.0720330833525232
 40
0.1015030115336555
 40
0.1320149137979756
 40
0.1645839088497056
 40
0.1987224220815792
 40
0.2326094571327691
 40
0.2876929780394463
 40
0.3408569604252643
 40
0.3923871166636928
 40
0.4426449858894549
 40
0.4756221810218786
 40
0.5085032214891128
 40
0.5414623033293767
 40
0.5722068892062675
 40
0.6001405681804812
 40
0.6253674833157439
 40
0.6475266306879339
 40
0.6758403773411198
 40
0.7108764736068589
 40
0.7533080206118402
 40
0.8038215250867187
 40
0.862952267216681
 40
0.9308412801979112
 40
1.0
 40
1.0
 40
1.0
 40
1.0
 10
2229.686665618365
 20
974.2239592305615
 30
0.0
 10
2229.802942932058
 20
974.223944726153
 30
0.0
 10
2230.047871821403
 20
974.2239141737732
 30
0.0
 10
2230.414526628887
 20
974.2247189526198
 30
0.0
 10
2230.829168691431
 20
974.2275413069016
 30
0.0
 10
2231.295497193878
 20
974.2343078411822
 30
0.0
 10
2231.819583863837
 20
974.2490892505149
 30
0.0
 10
2232.371645930415
 20
974.2751107839823
 30
0.0
 10
2232.939660288269
 20
974.3166320212193
 30
0.0
 10
2233.633724182555
 20
974.3905519480461
 30
0.0
 10
2234.430580618415
 20
974.5186990289695
 30
0.0
 10
2235.311387476389
 20
974.7420916559028
 30
0.0
 10
2236.136630147956
 20
975.0550999831636
 30
0.0
 10
2236.809826914512
 20
975.4267173252825
 30
0.0
 10
2237.338845413922
 20
975.8228845887048
 30
0.0
 10
2237.746743357089
 20
976.2102725245904
 30
0.0
 10
2238.097495964333
 20
976.6334450097597
 30
0.0
 10
2238.383433012687
 20
977.0692162737384
 30
0.0
 10
2238.605960703484
 20
977.4911207558437
 30
0.0
 10
2238.775323745278
 20
977.8841619756676
 30
0.0
 10
2238.920326033986
 20
978.2891994963064
 30
0.0
 10
2239.056098769842
 20
978.7559771174751
 30
0.0
 10
2239.185498394963
 20
979.3433184821059
 30
0.0
 10
2239.293963892214
 20
980.0628165066177
 30
0.0
 10
2239.368314608762
 20
980.9241143678975
 30
0.0
 10
2239.399473623127
 20
981.9326461986407
 30
0.0
 10
2239.387073874896
 20
983.0473166962811
 30
0.0
 10
2239.360259407066
 20
983.8254542913563
 30
0.0
 10
2239.346727959083
 20
984.2181276965441
 30
0.0
  0
SPLINE
  5
135
330
1F
100
AcDbEntity
  8
0
  6
Continuous
 62
     7
370
    15
100
AcDbSpline
210
0.0
220
0.0
230
1.0
 70
     8
 71
     3
 72
    80
 73
    76
 74
     0
 42
0.000000001
 43
0.00000001
 40
0.0
 40
0.0
 40
0.0
 40
0.0
 40
0.017877986268855
 40
0.0413020586349691
 40
0.0641848613348867
 40
0.0865263406822317
 40
0.1083264506950662
 40
0.1295851526764526
 40
0.1491331574394118
 40
0.1681998117151052
 40
0.1867850988238629
 40
0.2048890195766059
 40
0.2225116235590446
 40
0.2396529649838427
 40
0.2563130909067578
 40
0.2724920417619669
 40
0.2881898518636572
 40
0.3034065498774275
 40
0.3178832419978672
 40
0.3318958915652588
 40
0.3454445122240162
 40
0.358529113877941
 40
0.3713748733114215
 40
0.3837395972108683
 40
0.3956232861435662
 40
0.4070259379996257
 40
0.4179475482964209
 40
0.4282058902818984
 40
0.4380002031353553
 40
0.4473407615898986
 40
0.4564716114213907
 40
0.4725121832057851
 40
0.48821363820652
 40
0.5035759825972078
 40
0.5185992193990421
 40
0.5355583158297312
 40
0.5520633727995188
 40
0.568114158721486
 40
0.5837104494183942
 40
0.5988520549148665
 40
0.6042900209850218
 40
0.6096711188382196
 40
0.6152912379805546
 40
0.6213307073763038
 40
0.6277894991875438
 40
0.6346675795651975
 40
0.6415366244840893
 40
0.6487783321793736
 40
0.6563926559570075
 40
0.6643795420141159
 40
0.6727389288786443
 40
0.6828756856877355
 40
0.6935108955651212
 40
0.7046444195042635
 40
0.716276101287375
 40
0.7284057669984085
 40
0.7410332248366615
 40
0.7541582653049357
 40
0.7666264768779866
 40
0.7795125654855036
 40
0.7928166445051225
 40
0.8065388647651067
 40
0.8206794105741487
 40
0.8352385034425368
 40
0.8502164070320428
 40
0.8656134336357365
 40
0.8814299525270101
 40
0.8976664005573955
 40
0.9143232954252596
 40
0.9314012520820206
 40
0.947889640346089
 40
0.9647537223526195
 40
0.9819943599256511
 40
0.9996125736501167
 40
1.0
 40
1.0
 40
1.0
 40
1.0
 10
2239.346960233521
 20
984.2181216233112
 30
0.0
 10
2239.28580380859
 20
986.0130763716596
 30
0.0
 10
2239.144519090589
 20
990.1598144409554
 30
0.0
 10
2238.924637368249
 20
996.6039812883384
 30
0.0
 10
2238.689523954542
 20
1003.496285327593
 30
0.0
 10
2238.460180940607
 20
1010.22555043941
 30
0.0
 10
2238.236802569077
 20
1016.79176932084
 30
0.0
 10
2238.023518965218
 20
1023.077540898489
 30
0.0
 10
2237.820206462962
 20
1029.088893788119
 30
0.0
 10
2237.626697264318
 20
1034.831857297541
 30
0.0
 10
2237.438884436495
 20
1040.429859801774
 30
0.0
 10
2237.256812867734
 20
1045.882906054777
 30
0.0
 10
2237.080237495622
 20
1051.190998269351
 30
0.0
 10
2236.908947536409
 20
1056.354144539896
 30
0.0
 10
2236.742758274672
 20
1061.372352953069
 30
0.0
 10
2236.581510992389
 20
1066.245630486629
 30
0.0
 10
2236.425070786508
 20
1070.973983070449
 30
0.0
 10
2236.27418565039
 20
1075.531419459332
 30
0.0
 10
2236.128710741798
 20
1079.919653454303
 30
0.0
 10
2235.988524231895
 20
1084.140398098214
 30
0.0
 10
2235.852654405227
 20
1088.221361621809
 30
0.0
 10
2235.720308042826
 20
1092.185153414782
 30
0.0
 10
2235.591508995993
 20
1096.030064819491
 30
0.0
 10
2235.466291732594
 20
1099.754386580679
 30
0.0
 10
2235.345469496679
 20
1103.333801691861
 30
0.0
 10
2235.229051472543
 20
1106.768309789564
 30
0.0
 10
2235.117678983296
 20
1110.039615131369
 30
0.0
 10
2235.011329821203
 20
1113.14942646933
 30
0.0
 10
2234.909952726983
 20
1116.10048480768
 30
0.0
 10
2234.812018926462
 20
1118.938328375953
 30
0.0
 10
2234.691888510431
 20
1122.403269448038
 30
0.0
 10
2234.54867411677
 20
1126.506800415758
 30
0.0
 10
2234.382135413768
 20
1131.23590507426
 30
0.0
 10
2234.217652114496
 20
1135.862818535127
 30
0.0
 10
2234.047028899995
 20
1140.615934065823
 30
0.0
 10
2233.870356885128
 20
1145.483701314238
 30
0.0
 10
2233.687870668789
 20
1150.454551080582
 30
0.0
 10
2233.509337793419
 20
1155.288548088973
 30
0.0
 10
2233.335579092228
 20
1159.985657681111
 30
0.0
 10
2233.201571841073
 20
1163.617360233494
 30
0.0
 10
2233.105821817105
 20
1166.223572726772
 30
0.0
 10
2233.045358901056
 20
1167.873921754067
 30
0.0
 10
2232.982893831158
 20
1169.584664099831
 30
0.0
 10
2232.91675253441
 20
1171.403607897371
 30
0.0
 10
2232.846379444412
 20
1173.348854248428
 30
0.0
 10
2232.773449287827
 20
1175.377400506632
 30
0.0
 10
2232.698243943395
 20
1177.484566295857
 30
0.0
 10
2232.621051927914
 20
1179.665670117885
 30
0.0
 10
2232.540686597562
 20
1181.959028496211
 30
0.0
 10
2232.45735842447
 20
1184.364632204381
 30
0.0
 10
2232.366489554758
 20
1187.023526353476
 30
0.0
 10
2232.268208789142
 20
1189.948368876928
 30
0.0
 10
2232.16284130546
 20
1193.151815587551
 30
0.0
 10
2232.055274010416
 20
1196.505448128655
 30
0.0
 10
2231.946164396231
 20
1200.009237870011
 30
0.0
 10
2231.836259380652
 20
1203.663152150272
 30
0.0
 10
2231.726416759379
 20
1207.467154250597
 30
0.0
 10
2231.620752279543
 20
1211.305297885411
 30
0.0
 10
2231.520066916878
 20
1215.169565883234
 30
0.0
 10
2231.424375602953
 20
1219.051951982969
 30
0.0
 10
2231.330303433028
 20
1223.060388981753
 30
0.0
 10
2231.237278138045
 20
1227.194903982549
 30
0.0
 10
2231.144494865277
 20
1231.455531817183
 30
0.0
 10
2231.050959161944
 20
1235.842316648569
 30
0.0
 10
2230.955454364614
 20
1240.3553122694
 30
0.0
 10
2230.856530022669
 20
1244.994583007516
 30
0.0
 10
2230.752482123438
 20
1249.760204423616
 30
0.0
 10
2230.641341570661
 20
1254.652264376289
 30
0.0
 10
2230.520834232943
 20
1259.670862948445
 30
0.0
 10
2230.391060542931
 20
1264.714550426312
 30
0.0
 10
2230.249833548748
 20
1269.778751186482
 30
0.0
 10
2230.096016214492
 20
1274.858943322037
 30
0.0
 10
2229.921089465544
 20
1280.052005192056
 30
0.0
 10
2229.795443094131
 20
1283.590590680099
 30
0.0
 10
2229.721967552442
 20
1285.397918024747
 30
0.0
 10
2229.720386583323
 20
1285.436806186084
 30
0.0
  0
SPLINE
  5
136
330
1F
100
AcDbEntity
  8
0
  6
Continuous
 62
     7
370
    15
100
AcDbSpline
210
0.0
220
0.0
230
1.0
 70
     8
 71
     3
 72
    36
 73
    32
 74
     0
 42
0.000000001
 43
0.00000001
 40
0.0
 40
0.0
 40
0.0
 40
0.0
 40
0.0503213188992322
 40
0.1043474773211332
 40
0.1548873555517052
 40
0.2019177067633258
 40
0.2454421229256843
 40
0.2854852656171077
 40
0.3220855900976352
 40
0.3513246830915347
 40
0.377999895419941
 40
0.4021507284290721
 40
0.4238218667341687
 40
0.448949675519318
 40
0.4699993799881849
 40
0.4914574544184616
 40
0.5159535594783801
 40
0.543507121494361
 40
0.5741458356023653
 40
0.5991766663129441
 40
0.6259907062027181
 40
0.654618830834038
 40
0.685098666544291
 40
0.7174737935836437
 40
0.7517914731942459
 40
0.7880982626872305
 40
0.8264329448206676
 40
0.8668166761025857
 40
0.909241602621243
 40
0.9536622217868893
 40
1.0
 40
1.0
 40
1.0
 40
1.0
 10
1907.726492092874
 20
1056.33318152915
 30
0.0
 10
1907.271538136211
 20
1056.32076699413
 30
0.0
 10
1906.328134848826
 20
1056.29502392062
 30
0.0
 10
1904.915923883639
 20
1056.227678549733
 30
0.0
 10
1903.527656867472
 20
1056.110420124738
 30
0.0
 10
1902.231726115223
 20
1055.938590057688
 30
0.0
 10
1901.031949408067
 20
1055.712848488035
 30
0.0
 10
1899.930419689006
 20
1055.438907757245
 30
0.0
 10
1898.963927003131
 20
1055.136995611539
 30
0.0
 10
1898.123872690205
 20
1054.822714260241
 30
0.0
 10
1897.400506121
 20
1054.510207623204
 30
0.0
 10
1896.748556050124
 20
1054.190883665358
 30
0.0
 10
1896.112307036215
 20
1053.84286073473
 30
0.0
 10
1895.505502390946
 20
1053.472383100405
 30
0.0
 10
1894.89490351668
 20
1053.056293612401
 30
0.0
 10
1894.298905681673
 20
1052.606412198866
 30
0.0
 10
1893.669373870375
 20
1052.076216059981
 30
0.0
 10
1892.995070271404
 20
1051.433990193494
 30
0.0
 10
1892.360153371007
 20
1050.73985074279
 30
0.0
 10
1891.776206453515
 20
1050.010434930801
 30
0.0
 10
1891.249748133035
 20
1049.264089312054
 30
0.0
 10
1890.738954678677
 20
1048.431539685823
 30
0.0
 10
1890.254660004067
 20
1047.509565742629
 30
0.0
 10
1889.807861780837
 20
1046.496144639475
 30
0.0
 10
1889.409140047024
 20
1045.390661587982
 30
0.0
 10
1889.067859189126
 20
1044.194077131715
 30
0.0
 10
1888.791078416404
 20
1042.908986709339
 30
0.0
 10
1888.582108551203
 20
1041.539527778385
 30
0.0
 10
1888.438683167519
 20
1040.091025830892
 30
0.0
 10
1888.350530960034
 20
1038.569386981497
 30
0.0
 10
1888.315431543076
 20
1037.530925573662
 30
0.0
 10
1888.297511118681
 20
1037.000726762435
 30
0.0
  0
SPLINE
  5
137
330
1F
100
AcDbEntity
  8
0
  6
Continuous
 62
     7
370
    15
100
AcDbSpline
210
0.0
220
0.0
230
1.0
 70
     8
 71
     3
 72
    34
 73
    30
 74
     0
 42
0.000000001
 43
0.00000001
 40
0.0
 40
0.0
 40
0.0
 40
0.0
 40
0.0513507159404726
 40
0.1052067207392176
 40
0.1553616280726032
 40
0.2017725832456511
 40
0.2444591854484687
 40
0.2834792268148614
 40
0.318906123510097
 40
0.3508134201820726
 40
0.3792661367193157
 40
0.4043171622053356
 40
0.4260671155715146
 40
0.4486899197553453
 40
0.4747164180092253
 40
0.5041536855664687
 40
0.5370236916428303
 40
0.5639563218320504
 40
0.5928702850792216
 40
0.6238007516231043
 40
0.6567913335626777
 40
0.691892910824223
 40
0.7291607113946075
 40
0.7686489621306078
 40
0.8104025314830733
 40
0.8544455343353549
 40
0.9007683222231953
 40
0.9493174835931194
 40
1.0
 40
1.0
 40
1.0
 40
1.0
 10
2229.719921922611
 20
1285.434103556654
 30
0.0
 10
2229.699181706696
 20
1285.970481871037
 30
0.0
 10
2229.656689405198
 20
1287.069407221898
 30
0.0
 10
2229.549331759285
 20
1288.6901620327
 30
0.0
 10
2229.372248375605
 20
1290.253093249547
 30
0.0
 10
2229.123365258052
 20
1291.687953776221
 30
0.0
 10
2228.808734384423
 20
1292.990320292951
 30
0.0
 10
2228.44103463991
 20
1294.158670752939
 30
0.0
 10
2228.036479348279
 20
1295.194387585587
 30
0.0
 10
2227.612451780917
 20
1296.101340789235
 30
0.0
 10
2227.186008013907
 20
1296.885283114098
 30
0.0
 10
2226.77261262828
 20
1297.553728988982
 30
0.0
 10
2226.36129420772
 20
1298.150310254714
 30
0.0
 10
2225.916086718785
 20
1298.734193486438
 30
0.0
 10
2225.388890072208
 20
1299.354465383038
 30
0.0
 10
2224.751143258489
 20
1300.018282585879
 30
0.0
 10
2224.062525857105
 20
1300.643023607818
 30
0.0
 10
2223.339231631609
 20
1301.217545675383
 30
0.0
 10
2222.599115981676
 20
1301.735590969787
 30
0.0
 10
2221.773721142107
 20
1302.238118503867
 30
0.0
 10
2220.859793685656
 20
1302.7145172796
 30
0.0
 10
2219.855240903759
 20
1303.154035128294
 30
0.0
 10
2218.759337709006
 20
1303.546354158124
 30
0.0
 10
2217.572898710793
 20
1303.882370082263
 30
0.0
 10
2216.298349385178
 20
1304.155254852569
 30
0.0
 10
2214.939648213316
 20
1304.361859718182
 30
0.0
 10
2213.501990405893
 20
1304.504489288821
 30
0.0
 10
2211.991166966218
 20
1304.593255277933
 30
0.0
 10
2210.960270101823
 20
1304.629374147742
 30
0.0
 10
2210.433740183009
 20
1304.647821837559
 30
0.0
  0
SPLINE
  5
138
330
1F
100
AcDbEntity
  8
0
  6
Continuous
 62
     7
370
    15
100
AcDbSpline
210
0.0
220
0.0
230
1.0
 70
     8
 71
     3
 72
    41
 73
    37
 74
     0
 42
0.000000001
 43
0.00000001
 40
0.0
 40
0.0
 40
0.0
 40
0.0
 40
0.0470261779336564
 40
0.0963198459525345
 40
0.1417246897357977
 40
0.1832200932791508
 40
0.2208223426703527
 40
0.2545672626133493
 40
0.2844956207746686
 40
0.3106447458760005
 40
0.3330451025479474
 40
0.351719799102388
 40
0.365802972428393
 40
0.3767324419152359
 40
0.3866811837442499
 40
0.3966885383257073
 40
0.4067548781376673
 40
0.4168805895321534
 40
0.4332081522271975
 40
0.4512962901494819
 40
0.4713030270788955
 40
0.4963680918564669
 40
0.5239177267565329
 40
0.5540165060644331
 40
0.578910499385101
 40
0.6060513276479725
 40
0.6354548879007395
 40
0.6671425640313909
 40
0.701141739218078
 40
0.7374853071260556
 40
0.7762092264209074
 40
0.8173469654483491
 40
0.8609200282566203
 40
0.9069254478389012
 40
0.9553256969816715
 40
1.0
 40
1.0
 40
1.0
 40
1.0
 10
2174.678177694748
 20
1640.276798590068
 30
0.0
 10
2175.192195497365
 20
1640.29449917793
 30
0.0
 10
2176.245015814483
 20
1640.330753833762
 30
0.0
 10
2177.792642214754
 20
1640.423122063801
 30
0.0
 10
2179.274863987482
 20
1640.577047114454
 30
0.0
 10
2180.620379929272
 20
1640.791316525694
 30
0.0
 10
2181.826368717958
 20
1641.057198497994
 30
0.0
 10
2182.892542806309
 20
1641.360104278197
 30
0.0
 10
2183.821044969284
 20
1641.682845795973
 30
0.0
 10
2184.615952509473
 20
1642.007917637433
 30
0.0
 10
2185.282623624769
 20
1642.318881548063
 30
0.0
 10
2185.818460501745
 20
1642.596731649544
 30
0.0
 10
2186.235123059359
 20
1642.83112273937
 30
0.0
 10
2186.563561933533
 20
1643.027438739463
 30
0.0
 10
2186.849826496452
 20
1643.207271959682
 30
0.0
 10
2187.12431199731
 20
1643.387979986417
 30
0.0
 10
2187.396444812354
 20
1643.575679850791
 30
0.0
 10
2187.720510474506
 20
1643.80979898986
 30
0.0
 10
2188.107473884557
 20
1644.106645221063
 30
0.0
 10
2188.566349210749
 20
1644.486919153812
 30
0.0
 10
2189.080002955852
 20
1644.950207109332
 30
0.0
 10
2189.643516261357
 20
1645.511756368888
 30
0.0
 10
2190.247111519438
 20
1646.187686005434
 30
0.0
 10
2190.805390703056
 20
1646.899331345041
 30
0.0
 10
2191.31700792946
 20
1647.639517443691
 30
0.0
 10
2191.781982485143
 20
1648.401109709439
 30
0.0
 10
2192.234753016545
 20
1649.25538748382
 30
0.0
 10
2192.662561807448
 20
1650.205625736743
 30
0.0
 10
2193.052161145034
 20
1651.253798550594
 30
0.0
 10
2193.390463618432
 20
1652.400333940359
 30
0.0
 10
2193.665482944759
 20
1653.643934417232
 30
0.0
 10
2193.867658861297
 20
1654.981555140234
 30
0.0
 10
2193.991714542275
 20
1656.408627602138
 30
0.0
 10
2194.038898954014
 20
1657.919658720369
 30
0.0
 10
2194.021487572808
 20
1659.443069202784
 30
0.0
 10
2193.986086882812
 20
1660.461831373711
 30
0.0
 10
2193.969095115297
 20
1660.950820994083
 30
0.0
  0
SPLINE
  5
139
330
1F
100
AcDbEntity
  8
0
  6
Continuous
 62
     7
370
    15
100
AcDbSpline
210
0.0
220
0.0
230
1.0
 70
     8
 71
     3
 72
   139
 73
   135
 74
     0
 42
0.000000001
 43
0.00000001
 40
0.0
 40
0.0
 40
0.0
 40
0.0
 40
0.0006742908415091
 40
0.0039391717369303
 40
0.0072071893204058
 40
0.0105015168190133
 40
0.0137528217093636
 40
0.0161481216841302
 40
0.0184625414093192
 40
0.0207573149015622
 40
0.023098849187872
 40
0.0254873377741885
 40
0.0277750290383897
 40
0.0302627166989951
 40
0.0326761517887101
 40
0.0350623529715306
 40
0.0368589889557619
 40
0.0386402895206065
 40
0.0403552622037004
 40
0.041953414915637
 40
0.0431380454437165
 40
0.0443034891547272
 40
0.0455260495321645
 40
0.0468772104274023
 40
0.0482507385710409
 40
0.0504770522182163
 40
0.0526825784293959
 40
0.0549225619607458
 40
0.0580257566779945
 40
0.06110658914044
 40
0.0640046482323029
 40
0.0668929711267266
 40
0.0699144582470996
 40
0.0731000713416525
 40
0.0762964161897189
 40
0.0806472173439634
 40
0.0848741015985264
 40
0.0890833032710494
 40
0.0933517448140685
 40
0.1010152921310982
 40
0.1085884975654602
 40
0.1163795273056476
 40
0.1243270267096002
 40
0.1358670073977752
 40
0.1475489506607096
 40
0.1592726722964936
 40
0.1709942852083564
 40
0.1828094127201449
 40
0.196127141792886
 40
0.2095963877647358
 40
0.2232230780303305
 40
0.2370136766398092
 40
0.250976486655034
 40
0.2651310715986812
 40
0.2794531707390078
 40
0.2939017194484263
 40
0.3282517250334774
 40
0.3624141768776253
 40
0.3964047870489424
 40
0.4302451592588957
 40
0.4639597164443172
 40
0.4975720554873659
 40
0.5184780205969388
 40
0.5393440589645435
 40
0.5601665699949556
 40
0.5809406880180559
 40
0.6015818223745437
 40
0.6220370141021851
 40
0.642299863328454
 40
0.6643605435051863
 40
0.6861813105462132
 40
0.707766339957695
 40
0.7291821872699745
 40
0.7504122988371865
 40
0.7615791321952259
 40
0.7726737066062082
 40
0.7836884758722724
 40
0.7946197831998926
 40
0.8054235782865273
 40
0.8160126989980047
 40
0.8221782001055685
 40
0.8282698733647896
 40
0.8342790174234952
 40
0.8401972610413223
 40
0.8460156839639768
 40
0.851726660130303
 40
0.8573256338879095
 40
0.8629091997690809
 40
0.8687018582546753
 40
0.8741845643014617
 40
0.8795056859493937
 40
0.8847240209220202
 40
0.8898187365406233
 40
0.8916699243793451
 40
0.8934972784546303
 40
0.8952906918898705
 40
0.8970410250171637
 40
0.8987616613491882
 40
0.900599394491018
 40
0.9029851644007957
 40
0.905569762120164
 40
0.9082974603615315
 40
0.9110948425541923
 40
0.9135179588681446
 40
0.915988915909953
 40
0.9185061671155849
 40
0.9204300322611638
 40
0.9223890634975834
 40
0.9243766101571967
 40
0.926399422896345
 40
0.9280962739885374
 40
0.929810539393873
 40
0.9315857316944873
 40
0.9335198205550163
 40
0.935527631886935
 40
0.9380826309156718
 40
0.940726678847143
 40
0.943522046434483
 40
0.9464761315207821
 40
0.9503110103163094
 40
0.9542698764091399
 40
0.9583905468078363
 40
0.9626259479994155
 40
0.9653350190576693
 40
0.9680794306499683
 40
0.9708890723730844
 40
0.9738473545080348
 40
0.9769528052975879
 40
0.9809592169427974
 40
0.9848289874264314
 40
0.9888104353309619
 40
0.9930016381589567
 40
0.9973420673630033
 40
1.0
 40
1.0
 40
1.0
 40
1.0
 10
1927.995330817733
 20
1645.285078385129
 30
0.0
 10
1928.141435303352
 20
1645.27384897153
 30
0.0
 10
1928.994970046761
 20
1645.208247326141
 30
0.0
 10
1930.554320934974
 20
1645.060104361243
 30
0.0
 10
1932.678001535054
 20
1644.834119045911
 30
0.0
 10
1934.794281907815
 20
1644.569231150803
 30
0.0
 10
1936.718110064592
 20
1644.296040964338
 30
0.0
 10
1938.425954586468
 20
1644.018921209765
 30
0.0
 10
1939.922660683575
 20
1643.740686441293
 30
0.0
 10
1941.400238481229
 20
1643.426079052412
 30
0.0
 10
1942.884244051449
 20
1643.067257270635
 30
0.0
 10
1944.357462419479
 20
1642.672198537903
 30
0.0
 10
1945.847520507491
 20
1642.220000774393
 30
0.0
 10
1947.322053744278
 20
1641.701846182036
 30
0.0
 10
1948.786102211703
 20
1641.095809632165
 30
0.0
 10
1950.076556449912
 20
1640.469621533977
 30
0.0
 10
1951.210071570386
 20
1639.839707554624
 30
0.0
 10
1952.177959610823
 20
1639.216706078395
 30
0.0
 10
1953.068129062289
 20
1638.55674028576
 30
0.0
 10
1953.805833849673
 20
1637.914181269429
 30
0.0
 10
1954.420842153379
 20
1637.315488079206
 30
0.0
 10
1954.948127121411
 20
1636.744970246828
 30
0.0
 10
1955.460842537722
 20
1636.113929478653
 30
0.0
 10
1955.965901706063
 20
1635.420184769283
 30
0.0
 10
1956.561733577442
 20
1634.523926265952
 30
0.0
 10
1957.194032495152
 20
1633.430616445955
 30
0.0
 10
1957.822761725929
 20
1632.122736407355
 30
0.0
 10
1958.430603807156
 20
1630.597833666906
 30
0.0
 10
1958.992569184684
 20
1628.854233168209
 30
0.0
 10
1959.506043850089
 20
1626.947759199637
 30
0.0
 10
1959.909521737082
 20
1625.062593293854
 30
0.0
 10
1960.221801017138
 20
1623.173615231746
 30
0.0
 10
1960.478721182246
 20
1621.213586336792
 30
0.0
 10
1960.698095069305
 20
1619.181608096631
 30
0.0
 10
1960.877728407802
 20
1616.855845850796
 30
0.0
 10
1961.013392909503
 20
1614.300503875103
 30
0.0
 10
1961.102380760727
 20
1611.522978747217
 30
0.0
 10
1961.149943253684
 20
1608.762407657905
 30
0.0
 10
1961.173036499923
 20
1605.25469116509
 30
0.0
 10
1961.170160759646
 20
1601.015866555509
 30
0.0
 10
1961.170907756433
 20
1596.011541661003
 30
0.0
 10
1961.170722907518
 20
1590.945503644359
 30
0.0
 10
1961.170889572294
 20
1585.01741937034
 30
0.0
 10
1961.170859281085
 20
1578.243772844385
 30
0.0
 10
1961.170852564114
 20
1570.649489111366
 30
0.0
 10
1961.170829721678
 20
1563.015733551058
 30
0.0
 10
1961.170843016529
 20
1555.353034800024
 30
0.0
 10
1961.170848326198
 20
1547.343931089367
 30
0.0
 10
1961.170853713258
 20
1538.955036960461
 30
0.0
 10
1961.170854859181
 20
1530.172459400963
 30
0.0
 10
1961.170854422464
 20
1521.287119240093
 30
0.0
 10
1961.170853172305
 20
1512.294519209098
 30
0.0
 10
1961.170851407071
 20
1503.187198676575
 30
0.0
 10
1961.170851066823
 20
1493.964374029311
 30
0.0
 10
1961.170851698385
 20
1484.635990093558
 30
0.0
 10
1961.170852362861
 20
1470.918797402968
 30
0.0
 10
1961.170853282803
 20
1452.889958265804
 30
0.0
 10
1961.170853703102
 20
1430.614296447676
 30
0.0
 10
1961.17085353683
 20
1408.44938663903
 30
0.0
 10
1961.170853005468
 20
1386.381811965629
 30
0.0
 10
1961.170852511437
 20
1364.396442048887
 30
0.0
 10
1961.170852477753
 20
1345.221939017699
 30
0.0
 10
1961.170852792812
 20
1328.839637885923
 30
0.0
 10
1961.170853143802
 20
1315.236784142314
 30
0.0
 10
1961.170853505876
 20
1301.66258301544
 30
0.0
 10
1961.170853780055
 20
1288.13725735942
 30
0.0
 10
1961.170853906427
 20
1274.691756441916
 30
0.0
 10
1961.170853681954
 20
1261.357362939253
 30
0.0
 10
1961.17085284938
 20
1247.714477961232
 30
0.0
 10
1961.170850754748
 20
1233.774830218358
 30
0.0
 10
1961.170848707615
 20
1219.547850211432
 30
0.0
 10
1961.170844263772
 20
1205.461003367159
 30
0.0
 10
1961.170851488429
 20
1191.502516016553
 30
0.0
 10
1961.170857637787
 20
1179.808080050989
 30
0.0
 10
1961.170857827115
 20
1170.356632418094
 30
0.0
 10
1961.170853506924
 20
1163.125152593561
 30
0.0
 10
1961.170841344188
 20
1155.944856586703
 30
0.0
 10
1961.170822754977
 20
1148.827751879386
 30
0.0
 10
1961.170797416704
 20
1141.803147850695
 30
0.0
 10
1961.170787237673
 20
1135.814234649109
 30
0.0
 10
1961.170840169621
 20
1130.849345747403
 30
0.0
 10
1961.170894762813
 20
1126.879763750349
 30
0.0
 10
1961.170961294345
 20
1122.96391501504
 30
0.0
 10
1961.171036788696
 20
1119.107448230991
 30
0.0
 10
1961.171105468301
 20
1115.315778403822
 30
0.0
 10
1961.171198975728
 20
1111.593491364486
 30
0.0
 10
1961.171184857323
 20
1107.922242720668
 30
0.0
 10
1961.171563150877
 20
1104.233243266148
 30
0.0
 10
1961.171263171311
 20
1100.56951024107
 30
0.0
 10
1961.172356348055
 20
1096.962812666194
 30
0.0
 10
1961.155898906288
 20
1093.480922648209
 30
0.0
 10
1961.09952111187
 20
1090.083705635453
 30
0.0
 10
1961.004093109842
 20
1087.44163807839
 30
0.0
 10
1960.898668205104
 20
1085.537944439252
 30
0.0
 10
1960.820181506774
 20
1084.351363098643
 30
0.0
 10
1960.729281993728
 20
1083.187645074123
 30
0.0
 10
1960.625145137104
 20
1082.048319905856
 30
0.0
 10
1960.503474770411
 20
1080.901030350665
 30
0.0
 10
1960.343039575209
 20
1079.619182755559
 30
0.0
 10
1960.124770091119
 20
1078.155673172567
 30
0.0
 10
1959.829763627897
 20
1076.508667789341
 30
0.0
 10
1959.456385886663
 20
1074.785848360755
 30
0.0
 10
1959.012658510827
 20
1073.115568005575
 30
0.0
 10
1958.490082234066
 20
1071.527061158765
 30
0.0
 10
1957.905634659048
 20
1070.025208254894
 30
0.0
 10
1957.262750624109
 20
1068.665875202392
 30
0.0
 10
1956.578817729041
 20
1067.453680815782
 30
0.0
 10
1955.874864667926
 20
1066.388349956753
 30
0.0
 10
1955.078158472211
 20
1065.362792329089
 30
0.0
 10
1954.232774439582
 20
1064.45263654622
 30
0.0
 10
1953.35549601501
 20
1063.660594041086
 30
0.0
 10
1952.468010119563
 20
1062.964259007225
 30
0.0
 10
1951.486227732967
 20
1062.310056670329
 30
0.0
 10
1950.405751008502
 20
1061.695141223608
 30
0.0
 10
1949.142573760924
 20
1061.063032586797
 30
0.0
 10
1947.700366393725
 20
1060.449252656201
 30
0.0
 10
1946.061489081466
 20
1059.869868040436
 30
0.0
 10
1944.311335229247
 20
1059.353605356183
 30
0.0
 10
1942.290665906956
 20
1058.846513249174
 30
0.0
 10
1940.002106629704
 20
1058.375349092541
 30
0.0
 10
1937.445364099804
 20
1057.962819822766
 30
0.0
 10
1934.790548551068
 20
1057.622109754944
 30
0.0
 10
1932.398107355047
 20
1057.377684536455
 30
0.0
 10
1930.299714819607
 20
1057.203482431102
 30
0.0
 10
1928.508496224113
 20
1057.075962890517
 30
0.0
 10
1926.662027699721
 20
1056.963312568248
 30
0.0
 10
1924.736250433277
 20
1056.86356464751
 30
0.0
 10
1922.54991806324
 20
1056.767826064464
 30
0.0
 10
1920.165040558717
 20
1056.679325839288
 30
0.0
 10
1917.589301070156
 20
1056.602888978502
 30
0.0
 10
1914.973283567987
 20
1056.53048964347
 30
0.0
 10
1912.254983432435
 20
1056.456631517548
 30
0.0
 10
1909.824176905398
 20
1056.391436269603
 30
0.0
 10
1908.30389503099
 20
1056.34944143809
 30
0.0
 10
1907.726501791943
 20
1056.333492072254
 30
0.0
  0
SPLINE
  5
13A
330
1F
100
AcDbEntity
  8
0
  6
Continuous
 62
     7
370
    15
100
AcDbSpline
210
0.0
220
0.0
230
1.0
 70
     8
 71
     3
 72
    17
 73
    13
 74
     0
 42
0.000000001
 43
0.00000001
 40
0.0
 40
0.0
 40
0.0
 40
0.0
 40
0.0578142234513566
 40
0.1865992973708092
 40
0.3133182121945365
 40
0.4376983608515196
 40
0.539383240998917
 40
0.6391448921012176
 40
0.7369586888018224
 40
0.8330183611544492
 40
0.927540419278908
 40
1.0
 40
1.0
 40
1.0
 40
1.0
 10
2193.968978583707
 20
1660.949448325392
 30
0.0
 10
2193.940385363968
 20
1661.783680883256
 30
0.0
 10
2193.848098822794
 20
1664.476222611716
 30
0.0
 10
2193.692767109357
 20
1668.998008697372
 30
0.0
 10
2193.504432698956
 20
1674.479552433076
 30
0.0
 10
2193.329671851779
 20
1679.567389668827
 30
0.0
 10
2193.168654694827
 20
1684.261317924149
 30
0.0
 10
2193.021300508199
 20
1688.565489322037
 30
0.0
 10
2192.877457685654
 20
1692.778429176817
 30
0.0
 10
2192.736944893634
 20
1696.903301471788
 30
0.0
 10
2192.60938902402
 20
1700.654388866528
 30
0.0
 10
2192.528939485189
 20
1703.024257423715
 30
0.0
 10
2192.494029420267
 20
1704.052632059424
 30
0.0
  0
SPLINE
  5
13B
330
1F
100
AcDbEntity
  8
0
  6
Continuous
 62
     7
370
    15
100
AcDbSpline
210
0.0
220
0.0
230
1.0
 70
     8
 71
     3
 72
    38
 73
    34
 74
     0
 42
0.000000001
 43
0.00000001
 40
0.0
 40
0.0
 40
0.0
 40
0.0
 40
0.060447964619683
 40
0.1168774538807583
 40
0.1692412650316582
 40
0.2175133569371895
 40
0.2616993289087647
 40
0.3018299460461245
 40
0.3379531538796021
 40
0.3701293348366937
 40
0.3984309489393226
 40
0.4229473463208483
 40
0.4437970746347034
 40
0.4617502098924025
 40
0.4951414229414312
 40
0.5256145459608357
 40
0.5532050024500146
 40
0.5779392384444967
 40
0.5998352575334632
 40
0.6189039578338563
 40
0.6330029943181938
 40
0.6455205236665085
 40
0.6600330429218632
 40
0.6772694722890177
 40
0.6972488643972009
 40
0.7199969339972792
 40
0.745547203762073
 40
0.7789512223271463
 40
0.8162984200255509
 40
0.8576567316955422
 40
0.9030634012543305
 40
0.9524933462144568
 40
1.0
 40
1.0
 40
1.0
 40
1.0
 10
1909.63992268682
 20
1665.906954251441
 30
0.0
 10
1909.619863809157
 20
1665.323214527671
 30
0.0
 10
1909.581079533066
 20
1664.194541079814
 30
0.0
 10
1909.571871061276
 20
1662.54646105941
 30
0.0
 10
1909.635060959956
 20
1661.008572995765
 30
0.0
 10
1909.775892003915
 20
1659.585853371869
 30
0.0
 10
1909.98881866867
 20
1658.283511234534
 30
0.0
 10
1910.261837707776
 20
1657.104556170718
 30
0.0
 10
1910.579540863198
 20
1656.049647135664
 30
0.0
 10
1910.925248980293
 20
1655.117140271614
 30
0.0
 10
1911.282508568486
 20
1654.303358142304
 30
0.0
 10
1911.635882375793
 20
1653.603357095625
 30
0.0
 10
1911.975235740212
 20
1653.004790313175
 30
0.0
 10
1912.398935736661
 20
1652.327292017899
 30
0.0
 10
1912.921885473578
 20
1651.589963620479
 30
0.0
 10
1913.566090939566
 20
1650.809675318062
 30
0.0
 10
1914.19587320415
 20
1650.143943195974
 30
0.0
 10
1914.796285343919
 20
1649.582268049134
 30
0.0
 10
1915.354548980201
 20
1649.114277088554
 30
0.0
 10
1915.84118116584
 20
1648.744288425888
 30
0.0
 10
1916.256919843642
 20
1648.452611805401
 30
0.0
 10
1916.639704332754
 20
1648.201116378761
 30
0.0
 10
1917.060408191492
 20
1647.942860099858
 30
0.0
 10
1917.56282435952
 20
1647.658600395655
 30
0.0
 10
1918.158565855892
 20
1647.3531103715
 30
0.0
 10
1918.852399952251
 20
1647.036654372454
 30
0.0
 10
1919.700748348897
 20
1646.699856948577
 30
0.0
 10
1920.722409580757
 20
1646.361303828201
 30
0.0
 10
1921.934574709496
 20
1646.043625236092
 30
0.0
 10
1923.295780018143
 20
1645.775947479966
 30
0.0
 10
1924.803360802811
 20
1645.565593564275
 30
0.0
 10
1926.386691136635
 20
1645.414342208613
 30
0.0
 10
1927.466370963236
 20
1645.329115734551
 30
0.0
 10
1927.995500068087
 20
1645.287347974499
 30
0.0
  0
SPLINE
  5
13C
330
1F
100
AcDbEntity
  8
0
  6
Continuous
 62
     7
370
    15
100
AcDbSpline
210
0.0
220
0.0
230
1.0
 70
     8
 71
     3
 72
    34
 73
    30
 74
     0
 42
0.000000001
 43
0.00000001
 40
0.0
 40
0.0
 40
0.0
 40
0.0
 40
0.0327867865004883
 40
0.0633668145717583
 40
0.0921133473485055
 40
0.1198614932857476
 40
0.1470760509417989
 40
0.1737478888940831
 40
0.1998723940448788
 40
0.244398730476806
 40
0.2883974547460363
 40
0.3320982689482709
 40
0.3755363400482645
 40
0.3971765813496146
 40
0.4189620111463965
 40
0.4428761860922835
 40
0.4694396569939556
 40
0.4986587041848287
 40
0.5305477969672366
 40
0.5651316855886603
 40
0.6024474308670861
 40
0.6425459464658058
 40
0.6854920864316983
 40
0.7313614758016195
 40
0.7802313843857401
 40
0.8321627602878524
 40
0.8871728695929939
 40
0.9452065087935377
 40
1.0
 40
1.0
 40
1.0
 40
1.0
 10
1930.921950749126
 20
1723.37474698323
 30
0.0
 10
1930.585705037391
 20
1723.37475122079
 30
0.0
 10
1929.935845080369
 20
1723.374759410696
 30
0.0
 10
1928.959556124278
 20
1723.364967070566
 30
0.0
 10
1928.025045126271
 20
1723.33883752797
 30
0.0
 10
1927.128466116203
 20
1723.292449090446
 30
0.0
 10
1926.255437990631
 20
1723.222197444707
 30
0.0
 10
1925.402517455165
 20
1723.125244319315
 30
0.0
 10
1924.370036730216
 20
1722.969685041691
 30
0.0
 10
1923.164534210302
 20
1722.721343237583
 30
0.0
 10
1921.799901399075
 20
1722.329799346041
 30
0.0
 10
1920.483005330848
 20
1721.831012064324
 30
0.0
 10
1919.430768578341
 20
1721.323049531428
 30
0.0
 10
1918.621201022333
 20
1720.861413544166
 30
0.0
 10
1918.010832278149
 20
1720.474768722246
 30
0.0
 10
1917.377115285847
 20
1720.027884463756
 30
0.0
 10
1916.706421731619
 20
1719.497075204367
 30
0.0
 10
1916.005850299819
 20
1718.868761256745
 30
0.0
 10
1915.289211786624
 20
1718.13272150396
 30
0.0
 10
1914.572497191667
 20
1717.279411638092
 30
0.0
 10
1913.873718303677
 20
1716.300575064224
 30
0.0
 10
1913.212480380189
 20
1715.189904028887
 30
0.0
 10
1912.609166490367
 20
1713.9437030975
 30
0.0
 10
1912.08357950097
 20
1712.5614812298
 30
0.0
 10
1911.652878988969
 20
1711.046354131263
 30
0.0
 10
1911.328518761024
 20
1709.405081321285
 30
0.0
 10
1911.112325637573
 20
1707.647452081859
 30
0.0
 10
1910.994371737728
 20
1705.850389238529
 30
0.0
 10
1910.953928725507
 20
1704.640814877259
 30
0.0
 10
1910.934287936748
 20
1704.053395859433
 30
0.0
  0
SPLINE
  5
13D
330
1F
100
AcDbEntity
  8
0
  6
Continuous
 62
     7
370
    15
100
AcDbSpline
210
0.0
220
0.0
230
1.0
 70
     8
 71
     3
 72
    36
 73
    32
 74
     0
 42
0.000000001
 43
0.00000001
 40
0.0
 40
0.0
 40
0.0
 40
0.0
 40
0.049254451023393
 40
0.1017443290116452
 40
0.1512331736209756
 40
0.1976759781218238
 40
0.2410792713211544
 40
0.2814829312839832
 40
0.3189414533587855
 40
0.3535107477847691
 40
0.3852407375891339
 40
0.4141722229736101
 40
0.4403363471780632
 40
0.4645287495285207
 40
0.4970455859858401
 40
0.5300668026143842
 40
0.5636175847420629
 40
0.5977251544964108
 40
0.6324183486997171
 40
0.6677267948480647
 40
0.7033694422270262
 40
0.7379988899696188
 40
0.7714502266046123
 40
0.7957591424109508
 40
0.8193897587766319
 40
0.842332406634295
 40
0.8652647234179024
 40
0.8921091348721084
 40
0.9235110268095578
 40
0.9594793598943046
 40
1.0
 40
1.0
 40
1.0
 40
1.0
 10
2192.493392436867
 20
1704.052423857384
 30
0.0
 10
2192.475768616827
 20
1704.579753963593
 30
0.0
 10
2192.439363303048
 20
1705.669053442302
 30
0.0
 10
2192.342758689306
 20
1707.28658405842
 30
0.0
 10
2192.173383219365
 20
1708.86823441987
 30
0.0
 10
2191.92505369306
 20
1710.341066805429
 30
0.0
 10
2191.599880971916
 20
1711.699082345588
 30
0.0
 10
2191.207256012841
 20
1712.938533140604
 30
0.0
 10
2190.760885606798
 20
1714.058267377835
 30
0.0
 10
2190.276486204259
 20
1715.059632152325
 30
0.0
 10
2189.770227907021
 20
1715.94613534864
 30
0.0
 10
2189.257709340566
 20
1716.72298174512
 30
0.0
 10
2188.748349216875
 20
1717.403220106652
 30
0.0
 10
2188.177695370813
 20
1718.083763701486
 30
0.0
 10
2187.514719650709
 20
1718.780924188924
 30
0.0
 10
2186.728775229262
 20
1719.495724924789
 30
0.0
 10
2185.879062696884
 20
1720.161480487233
 30
0.0
 10
2184.967631149119
 20
1720.772671401051
 30
0.0
 10
2183.997235317879
 20
1721.324288040565
 30
0.0
 10
2182.974307402839
 20
1721.810603936675
 30
0.0
 10
2181.920013691334
 20
1722.222495202647
 30
0.0
 10
2180.859575071175
 20
1722.556696977387
 30
0.0
 10
2179.898718329844
 20
1722.796212840004
 30
0.0
 10
2179.043442228057
 20
1722.96646611743
 30
0.0
 10
2178.293656863008
 20
1723.087118486298
 30
0.0
 10
2177.555009634297
 20
1723.181050368083
 30
0.0
 10
2176.779640446584
 20
1723.256422692842
 30
0.0
 10
2175.912789904126
 20
1723.315762285639
 30
0.0
 10
2174.90626577294
 20
1723.356331546725
 30
0.0
 10
2173.753962595007
 20
1723.374666294178
 30
0.0
 10
2172.937880563685
 20
1723.374719040467
 30
0.0
 10
2172.505554636056
 20
1723.374746983232
 30
0.0
  0
SPLINE
  5
13E
330
1F
100
AcDbEntity
  8
0
  6
Continuous
 62
     7
370
    15
100
AcDbSpline
210
0.0
220
0.0
230
1.0
 70
     8
 71
     3
 72
    75
 73
    71
 74
     0
 42
0.000000001
 43
0.00000001
 40
0.0
 40
0.0
 40
0.0
 40
0.0
 40
0.026316744328156
 40
0.0579515592324752
 40
0.0888967163397342
 40
0.1191522155771702
 40
0.1487180569026489
 40
0.177084641872342
 40
0.2047859796526396
 40
0.2318220702790623
 40
0.2581929141016022
 40
0.2844161904920537
 40
0.3099467947184491
 40
0.3347847289119367
 40
0.3589299948398316
 40
0.382382593930913
 40
0.4051425272999849
 40
0.427209795771735
 40
0.4485843999038723
 40
0.4692663400095557
 40
0.4892556161791223
 40
0.5085522283010884
 40
0.5271561760824639
 40
0.5450674590683515
 40
0.5622860766608452
 40
0.5804265266173646
 40
0.597728842429962
 40
0.6141928814176066
 40
0.62981843098073
 40
0.644605398281519
 40
0.6559674280669606
 40
0.6667804808572596
 40
0.6770447693410561
 40
0.6867585914660417
 40
0.6959211318243808
 40
0.7043845756334592
 40
0.7123193444642003
 40
0.7199058736936599
 40
0.7272896330589566
 40
0.7374841855334395
 40
0.7472642576476275
 40
0.7566333511914984
 40
0.7655890507155977
 40
0.7741324159590414
 40
0.7818410610595505
 40
0.7891782160474393
 40
0.7961434495109134
 40
0.7986918875130523
 40
0.801638809084011
 40
0.8051150446198453
 40
0.8091186199441575
 40
0.8136471987643638
 40
0.8187005817541766
 40
0.82428320135988
 40
0.8303981491223558
 40
0.8370411917479625
 40
0.8442051862124069
 40
0.8518994639129072
 40
0.8601259174161474
 40
0.8688794602218566
 40
0.878159702830324
 40
0.8879641150716847
 40
0.8982995625892052
 40
0.9107629203057254
 40
0.9239127094188572
 40
0.9377497722045243
 40
0.9522754534468476
 40
0.9674922942197198
 40
0.9834013278707018
 40
1.0
 40
1.0
 40
1.0
 40
1.0
 10
2210.433322738866
 20
1304.64783547466
 30
0.0
 10
2208.676330332753
 20
1304.709192740252
 30
0.0
 10
2204.807293637934
 20
1304.844306307757
 30
0.0
 10
2198.872255947657
 20
1305.051553081868
 30
0.0
 10
2192.674253560906
 20
1305.267969732273
 30
0.0
 10
2186.614382153894
 20
1305.479548235045
 30
0.0
 10
2180.726664218307
 20
1305.685100918404
 30
0.0
 10
2175.009470018953
 20
1305.884684755237
 30
0.0
 10
2169.461169824729
 20
1306.078356984042
 30
0.0
 10
2164.046111393707
 20
1306.267362415949
 30
0.0
 10
2158.729732693817
 20
1306.4529071892
 30
0.0
 10
2153.513864860465
 20
1306.634931703077
 30
0.0
 10
2148.400338921248
 20
1306.813376680156
 30
0.0
 10
2143.425547774194
 20
1306.986976195725
 30
0.0
 10
2138.589491188376
 20
1307.155733836763
 30
0.0
 10
2133.892168981134
 20
1307.319652626546
 30
0.0
 10
2129.33358101497
 20
1307.478735076812
 30
0.0
 10
2124.913727194071
 20
1307.632983225061
 30
0.0
 10
2120.63260746049
 20
1307.782398658042
 30
0.0
 10
2116.490221792553
 20
1307.926982595199
 30
0.0
 10
2112.486570195699
 20
1308.066735750052
 30
0.0
 10
2108.621652720635
 20
1308.201658975161
 30
0.0
 10
2104.895469385277
 20
1308.331751127784
 30
0.0
 10
2101.308020437105
 20
1308.457016751107
 30
0.0
 10
2097.751516173198
 20
1308.581202929022
 30
0.0
 10
2094.235670806951
 20
1308.704033989811
 30
0.0
 10
2090.770197965896
 20
1308.824943397756
 30
0.0
 10
2087.472660275932
 20
1308.940913779203
 30
0.0
 10
2084.343159220641
 20
1309.053939374343
 30
0.0
 10
2081.554402996515
 20
1309.158278757344
 30
0.0
 10
2079.0871095336
 20
1309.255674502204
 30
0.0
 10
2076.921977645082
 20
1309.34758821082
 30
0.0
 10
2074.867146957324
 20
1309.441600864129
 30
0.0
 10
2072.923227869845
 20
1309.546598225602
 30
0.0
 10
2071.100920662195
 20
1309.669907823873
 30
0.0
 10
2069.399095163675
 20
1309.810513834198
 30
0.0
 10
2067.804376509477
 20
1309.966580184479
 30
0.0
 10
2066.283977486784
 20
1310.13970795462
 30
0.0
 10
2064.617289003166
 20
1310.360132562642
 30
0.0
 10
2062.81148479326
 20
1310.643823236059
 30
0.0
 10
2060.885586185922
 20
1311.011318925792
 30
0.0
 10
2059.054570663419
 20
1311.428675105577
 30
0.0
 10
2057.322183836026
 20
1311.900522359254
 30
0.0
 10
2055.719599027571
 20
1312.420084288309
 30
0.0
 10
2054.247241196197
 20
1312.98381001291
 30
0.0
 10
2052.90422322967
 20
1313.584415860992
 30
0.0
 10
2051.906244072987
 20
1314.107309998566
 30
0.0
 10
2051.189227427608
 20
1314.530337987685
 30
0.0
 10
2050.682584490473
 20
1314.850744897402
 30
0.0
 10
2050.10825330401
 20
1315.245215130402
 30
0.0
 10
2049.468505421502
 20
1315.729785840098
 30
0.0
 10
2048.776368580624
 20
1316.317744196101
 30
0.0
 10
2048.050159244203
 20
1317.025329564902
 30
0.0
 10
2047.307482840337
 20
1317.863766726281
 30
0.0
 10
2046.565256479699
 20
1318.84005112177
 30
0.0
 10
2045.841885470848
 20
1319.958719200116
 30
0.0
 10
2045.155460810176
 20
1321.221992019667
 30
0.0
 10
2044.518612239377
 20
1322.627869774319
 30
0.0
 10
2043.939050823156
 20
1324.172122932239
 30
0.0
 10
2043.421156481536
 20
1325.849189239717
 30
0.0
 10
2042.966736658409
 20
1327.653284489255
 30
0.0
 10
2042.574499160958
 20
1329.579769673423
 30
0.0
 10
2042.230442552843
 20
1331.731030267361
 30
0.0
 10
2041.945394722295
 20
1334.116156165619
 30
0.0
 10
2041.721025467514
 20
1336.742425917773
 30
0.0
 10
2041.563094041387
 20
1339.511417925337
 30
0.0
 10
2041.460385329416
 20
1342.421070369702
 30
0.0
 10
2041.405170396901
 20
1345.470388096074
 30
0.0
 10
2041.386224234613
 20
1348.658563498042
 30
0.0
 10
2041.386533794056
 20
1350.830208824756
 30
0.0
 10
2041.38669185737
 20
1351.939066798397
 30
0.0
  0
LINE
  5
13F
330
1F
100
AcDbEntity
  8
0
  6
Continuous
 62
     7
370
    15
100
AcDbLine
 10
2041.3866918574
 20
1351.9390667984
 30
0.0
 11
2041.3872880991
 21
1353.7269347736
 31
0.0
  0
LINE
  5
140
330
1F
100
AcDbEntity
  8
0
  6
Continuous
 62
     7
370
    15
100
AcDbLine
 10
2041.3872880988
 20
1353.7269347735
 30
0.0
 11
2041.4662581036
 21
1586.1233465487
 31
0.0
  0
LINE
  5
141
330
1F
100
AcDbEntity
  8
0
  6
Continuous
 62
     7
370
    15
100
AcDbLine
 10
2041.4662581038
 20
1586.1233465486
 30
0.0
 11
2041.4668245832
 21
1587.8220053878
 31
0.0
  0
SPLINE
  5
142
330
1F
100
AcDbEntity
  8
0
  6
Continuous
 62
     7
370
    15
100
AcDbSpline
210
0.0
220
0.0
230
1.0
 70
     8
 71
     3
 72
    83
 73
    79
 74
     0
 42
0.000000001
 43
0.00000001
 40
0.0
 40
0.0
 40
0.0
 40
0.0
 40
0.0190850126881387
 40
0.0374389526118972
 40
0.055061520135471
 40
0.0719538612423541
 40
0.0881157010304541
 40
0.1035458119155764
 40
0.1182442665820526
 40
0.1322135375698283
 40
0.1441365571232922
 40
0.1554662844314147
 40
0.1662027048325062
 40
0.1763515458078755
 40
0.1859203329658211
 40
0.1949009023896782
 40
0.203284382437059
 40
0.2110304212120176
 40
0.2181963484402477
 40
0.2247829783197895
 40
0.2307875966505452
 40
0.2362125864193129
 40
0.241056455545556
 40
0.2453154827988216
 40
0.2490699286187863
 40
0.2552413760074034
 40
0.2618333971901228
 40
0.2688521081625626
 40
0.2762929321416006
 40
0.2841479251970102
 40
0.2945943041676083
 40
0.3056984077871688
 40
0.3174646725811779
 40
0.3298914121416544
 40
0.3429785440807442
 40
0.3563851695762896
 40
0.369794751782424
 40
0.3831142142101353
 40
0.3963419557791452
 40
0.4197406693395745
 40
0.4428554317782096
 40
0.4656857004466001
 40
0.4882315683853664
 40
0.5071383840119362
 40
0.5258325322062058
 40
0.5439799617335642
 40
0.5614035040630838
 40
0.5781031467627247
 40
0.5940788911253527
 40
0.6075387390673659
 40
0.6204380025863689
 40
0.6327766822996781
 40
0.6397851845924994
 40
0.6465990199660662
 40
0.653454464949206
 40
0.6610923745813292
 40
0.6692485903506785
 40
0.6781822087414698
 40
0.6878932297612855
 40
0.6983816534176512
 40
0.7096474797178555
 40
0.7216907086687528
 40
0.7337577904803537
 40
0.7465159673930876
 40
0.7599652394105848
 40
0.7741056065354175
 40
0.7889370687688952
 40
0.8054225986667178
 40
0.8226855312324766
 40
0.8407258664614264
 40
0.8595436043460359
 40
0.8791387448756454
 40
0.8995112880362588
 40
0.9194317232126616
 40
0.9400432534525295
 40
0.9613458787554507
 40
0.9833395991210327
 40
1.0
 40
1.0
 40
1.0
 40
1.0
 10
2041.466824582697
 20
1587.822004435565
 30
0.0
 10
2041.467122316908
 20
1588.905584842705
 30
0.0
 10
2041.467706380289
 20
1591.03123789712
 30
0.0
 10
2041.469119368092
 20
1594.157437574038
 30
0.0
 10
2041.471143838819
 20
1597.159148722697
 30
0.0
 10
2041.489718811488
 20
1600.036366890502
 30
0.0
 10
2041.536398012643
 20
1602.788817510003
 30
0.0
 10
2041.62221915
 20
1605.415763694936
 30
0.0
 10
2041.753618542323
 20
1607.916228605021
 30
0.0
 10
2041.927851435463
 20
1610.214468201874
 30
0.0
 10
2042.140431873011
 20
1612.317328570661
 30
0.0
 10
2042.391066450366
 20
1614.231099377398
 30
0.0
 10
2042.690041427486
 20
1616.035955888407
 30
0.0
 10
2043.036865714212
 20
1617.73033137466
 30
0.0
 10
2043.427246547498
 20
1619.312749593651
 30
0.0
 10
2043.859552635186
 20
1620.780117674842
 30
0.0
 10
2044.330331206342
 20
1622.126488835423
 30
0.0
 10
2044.832992387162
 20
1623.350584247563
 30
0.0
 10
2045.358399319198
 20
1624.453037063972
 30
0.0
 10
2045.897817117479
 20
1625.437272273827
 30
0.0
 10
2046.440769780618
 20
1626.304857610778
 30
0.0
 10
2046.97552269604
 20
1627.058941887213
 30
0.0
 10
2047.489200440406
 20
1627.704805980499
 30
0.0
 10
2047.972306505016
 20
1628.252464690507
 30
0.0
 10
2048.532816752229
 20
1628.831119307232
 30
0.0
 10
2049.225982969494
 20
1629.464213666233
 30
0.0
 10
2050.110291330795
 20
1630.158273583007
 30
0.0
 10
2051.101544519639
 20
1630.827839520323
 30
0.0
 10
2052.197831285616
 20
1631.464722914768
 30
0.0
 10
2053.506428812016
 20
1632.117643805464
 30
0.0
 10
2055.047831024235
 20
1632.762698802429
 30
0.0
 10
2056.836609792775
 20
1633.381020152962
 30
0.0
 10
2058.761760582445
 20
1633.939778587473
 30
0.0
 10
2060.813284329484
 20
1634.46206122337
 30
0.0
 10
2062.971609636018
 20
1634.937934175622
 30
0.0
 10
2065.198518596572
 20
1635.356527366608
 30
0.0
 10
2067.449317739292
 20
1635.714138831939
 30
0.0
 10
2069.698182651665
 20
1636.014312256851
 30
0.0
 10
2072.516571309103
 20
1636.32925849852
 30
0.0
 10
2075.896161458023
 20
1636.622909005207
 30
0.0
 10
2079.824873520407
 20
1636.882499839272
 30
0.0
 10
2083.708848949212
 20
1637.07609529594
 30
0.0
 10
2087.355741002607
 20
1637.221222539948
 30
0.0
 10
2090.768317306136
 20
1637.3479096417
 30
0.0
 10
2093.931532895615
 20
1637.459989796293
 30
0.0
 10
2097.010686082111
 20
1637.566188132442
 30
0.0
 10
2099.976686967047
 20
1637.667861190191
 30
0.0
 10
2102.819428999838
 20
1637.766196589341
 30
0.0
 10
2105.437244805005
 20
1637.857213152656
 30
0.0
 10
2107.839408844812
 20
1637.941013613804
 30
0.0
 10
2110.035194001413
 20
1638.017746028893
 30
0.0
 10
2111.864916651785
 20
1638.081716916755
 30
0.0
 10
2113.349341181
 20
1638.133607775773
 30
0.0
 10
2114.522636860141
 20
1638.174621576857
 30
0.0
 10
2115.731646342263
 20
1638.216881930307
 30
0.0
 10
2117.016825040147
 20
1638.261802962105
 30
0.0
 10
2118.419923232424
 20
1638.310843508197
 30
0.0
 10
2119.940653706418
 20
1638.363993078669
 30
0.0
 10
2121.593718099502
 20
1638.421764948768
 30
0.0
 10
2123.379116432842
 20
1638.484158549179
 30
0.0
 10
2125.296848727542
 20
1638.551173311043
 30
0.0
 10
2127.304157173661
 20
1638.621314595561
 30
0.0
 10
2129.39614452761
 20
1638.694411036198
 30
0.0
 10
2131.567913543368
 20
1638.770291330727
 30
0.0
 10
2133.857324814252
 20
1638.8502780016
 30
0.0
 10
2136.264378351782
 20
1638.934370731074
 30
0.0
 10
2138.843715052595
 20
1639.024478107051
 30
0.0
 10
2141.600232188466
 20
1639.120770717989
 30
0.0
 10
2144.538827027051
 20
1639.223419260431
 30
0.0
 10
2147.609755930991
 20
1639.330686076748
 30
0.0
 10
2150.813018892844
 20
1639.442571342447
 30
0.0
 10
2154.14861589964
 20
1639.559075376478
 30
0.0
 10
2157.546782148464
 20
1639.677762122798
 30
0.0
 10
2161.002620363251
 20
1639.798461081491
 30
0.0
 10
2164.511233290408
 20
1639.921001131502
 30
0.0
 10
2168.137488462364
 20
1640.047647650531
 30
0.0
 10
2171.539549055662
 20
1640.166462421409
 30
0.0
 10
2173.732857960197
 20
1640.243060677146
 30
0.0
 10
2174.678201029045
 20
1640.276075465896
 30
0.0
  0
SPLINE
  5
143
330
1F
100
AcDbEntity
  8
0
  6
Continuous
 62
     7
370
    15
100
AcDbSpline
210
0.0
220
0.0
230
1.0
 70
     8
 71
     3
 72
   106
 73
   102
 74
     0
 42
0.000000001
 43
0.00000001
 40
0.0
 40
0.0
 40
0.0
 40
0.0
 40
0.0171562628649249
 40
0.0333506165276852
 40
0.0485830999231167
 40
0.0628537598589086
 40
0.0761626532910207
 40
0.0885098504849184
 40
0.0985799391974544
 40
0.1079054337178757
 40
0.1164864290084617
 40
0.1186276096102922
 40
0.1207169126373582
 40
0.1227543409320098
 40
0.1247664381328177
 40
0.1287888691046344
 40
0.1441095834764335
 40
0.162758582540991
 40
0.1801302770910089
 40
0.1962272462645952
 40
0.2110527344932728
 40
0.2230507121861578
 40
0.2340709052841916
 40
0.2361211151789698
 40
0.238133818859218
 40
0.2401090603399114
 40
0.2420468861887295
 40
0.243947345723782
 40
0.2458104912304789
 40
0.2476363781997643
 40
0.2494250655902315
 40
0.2675219922943676
 40
0.2853531509062532
 40
0.302951441361523
 40
0.3203510845950011
 40
0.3293983222894217
 40
0.3384059649159825
 40
0.3473792847705326
 40
0.356323614844497
 40
0.3652443401214981
 40
0.374146888419551
 40
0.3834254189690013
 40
0.3925679489158088
 40
0.4015818768371006
 40
0.410474922287507
 40
0.4192551236671184
 40
0.4279308330456555
 40
0.4365107076511454
 40
0.4473010761737197
 40
0.457907428735374
 40
0.4683477606853957
 40
0.4786409381611111
 40
0.4888066466274152
 40
0.4988653199719768
 40
0.5146573261783232
 40
0.5308974329986403
 40
0.5476457451743494
 40
0.5649570748061354
 40
0.5806966895359774
 40
0.5969414656847526
 40
0.6006608127771575
 40
0.6044073267750422
 40
0.6081812986888766
 40
0.6119830132236597
 40
0.6158127488971821
 40
0.6196707781585565
 40
0.6235573675067766
 40
0.6410440440557704
 40
0.6592757256332905
 40
0.6782705507119299
 40
0.6980445578071339
 40
0.7186119626906706
 40
0.739985398092929
 40
0.7482580509455309
 40
0.75463471398159
 40
0.7611339949930818
 40
0.7677583115224497
 40
0.7745078833233237
 40
0.7813829181383644
 40
0.7883836125410554
 40
0.808284813351694
 40
0.8291412146280929
 40
0.836962832133242
 40
0.8449112958402111
 40
0.8529867329431878
 40
0.861189264729547
 40
0.8695190069348804
 40
0.87607493838885
 40
0.881535435812127
 40
0.8922211760485771
 40
0.9037803723820637
 40
0.9162131600722475
 40
0.9250271095648768
 40
0.9342328725730135
 40
0.9438304731476219
 40
0.953819932509463
 40
0.9642012694762712
 40
0.9749745008122891
 40
0.9861396415164942
 40
0.9976967050619819
 40
1.0
 40
1.0
 40
1.0
 40
1.0
 10
2062.41595649898
 20
974.2232405667772
 30
0.0
 10
2060.696496287951
 20
974.2232399373919
 30
0.0
 10
2057.35398174477
 20
974.2232387139095
 30
0.0
 10
2052.484381952728
 20
974.2232369630716
 30
0.0
 10
2047.903675254677
 20
974.223235341782
 30
0.0
 10
2043.611834660723
 20
974.2232338519194
 30
0.0
 10
2039.608866372292
 20
974.2232324929954
 30
0.0
 10
2036.026670856287
 20
974.2232313086815
 30
0.0
 10
2032.843546468485
 20
974.2232302874343
 30
0.0
 10
2030.037793561347
 20
974.2232294169085
 30
0.0
 10
2028.026995511101
 20
974.2232288178935
 30
0.0
 10
2026.741894028772
 20
974.2232284474187
 30
0.0
 10
2026.113148240918
 20
974.2232282687647
 30
0.0
 10
2025.497331578861
 20
974.2232280963852
 30
0.0
 10
2024.687564752727
 20
974.2232278737021
 30
0.0
 10
2022.545160110196
 20
974.2232272961519
 30
0.0
 10
2018.733331984303
 20
974.2232263259182
 30
0.0
 10
2013.58142139982
 20
974.2232251760588
 30
0.0
 10
2008.351285530954
 20
974.2232242208087
 30
0.0
 10
2003.505253035552
 20
974.2232235634515
 30
0.0
 10
1999.199751347745
 20
974.223223216059
 30
0.0
 10
1995.405947176319
 20
974.2232231441697
 30
0.0
 10
1992.895349280924
 20
974.2232232666612
 30
0.0
 10
1991.386395831179
 20
974.2232234162358
 30
0.0
 10
1990.782546324487
 20
974.2232234861862
 30
0.0
 10
1990.190176984752
 20
974.2232235650647
 30
0.0
 10
1989.609287885543
 20
974.2232236528853
 30
0.0
 10
1989.039878058394
 20
974.2232237496193
 30
0.0
 10
1988.481950885189
 20
974.2232238553636
 30
0.0
 10
1987.935493810507
 20
974.223223969769
 30
0.0
 10
1985.77110325074
 20
974.2232244728044
 30
0.0
 10
1982.021071352514
 20
974.2232256667837
 30
0.0
 10
1976.735084479559
 20
974.2232281699155
 30
0.0
 10
1971.564292302323
 20
974.2232314693052
 30
0.0
 10
1967.30113246587
 20
974.2232349203887
 30
0.0
 10
1963.9053938849
 20
974.2232381334637
 30
0.0
 10
1961.336923136105
 20
974.2232408111342
 30
0.0
 10
1958.80011055793
 20
974.2232437063078
 30
0.0
 10
1956.294927658479
 20
974.2232468188661
 30
0.0
 10
1953.821435679165
 20
974.223250149261
 30
0.0
 10
1951.343903442315
 20
974.2232537474143
 30
0.0
 10
1948.876192443924
 20
974.2232576131171
 30
0.0
 10
1946.43322169281
 20
974.2232617515435
 30
0.0
 10
1944.06165577366
 20
974.2232660875796
 30
0.0
 10
1941.761545752342
 20
974.223270621639
 30
0.0
 10
1939.532929282517
 20
974.2232753538403
 30
0.0
 10
1937.375647910551
 20
974.2232802834426
 30
0.0
 10
1935.104273593797
 20
974.2232858710656
 30
0.0
 10
1932.741387082781
 20
974.223292165631
 30
0.0
 10
1930.313435426639
 20
974.2232992246683
 30
0.0
 10
1928.011218589742
 20
974.2233065454814
 30
0.0
 10
1925.834731323652
 20
974.2233141275461
 30
0.0
 10
1923.783525608878
 20
974.2233219696209
 30
0.0
 10
1921.488835329716
 20
974.2233316396196
 30
0.0
 10
1918.995253281365
 20
974.2233435103029
 30
0.0
 10
1916.356570125577
 20
974.2233579311718
 30
0.0
 10
1913.89236550259
 20
974.2233734026412
 30
0.0
 10
1911.697872293457
 20
974.2233892274834
 30
0.0
 10
1909.744157344656
 20
974.2234052913853
 30
0.0
 10
1908.471117675761
 20
974.2234171601294
 30
0.0
 10
1907.680144083526
 20
974.2234251211974
 30
0.0
 10
1907.314643827871
 20
974.2234289087456
 30
0.0
 10
1906.955884367831
 20
974.2234327372587
 30
0.0
 10
1906.60386421869
 20
974.2234366067551
 30
0.0
 10
1906.258583899404
 20
974.2234405172279
 30
0.0
 10
1905.920042580936
 20
974.2234444686866
 30
0.0
 10
1905.202056611773
 20
974.2234531079234
 30
0.0
 10
1904.159953062295
 20
974.2234667746689
 30
0.0
 10
1902.894977560577
 20
974.2234858460164
 30
0.0
 10
1901.745800067983
 20
974.2235058800463
 30
0.0
 10
1900.712417488024
 20
974.2235268766989
 30
0.0
 10
1899.79478596425
 20
974.2235488361367
 30
0.0
 10
1899.166979677402
 20
974.2235667840707
 30
0.0
 10
1898.770410627563
 20
974.2235796914672
 30
0.0
 10
1898.552824476812
 20
974.2235872779534
 30
0.0
 10
1898.364131751567
 20
974.2235942796459
 30
0.0
 10
1898.183461421035
 20
974.2236014213231
 30
0.0
 10
1898.010814471831
 20
974.2236087037795
 30
0.0
 10
1897.846183455257
 20
974.2236161270156
 30
0.0
 10
1897.594320050363
 20
974.2236282918443
 30
0.0
 10
1897.284204491081
 20
974.2236455126592
 30
0.0
 10
1897.030162358406
 20
974.2236630536544
 30
0.0
 10
1896.867064257027
 20
974.2236762886474
 30
0.0
 10
1896.770597341429
 20
974.2236849085245
 30
0.0
 10
1896.68215108219
 20
974.2236936691817
 30
0.0
 10
1896.601716583534
 20
974.2237025706211
 30
0.0
 10
1896.534839925493
 20
974.22371092494
 30
0.0
 10
1896.482310341812
 20
974.2237182888799
 30
0.0
 10
1896.430584317817
 20
974.2237265074003
 30
0.0
 10
1896.376830820402
 20
974.2237365396355
 30
0.0
 10
1896.322289878915
 20
974.2237490997027
 30
0.0
 10
1896.281042062468
 20
974.2237609842507
 30
0.0
 10
1896.249663544468
 20
974.2237720177715
 30
0.0
 10
1896.225869790115
 20
974.223782025069
 30
0.0
 10
1896.205527285112
 20
974.2237924592677
 30
0.0
 10
1896.188632870473
 20
974.2238033203678
 30
0.0
 10
1896.175206587229
 20
974.2238146083731
 30
0.0
 10
1896.165171903674
 20
974.2238263232698
 30
0.0
 10
1896.158833733228
 20
974.2238384651145
 30
0.0
 10
1896.156063202151
 20
974.2238475370461
 30
0.0
 10
1896.156200124253
 20
974.2238525618396
 30
0.0
 10
1896.156222877776
 20
974.2238533968527
 30
0.0
  0
LINE
  5
144
330
1F
100
AcDbEntity
  8
0
  6
Continuous
 62
     7
370
    15
100
AcDbLine
 10
1886.4966811827
 20
984.2181247301
 30
0.0
 11
1886.4967522261
 21
984.2181141115
 31
0.0
  0
SPLINE
  5
145
330
1F
100
AcDbEntity
  8
0
  6
Continuous
 62
     7
370
    15
100
AcDbSpline
210
0.0
220
0.0
230
1.0
 70
     8
 71
     3
 72
   105
 73
   101
 74
     0
 42
0.000000001
 43
0.00000001
 40
0.0
 40
0.0
 40
0.0
 40
0.0
 40
0.004431359745677
 40
0.0218733936311215
 40
0.0382803931079511
 40
0.0536523779462812
 40
0.0679893721979533
 40
0.0812914055290113
 40
0.0935585151141644
 40
0.1003027416312589
 40
0.1066876112064227
 40
0.1127131378756134
 40
0.1183793383452146
 40
0.1236862327151447
 40
0.1286338454644195
 40
0.1372260134027983
 40
0.1458828625382141
 40
0.1682388445256723
 40
0.1895363998989182
 40
0.2097780467594015
 40
0.2225605639315198
 40
0.2348853616591604
 40
0.2375893598870545
 40
0.2402703578312954
 40
0.242928368814488
 40
0.2455634065078995
 40
0.2481754849435144
 40
0.2507646185266052
 40
0.2533308220488436
 40
0.2729070548366427
 40
0.2917662407142019
 40
0.3099164941715349
 40
0.3273669186926
 40
0.3421525929465742
 40
0.3564120615389443
 40
0.3595417953918504
 40
0.3626455534115376
 40
0.3657234436652811
 40
0.3687755769680675
 40
0.3718020669641585
 40
0.3748030302110961
 40
0.3777785862662018
 40
0.3954348565503462
 40
0.4124137760269957
 40
0.4287482881425315
 40
0.4444753863720478
 40
0.4532060608302905
 40
0.4617603122183682
 40
0.4701471011710932
 40
0.4783759354067049
 40
0.4864568801923908
 40
0.4944005629777202
 40
0.5022181710243723
 40
0.5172894537029145
 40
0.5325602362746565
 40
0.5481146147293071
 40
0.564032190796277
 40
0.5759265480805741
 40
0.587164120534786
 40
0.5986307673786607
 40
0.6032018474208104
 40
0.6078116083108601
 40
0.6124609348534554
 40
0.617150689459028
 40
0.621881712429365
 40
0.6266548222705246
 40
0.6419438624231562
 40
0.6578978597279119
 40
0.6745362968933396
 40
0.691876349739626
 40
0.7077281768416807
 40
0.7241443187185239
 40
0.7279080679240866
 40
0.7317007642047375
 40
0.735522493633569
 40
0.7393733403368506
 40
0.74325338654691
 40
0.7471627126534479
 40
0.7511013972533324
 40
0.7681588778504951
 40
0.786123657780486
 40
0.8050004721555934
 40
0.8247934015340445
 40
0.8429718370268204
 40
0.8618645762198287
 40
0.8662041914863341
 40
0.8705799200566043
 40
0.8749917813602142
 40
0.8778201697643482
 40
0.8804922883047197
 40
0.8832444717055556
 40
0.8860767251045111
 40
0.8967815372916504
 40
0.908496311400613
 40
0.9212211819155167
 40
0.9349562536500602
 40
0.9497016098756659
 40
0.9654573178452213
 40
0.9822234326533326
 40
1.0
 40
1.0
 40
1.0
 40
1.0
 10
2229.686665623876
 20
974.2239381676799
 30
0.0
 10
2229.686917430285
 20
974.2239365503905
 30
0.0
 10
2229.688160358191
 20
974.2239285673769
 30
0.0
 10
2229.685925014572
 20
974.2239145955724
 30
0.0
 10
2229.67920028777
 20
974.2238966299011
 30
0.0
 10
2229.667183281039
 20
974.2238797965524
 30
0.0
 10
2229.650276715894
 20
974.2238640956001
 30
0.0
 10
2229.628389091551
 20
974.2238495270259
 30
0.0
 10
2229.604832233494
 20
974.2238377294054
 30
0.0
 10
2229.581914734651
 20
974.223828456564
 30
0.0
 10
2229.561926205914
 20
974.2238214622881
 30
0.0
 10
2229.540218347604
 20
974.2238148612403
 30
0.0
 10
2229.516768656673
 20
974.2238086534176
 30
0.0
 10
2229.491660216283
 20
974.2238028388286
 30
0.0
 10
2229.457332245513
 20
974.2237959550434
 30
0.0
 10
2229.410083249584
 20
974.2237878468924
 30
0.0
 10
2229.313006930392
 20
974.2237733783936
 30
0.0
 10
2229.15093835298
 20
974.2237542651544
 30
0.0
 10
2228.886586999645
 20
974.2237309153892
 30
0.0
 10
2228.599422406975
 20
974.2237110629959
 30
0.0
 10
2228.31127584594
 20
974.223694491201
 30
0.0
 10
2228.109404552287
 20
974.2236843295967
 30
0.0
 10
2227.970147095643
 20
974.2236778598881
 30
0.0
 10
2227.905111730389
 20
974.2236749218122
 30
0.0
 10
2227.838828956124
 20
974.2236720091258
 30
0.0
 10
2227.771298919859
 20
974.2236691218283
 30
0.0
 10
2227.702520286055
 20
974.2236662599202
 30
0.0
 10
2227.632498199342
 20
974.223663423399
 30
0.0
 10
2227.403499104707
 20
974.223654392758
 30
0.0
 10
2226.981255360723
 20
974.2236394272105
 30
0.0
 10
2226.28538817005
 20
974.2236187986604
 30
0.0
 10
2225.498377731588
 20
974.2235989797734
 30
0.0
 10
2224.653384096182
 20
974.2235806874316
 30
0.0
 10
2223.764049036466
 20
974.2235638592081
 30
0.0
 10
2223.072841291518
 20
974.2235522558572
 30
0.0
 10
2222.600533132999
 20
974.2235448865423
 30
0.0
 10
2222.380572953813
 20
974.2235415417424
 30
0.0
 10
2222.157053961949
 20
974.2235382285724
 30
0.0
 10
2221.929975528959
 20
974.2235349470271
 30
0.0
 10
2221.699337303979
 20
974.2235316971115
 30
0.0
 10
2221.465141225723
 20
974.2235284788114
 30
0.0
 10
2220.835691836452
 20
974.2235200425159
 30
0.0
 10
2219.751711219878
 20
974.2235066815941
 30
0.0
 10
2218.075333838647
 20
974.223488776981
 30
0.0
 10
2216.249800608808
 20
974.2234717940057
 30
0.0
 10
2214.543783307971
 20
974.2234579189819
 30
0.0
 10
2213.036885705883
 20
974.2234468905458
 30
0.0
 10
2211.792223734065
 20
974.2234384390339
 30
0.0
 10
2210.498894498694
 20
974.2234302891103
 30
0.0
 10
2209.156869391706
 20
974.2234224407493
 30
0.0
 10
2207.766161474232
 20
974.2234148939858
 30
0.0
 10
2206.32667319258
 20
974.2234076489093
 30
0.0
 10
2204.371471962328
 20
974.2233985250892
 30
0.0
 10
2201.778012677954
 20
974.2233877221057
 30
0.0
 10
2198.408606478545
 20
974.2233755708825
 30
0.0
 10
2194.748907639195
 20
974.223364091591
 30
0.0
 10
2191.168179916746
 20
974.223354288494
 30
0.0
 10
2187.818449223083
 20
974.2233461331413
 30
0.0
 10
2184.776704292142
 20
974.2233393447993
 30
0.0
 10
2182.329505354277
 20
974.2233343123332
 30
0.0
 10
2180.453905726027
 20
974.2233306681363
 30
0.0
 10
2179.189153298878
 20
974.2233282891762
 30
0.0
 10
2177.905444709207
 20
974.2233259518296
 30
0.0
 10
2176.602775972175
 20
974.223323656084
 30
0.0
 10
2175.281148121837
 20
974.2233214019017
 30
0.0
 10
2172.960121276632
 20
974.2233175713571
 30
0.0
 10
2169.552366606753
 20
974.2233123248927
 30
0.0
 10
2164.963561894324
 20
974.2233059385558
 30
0.0
 10
2160.12751709218
 20
974.2232998503802
 30
0.0
 10
2155.259648130235
 20
974.2232943054896
 30
0.0
 10
2150.38145683761
 20
974.2232892464569
 30
0.0
 10
2146.819791615177
 20
974.2232858668024
 30
0.0
 10
2144.444006559332
 20
974.2232837296064
 30
0.0
 10
2143.315317917204
 20
974.2232827345925
 30
0.0
 10
2142.176966083922
 20
974.2232817512042
 30
0.0
 10
2141.02894921043
 20
974.223280779444
 30
0.0
 10
2139.87126835948
 20
974.2232798193027
 30
0.0
 10
2138.703921056921
 20
974.2232788708158
 30
0.0
 10
2136.223084808821
 20
974.2232768959186
 30
0.0
 10
2132.334406763358
 20
974.2232739718906
 30
0.0
 10
2126.941258107192
 20
974.2232702558542
 30
0.0
 10
2121.262931367101
 20
974.2232666641173
 30
0.0
 10
2115.553902700784
 20
974.2232633448652
 30
0.0
 10
2109.836261000868
 20
974.2232602697487
 30
0.0
 10
2105.668437325031
 20
974.2232581855409
 30
0.0
 10
2102.88849026698
 20
974.223256853992
 30
0.0
 10
2101.566441662188
 20
974.2232562310069
 30
0.0
 10
2100.396401131799
 20
974.2232556884059
 30
0.0
 10
2099.397824620144
 20
974.2232552317636
 30
0.0
 10
2098.566342487638
 20
974.2232548565091
 30
0.0
 10
2097.734386933551
 20
974.2232544852142
 30
0.0
 10
2096.092875656518
 20
974.2232537605732
 30
0.0
 10
2093.547653552597
 20
974.2232526640346
 30
0.0
 10
2090.004467417394
 20
974.2232511844323
 30
0.0
 10
2086.155032372698
 20
974.2232496198984
 30
0.0
 10
2081.999346420253
 20
974.2232479705053
 30
0.0
 10
2077.537408999254
 20
974.2232462361762
 30
0.0
 10
2072.769211672101
 20
974.223244417454
 30
0.0
 10
2067.694782881192
 20
974.2232425122615
 30
0.0
 10
2064.20954898337
 20
974.2232412277965
 30
0.0
 10
2062.415956498979
 20
974.2232405667772
 30
0.0
  0
LINE
  5
146
330
1F
100
AcDbEntity
  8
0
  6
Continuous
 62
     7
370
    15
100
AcDbLine
 10
1907.7265994308
 20
1056.329707388
 30
0.0
 11
1907.7266069395
 21
1056.3296715778
 31
0.0
  0
LINE
  5
147
330
1F
100
AcDbEntity
  8
0
  6
Continuous
 62
     7
370
    15
100
AcDbLine
 10
2193.9690041354
 20
1660.9494492014
 30
0.0
 11
2193.9686306911
 21
1660.9508065907
 31
0.0
  0
SPLINE
  5
148
330
1F
100
AcDbEntity
  8
0
  6
Continuous
 62
     7
370
    15
100
AcDbSpline
210
0.0
220
0.0
230
1.0
 70
    24
 71
     3
 72
    66
 73
    62
 74
     0
 42
0.000000001
 43
0.00000001
 40
-0.0000000001795053
 40
-0.0000000001795053
 40
-0.0000000001795053
 40
-0.0000000001795053
 40
2.558573357251455
 40
5.117146714501758
 40
10.23304333504909
 40
15.34893995559642
 40
22.08171726507272
 40
27.39473520874837
 40
32.49134730499907
 40
37.58795940124969
 40
42.60010365661492
 40
47.61224791198021
 40
50.91402707636623
 40
52.56491665855985
 40
54.21580624075229
 40
55.86669582294589
 40
57.51758540513832
 40
60.81936456952538
 40
63.12829799001096
 40
65.43723141049767
 40
70.0550982514698
 40
79.24104260115755
 40
83.57195816304561
 40
87.90287372493256
 40
91.7592022969429
 40
95.61553086895339
 40
99.23720241068287
 40
100.2489332508442
 40
101.2606640910054
 40
102.1191352775732
 40
102.9776064641411
 40
106.3949154455087
 40
107.9109575520705
 40
109.4269996586323
 40
111.0939971801032
 40
112.7609947015728
 40
115.9204648818402
 40
116.7371846976121
 40
117.5539045133839
 40
118.4905931990152
 40
119.4272818846477
 40
122.9537829602002
 40
125.8550090946991
 40
128.7562352291969
 40
132.8464555582812
 40
136.9366758873653
 40
141.7140538943976
 40
143.9155264803576
 40
146.1169990663175
 40
150.6477624711829
 40
155.1785258760482
 40
160.0421542381601
 40
164.9057826002731
 40
184.5238458190211
 40
194.6521278964096
 40
204.780409973797
 40
215.0751660521666
 40
225.3699221305349
 40
235.3650609542203
 40
245.3601997779067
 40
265.1033215869384
 40
265.1033215869384
 40
265.1033215869384
 40
265.1033215869384
 10
2047.864631748553
 20
1723.37474698323
 30
0.0
 10
2047.1054810314
 20
1723.374746983231
 30
0.0
 10
2045.587159210445
 20
1723.374746983231
 30
0.0
 10
2042.550761519291
 20
1723.374746983229
 30
0.0
 10
2038.755342370895
 20
1723.374746983232
 30
0.0
 10
2033.720758990391
 20
1723.374746983229
 30
0.0
 10
2028.626986375697
 20
1723.374746983231
 30
0.0
 10
2023.537985016996
 20
1723.374746983231
 30
0.0
 10
2018.933785031692
 20
1723.37474698323
 30
0.0
 10
2014.418084335099
 20
1723.374746983231
 30
0.0
 10
2009.926726828394
 20
1723.37474698323
 30
0.0
 10
2005.968354935391
 20
1723.37474698323
 30
0.0
 10
2003.008646346795
 20
1723.37474698323
 30
0.0
 10
2001.047586112295
 20
1723.374746983231
 30
0.0
 10
1999.576994073396
 20
1723.374746983231
 30
0.0
 10
1998.106657287996
 20
1723.374746983231
 30
0.0
 10
1996.146664383492
 20
1723.37474698323
 30
0.0
 10
1993.992301821394
 20
1723.37474698323
 30
0.0
 10
1991.644349304994
 20
1723.374746983231
 30
0.0
 10
1988.908365860293
 20
1723.374746983231
 30
0.0
 10
1984.142294705691
 20
1723.374746983232
 30
0.0
 10
1978.801731259293
 20
1723.374746983231
 30
0.0
 10
1973.598706185096
 20
1723.37474698323
 30
0.0
 10
1969.9859362378
 20
1723.374746983231
 30
0.0
 10
1966.557767414792
 20
1723.374746983232
 30
0.0
 10
1963.391520593094
 20
1723.374746983231
 30
0.0
 10
1961.081121611293
 20
1723.374746983228
 30
0.0
 10
1959.579530212596
 20
1723.374746983233
 30
0.0
 10
1958.821495468798
 20
1723.374746983229
 30
0.0
 10
1958.111805833197
 20
1723.374746983231
 30
0.0
 10
1956.791573050596
 20
1723.37474698323
 30
0.0
 10
1955.347268299799
 20
1723.374746983231
 30
0.0
 10
1953.813602573998
 20
1723.374746983231
 30
0.0
 10
1952.73258926469
 20
1723.374746983232
 30
0.0
 10
1951.660057304291
 20
1723.374746983231
 30
0.0
 10
1950.288699261794
 20
1723.37474698323
 30
0.0
 10
1949.182461211196
 20
1723.374746983231
 30
0.0
 10
1948.305611814691
 20
1723.374746983229
 30
0.0
 10
1947.848672514993
 20
1723.374746983231
 30
0.0
 10
1947.385442185493
 20
1723.374746983229
 30
0.0
 10
1946.485457838896
 20
1723.374746983231
 30
0.0
 10
1945.352717012195
 20
1723.374746983228
 30
0.0
 10
1944.062868745596
 20
1723.374746983237
 30
0.0
 10
1942.816379946894
 20
1723.374746983231
 30
0.0
 10
1941.565068764997
 20
1723.374746983231
 30
0.0
 10
1940.269671936797
 20
1723.374746983231
 30
0.0
 10
1939.296998201997
 20
1723.374746983231
 30
0.0
 10
1938.563871274795
 20
1723.374746983231
 30
0.0
 10
1937.892997465194
 20
1723.374746983232
 30
0.0
 10
1937.122604507897
 20
1723.374746983231
 30
0.0
 10
1936.2802186696
 20
1723.37474698323
 30
0.0
 10
1935.520487886298
 20
1723.374746983229
 30
0.0
 10
1934.150430752096
 20
1723.374746983231
 30
0.0
 10
1933.028205971294
 20
1723.37474698323
 30
0.0
 10
1932.166852783498
 20
1723.374746983231
 30
0.0
 10
1931.692040092196
 20
1723.374746983231
 30
0.0
 10
1931.359622966095
 20
1723.374746983229
 30
0.0
 10
1931.144726352099
 20
1723.374746983231
 30
0.0
 10
1931.016293766498
 20
1723.37474698323
 30
0.0
 10
1930.928933188282
 20
1723.374746983231
 30
0.0
 10
1930.923225443032
 20
1723.374746983231
 30
0.0
 10
1930.921960469054
 20
1723.37474698323
 30
0.0
  0
SPLINE
  5
149
330
1F
100
AcDbEntity
  8
0
  6
Continuous
 62
     7
370
    15
100
AcDbSpline
210
0.0
220
0.0
230
1.0
 70
    24
 71
     3
 72
    55
 73
    51
 74
     0
 42
0.000000001
 43
0.00000001
 40
268.8595169292157
 40
268.8595169292157
 40
268.8595169292157
 40
268.8595169292157
 40
274.7024670740487
 40
279.8408390001384
 40
284.9792109262279
 40
295.5824984471419
 40
306.1857859680559
 40
316.3965321475029
 40
326.6072783269503
 40
346.714392706287
 40
356.4402164490746
 40
366.1660401918623
 40
370.7249112778925
 40
375.283782363923
 40
380.6167700060549
 40
385.0077797473846
 40
389.3987894887132
 40
392.2548749286938
 40
395.1109603686732
 40
402.9601387242286
 40
405.843009057782
 40
408.7258793913364
 40
409.6111479032969
 40
410.4964164152575
 40
412.2669534391786
 40
413.2365136324667
 40
414.2060738257546
 40
415.0728793012536
 40
415.9396847767516
 40
417.7772134579963
 40
419.6147421392425
 40
421.4063405102198
 40
423.1979388811972
 40
425.1763281185276
 40
427.154717355859
 40
429.0909218375017
 40
431.0271263191444
 40
437.0449195070202
 40
441.2429884720232
 40
445.4410574370262
 40
450.0800761015868
 40
454.7190947661475
 40
459.2625264988125
 40
463.8059582314763
 40
473.5334553543271
 40
483.3571466430198
 40
493.1808379317125
 40
510.0538894495002
 40
526.926940967288
 40
537.7190338583943
 40
537.7190338583943
 40
537.7190338583943
 40
537.7190338583943
 10
2172.505554636056
 20
1723.374746983232
 30
0.0
 10
2172.505961726877
 20
1723.374746983232
 30
0.0
 10
2172.505431306664
 20
1723.374746983232
 30
0.0
 10
2172.503529432192
 20
1723.374746983231
 30
0.0
 10
2172.490459967893
 20
1723.374746983229
 30
0.0
 10
2172.450747611893
 20
1723.374746983231
 30
0.0
 10
2172.328102950994
 20
1723.374746983232
 30
0.0
 10
2172.100653027394
 20
1723.374746983231
 30
0.0
 10
2171.613533788998
 20
1723.374746983231
 30
0.0
 10
2170.774978833494
 20
1723.374746983229
 30
0.0
 10
2169.381056296994
 20
1723.374746983231
 30
0.0
 10
2168.247835965293
 20
1723.374746983229
 30
0.0
 10
2167.152219071192
 20
1723.374746983232
 30
0.0
 10
2166.196778460494
 20
1723.374746983231
 30
0.0
 10
2165.116427625393
 20
1723.374746983231
 30
0.0
 10
2163.895364924593
 20
1723.374746983231
 30
0.0
 10
2162.761037180694
 20
1723.374746983231
 30
0.0
 10
2161.673782591394
 20
1723.374746983231
 30
0.0
 10
2160.096911556393
 20
1723.374746983229
 30
0.0
 10
2158.281125232492
 20
1723.374746983231
 30
0.0
 10
2156.173935423391
 20
1723.374746983231
 30
0.0
 10
2155.063521013192
 20
1723.374746983229
 30
0.0
 10
2154.247884629193
 20
1723.374746983231
 30
0.0
 10
2153.613035932493
 20
1723.374746983229
 30
0.0
 10
2152.941762014495
 20
1723.374746983232
 30
0.0
 10
2152.232695146895
 20
1723.374746983229
 30
0.0
 10
2151.684624209093
 20
1723.37474698323
 30
0.0
 10
2151.145899789996
 20
1723.374746983231
 30
0.0
 10
2150.421359183993
 20
1723.374746983229
 30
0.0
 10
2149.473949837897
 20
1723.374746983231
 30
0.0
 10
2148.292663878596
 20
1723.374746983229
 30
0.0
 10
2147.083642706594
 20
1723.374746983231
 30
0.0
 10
2145.806741945795
 20
1723.374746983229
 30
0.0
 10
2144.449215599593
 20
1723.374746983231
 30
0.0
 10
2143.021640110296
 20
1723.374746983231
 30
0.0
 10
2141.572875000095
 20
1723.374746983231
 30
0.0
 10
2139.075305753493
 20
1723.37474698323
 30
0.0
 10
2135.899209438393
 20
1723.374746983231
 30
0.0
 10
2132.016211591892
 20
1723.374746983229
 30
0.0
 10
2128.436457863991
 20
1723.374746983231
 30
0.0
 10
2124.677219214093
 20
1723.374746983229
 30
0.0
 10
2120.773171787693
 20
1723.37474698323
 30
0.0
 10
2116.859136273292
 20
1723.374746983229
 30
0.0
 10
2111.454075968094
 20
1723.374746983231
 30
0.0
 10
2104.469916450893
 20
1723.37474698323
 30
0.0
 10
2095.892018132392
 20
1723.374746983231
 30
0.0
 10
2085.178835058492
 20
1723.37474698323
 30
0.0
 10
2072.350947676793
 20
1723.374746983231
 30
0.0
 10
2059.214140222288
 20
1723.374746983229
 30
0.0
 10
2051.049725696787
 20
1723.374746983229
 30
0.0
 10
2047.864631748382
 20
1723.37474698323
 30
0.0
  0
SPLINE
  5
14A
330
1F
100
AcDbEntity
  8
0
  6
Continuous
 62
     7
370
    15
100
AcDbSpline
210
0.0
220
0.0
230
1.0
 70
     8
 71
     3
 72
   232
 73
   228
 74
     0
 42
0.000000001
 43
0.00000001
 40
0.0
 40
0.0
 40
0.0
 40
0.0
 40
0.0000593046158984
 40
0.0015074150964881
 40
0.0028696060354749
 40
0.0042977144891084
 40
0.0059286697771286
 40
0.007563517836795
 40
0.0087448962001524
 40
0.0096845722968138
 40
0.0107406060995715
 40
0.011960733100872
 40
0.0133269275086782
 40
0.0146866067394952
 40
0.0161188520674425
 40
0.0174974352893925
 40
0.0187945209823392
 40
0.020002677878492
 40
0.0211555385708751
 40
0.0224879449634886
 40
0.0240472535769325
 40
0.025938798269409
 40
0.0276478976721115
 40
0.0291316700625058
 40
0.0305871364163211
 40
0.0322866552229777
 40
0.0353167078564052
 40
0.0377971488879161
 40
0.0403604700238859
 40
0.0432213513213506
 40
0.0460858074987835
 40
0.0488276149302335
 40
0.0514212850103875
 40
0.0538437246006591
 40
0.0561233285201769
 40
0.0584529047164973
 40
0.0608728062340835
 40
0.0634987579747344
 40
0.0664074644429548
 40
0.0696106331554181
 40
0.0714836809002828
 40
0.0731952073754536
 40
0.0746527001829512
 40
0.075851842459499
 40
0.0767881515064937
 40
0.0774792137046708
 40
0.0781749238577681
 40
0.0789477410916681
 40
0.0808195856378222
 40
0.0830035484742278
 40
0.0853436425886152
 40
0.0887046153296295
 40
0.0923487566782337
 40
0.0962702490755911
 40
0.1004739375959635
 40
0.1042670997183398
 40
0.1082870514318518
 40
0.1125273763532699
 40
0.1170020804520328
 40
0.1216992472476703
 40
0.1263988719709172
 40
0.1318364099976956
 40
0.1371735806640721
 40
0.142392941963308
 40
0.1474477878044418
 40
0.1524167429292916
 40
0.1571515398626145
 40
0.1615907688527629
 40
0.1657546809740728
 40
0.1696566925096369
 40
0.1720752055554271
 40
0.1743064290297786
 40
0.1762795154888494
 40
0.1779995966015556
 40
0.1794709999895767
 40
0.180697347425757
 40
0.1815532151148869
 40
0.1822816857462325
 40
0.1829639236643968
 40
0.1838512933842424
 40
0.1849693069245034
 40
0.1863156834463853
 40
0.1878877841676638
 40
0.1896826730020703
 40
0.1920628712373432
 40
0.1947384233175274
 40
0.1977033221043781
 40
0.2009512994157049
 40
0.2044725725579219
 40
0.2080644911001632
 40
0.216366703306402
 40
0.224457991405528
 40
0.2338405642777382
 40
0.2429802254017098
 40
0.2519003597864721
 40
0.2612354751295706
 40
0.2703598127726226
 40
0.2792889260385731
 40
0.2880348647584925
 40
0.2966082018645709
 40
0.3061727815426381
 40
0.3154344551257079
 40
0.3243876245537385
 40
0.3330416169352083
 40
0.3414039008261511
 40
0.3493391122328294
 40
0.3570043590715478
 40
0.364404150119101
 40
0.3715424837164448
 40
0.3784229180381425
 40
0.3850485996121704
 40
0.3915926364232631
 40
0.3984761167203277
 40
0.406070223462053
 40
0.4140537630670178
 40
0.4224244906260926
 40
0.4303510083909877
 40
0.4385934663255851
 40
0.4471508980261354
 40
0.4560221672439053
 40
0.4652042983217894
 40
0.4746933748898625
 40
0.482361593128887
 40
0.4902169539899497
 40
0.4982087725562632
 40
0.5060813453437526
 40
0.5138103999102756
 40
0.5214023149704806
 40
0.5327569438959472
 40
0.5437860395814738
 40
0.5544853953253285
 40
0.5648528465799896
 40
0.5748872705188893
 40
0.5845873470688826
 40
0.5939516603612103
 40
0.6010575228999379
 40
0.6079553072369127
 40
0.6146441492704909
 40
0.6211230854663533
 40
0.6274952126490734
 40
0.6339519639622628
 40
0.6406278072499474
 40
0.6475262335979938
 40
0.6546513101628244
 40
0.662159654485563
 40
0.6699123490519723
 40
0.6779139529016819
 40
0.6861695876261933
 40
0.6946859953794944
 40
0.7034736422730568
 40
0.7125451529696013
 40
0.7204299769616799
 40
0.7285361488080484
 40
0.7368712505757743
 40
0.7454431893281634
 40
0.75403481926672
 40
0.7625208487985845
 40
0.7723958301790428
 40
0.7821388751776661
 40
0.7917627034999443
 40
0.8012736380984599
 40
0.8084123876208436
 40
0.8154948985160426
 40
0.8225224416580511
 40
0.829497792540537
 40
0.8364216446095336
 40
0.8432731188512136
 40
0.8499349672557958
 40
0.8563620787218513
 40
0.862568768945706
 40
0.8686340822270656
 40
0.8745681589529909
 40
0.8803558224230184
 40
0.8852007058592518
 40
0.8899379281759536
 40
0.8945679672320554
 40
0.899083933556472
 40
0.9034898979555777
 40
0.9077424556202444
 40
0.9117563775452251
 40
0.9136410421937873
 40
0.9154763315491482
 40
0.9172624453940481
 40
0.9189972743060851
 40
0.92057451870104
 40
0.9219390690209849
 40
0.9231611025781438
 40
0.924606720310203
 40
0.9264148493856704
 40
0.9285194379284325
 40
0.930924221437805
 40
0.9336055338383751
 40
0.9365395778207938
 40
0.9397045600790502
 40
0.9429148602556708
 40
0.9463149000879766
 40
0.9497520191775265
 40
0.9529073208506436
 40
0.955127264466616
 40
0.9571011705651233
 40
0.9590436634945079
 40
0.9611066321250398
 40
0.9637704206313137
 40
0.9661749732313539
 40
0.9685011462543283
 40
0.9709466298611665
 40
0.9730301042591684
 40
0.9752739195743862
 40
0.9773625614324623
 40
0.9790607253239562
 40
0.9799635548108877
 40
0.9810343892559317
 40
0.9822765572383814
 40
0.9836891531508225
 40
0.9850238676957478
 40
0.9860878780691829
 40
0.9869063029779463
 40
0.987599390649767
 40
0.9884997369417577
 40
0.9898642731727303
 40
0.991465261100112
 40
0.9929845483851406
 40
0.9943892386068168
 40
0.995682247589339
 40
0.996959493427348
 40
0.9990489048696934
 40
0.9999999999999999
 40
0.9999999999999999
 40
0.9999999999999999
 40
0.9999999999999999
 10
1605.67187602529
 20
603.9030028057059
 30
0.0
 10
1605.671919460188
 20
603.902900469081
 30
0.0
 10
1605.673023496016
 20
603.900299258853
 30
0.0
 10
1605.669274903728
 20
603.9094077109534
 30
0.0
 10
1605.66015461026
 20
603.932085540419
 30
0.0
 10
1605.641981773564
 20
603.9777550950251
 30
0.0
 10
1605.615292422047
 20
604.0457680940358
 30
0.0
 10
1605.584103086993
 20
604.1261503577094
 30
0.0
 10
1605.55361790051
 20
604.2053235800212
 30
0.0
 10
1605.522615063581
 20
604.2862661981451
 30
0.0
 10
1605.489645327708
 20
604.3727292125533
 30
0.0
 10
1605.450225656268
 20
604.4765569852605
 30
0.0
 10
1605.405152856348
 20
604.5957879461702
 30
0.0
 10
1605.354924753427
 20
604.729212583169
 30
0.0
 10
1605.301543021026
 20
604.871619202593
 30
0.0
 10
1605.245715028594
 20
605.0211807304493
 30
0.0
 10
1605.190243963611
 20
605.1702658436415
 30
0.0
 10
1605.135513287966
 20
605.3177097872466
 30
0.0
 10
1605.077962514201
 20
605.4730175084251
 30
0.0
 10
1605.010279078063
 20
605.6559205139584
 30
0.0
 10
1604.925049905592
 20
605.8864991255924
 30
0.0
 10
1604.826859723168
 20
606.1522269991593
 30
0.0
 10
1604.724206595003
 20
606.4296587282566
 30
0.0
 10
1604.625344210946
 20
606.6962459904252
 30
0.0
 10
1604.521024684787
 20
606.9767600640894
 30
0.0
 10
1604.373469714487
 20
607.3720674430348
 30
0.0
 10
1604.188931424959
 20
607.8629331152582
 30
0.0
 10
1603.966097724354
 20
608.4489242705123
 30
0.0
 10
1603.733012193223
 20
609.0545551246904
 30
0.0
 10
1603.473137188276
 20
609.7197320826319
 30
0.0
 10
1603.191133190207
 20
610.4289692623395
 30
0.0
 10
1602.901712985312
 20
611.1437575880863
 30
0.0
 10
1602.611530087499
 20
611.8468595053657
 30
0.0
 10
1602.32578503313
 20
612.5265816459117
 30
0.0
 10
1602.037839268258
 20
613.1987673974264
 30
0.0
 10
1601.736755819146
 20
613.888304324869
 30
0.0
 10
1601.407566726707
 20
614.6271467896566
 30
0.0
 10
1601.037841595947
 20
615.4391584357321
 30
0.0
 10
1600.613226531645
 20
616.348674349739
 30
0.0
 10
1600.206820630923
 20
617.1942418473632
 30
0.0
 10
1599.847857884162
 20
617.9228052480125
 30
0.0
 10
1599.574348608239
 20
618.468189117803
 30
0.0
 10
1599.332191445011
 20
618.9432665025987
 30
0.0
 10
1599.129488755144
 20
619.3355339794598
 30
0.0
 10
1598.967878346474
 20
619.6449885488017
 30
0.0
 10
1598.833804023529
 20
619.8996201543455
 30
0.0
 10
1598.707903486669
 20
620.137029008329
 30
0.0
 10
1598.511174487208
 20
620.5051873629068
 30
0.0
 10
1598.221786336112
 20
621.0395368964745
 30
0.0
 10
1597.828760463907
 20
621.7503754419844
 30
0.0
 10
1597.330855748
 20
622.6297342192631
 30
0.0
 10
1596.720245227342
 20
623.6756393027704
 30
0.0
 10
1595.977740633697
 20
624.8989777414833
 30
0.0
 10
1595.147380394217
 20
626.2133158277525
 30
0.0
 10
1594.27073016273
 20
627.5380409523538
 30
0.0
 10
1593.353287785051
 20
628.8643572032835
 30
0.0
 10
1592.399203630515
 20
630.1833356022026
 30
0.0
 10
1591.354131101143
 20
631.5609437264663
 30
0.0
 10
1590.21213861052
 20
632.9911952279894
 30
0.0
 10
1588.986507369911
 20
634.4444927184874
 30
0.0
 10
1587.627067406343
 20
635.9659570415788
 30
0.0
 10
1586.155347310639
 20
637.5122065844417
 30
0.0
 10
1584.575832908501
 20
639.0610086563905
 30
0.0
 10
1582.978706083022
 20
640.5205958060416
 30
0.0
 10
1581.368966574216
 20
641.8930032764135
 30
0.0
 10
1579.763996510888
 20
643.169396599097
 30
0.0
 10
1578.185385878749
 20
644.3427544425448
 30
0.0
 10
1576.662455593513
 20
645.4037723433737
 30
0.0
 10
1575.208130330346
 20
646.361089377289
 30
0.0
 10
1573.968982473531
 20
647.1339815851214
 30
0.0
 10
1572.946531699779
 20
647.7457761027804
 30
0.0
 10
1572.148318327327
 20
648.2090972344844
 30
0.0
 10
1571.429372682658
 20
648.6152083669041
 30
0.0
 10
1570.799032676623
 20
648.9629448357792
 30
0.0
 10
1570.257280924823
 20
649.2558273153707
 30
0.0
 10
1569.819832101879
 20
649.4883481410914
 30
0.0
 10
1569.472848853341
 20
649.6703862756076
 30
0.0
 10
1569.192430828328
 20
649.8160461028042
 30
0.0
 10
1568.907575868078
 20
649.9627065314186
 30
0.0
 10
1568.573775683128
 20
650.1328832639523
 30
0.0
 10
1568.15641393545
 20
650.3430052538465
 30
0.0
 10
1567.652224627764
 20
650.5929617190179
 30
0.0
 10
1567.061371803775
 20
650.8806065263423
 30
0.0
 10
1566.338038227581
 20
651.2254777592035
 30
0.0
 10
1565.471719091162
 20
651.628037939118
 30
0.0
 10
1564.451879816002
 20
652.0874496290678
 30
0.0
 10
1563.315184261726
 20
652.5821509702013
 30
0.0
 10
1562.062973059137
 20
653.1070218551499
 30
0.0
 10
1560.722135686296
 20
653.646650566035
 30
0.0
 10
1558.715627863126
 20
654.4205743697393
 30
0.0
 10
1556.09074149077
 20
655.3631387193863
 30
0.0
 10
1552.670745401264
 20
656.4788680462898
 30
0.0
 10
1549.106965882899
 20
657.5274523851386
 30
0.0
 10
1545.403650863326
 20
658.5071434119941
 30
0.0
 10
1541.683437104554
 20
659.3930161578834
 30
0.0
 10
1537.945799545553
 20
660.1925486448476
 30
0.0
 10
1534.190983768849
 20
660.9136478598243
 30
0.0
 10
1530.504496355245
 20
661.5508106889124
 30
0.0
 10
1526.883739583393
 20
662.1131106542877
 30
0.0
 10
1523.167005645495
 20
662.6318439187174
 30
0.0
 10
1519.371782811829
 20
663.1052802149501
 30
0.0
 10
1515.517775378494
 20
663.532081432542
 30
0.0
 10
1511.785349365284
 20
663.8986735844818
 30
0.0
 10
1508.174273555421
 20
664.2135381120199
 30
0.0
 10
1504.702020837427
 20
664.4821682521949
 30
0.0
 10
1501.365340096464
 20
664.7116495739253
 30
0.0
 10
1498.161173157906
 20
664.9079000781838
 30
0.0
 10
1495.066853835887
 20
665.0762814719305
 30
0.0
 10
1492.081024095893
 20
665.2204223952525
 30
0.0
 10
1489.202442981687
 20
665.3435478624205
 30
0.0
 10
1486.406244699316
 20
665.4494789843161
 30
0.0
 10
1483.609219003886
 20
665.5430473312075
 30
0.0
 10
1480.676580741152
 20
665.6288419416903
 30
0.0
 10
1477.542673256862
 20
665.7074922222894
 30
0.0
 10
1474.200843165605
 20
665.7778813657178
 30
0.0
 10
1470.812298228976
 20
665.8366023665905
 30
0.0
 10
1467.387367717511
 20
665.8843740346692
 30
0.0
 10
1463.936189311249
 20
665.9220346525574
 30
0.0
 10
1460.352998973652
 20
665.9511023414909
 30
0.0
 10
1456.638538203869
 20
665.9718576396974
 30
0.0
 10
1452.793958681759
 20
665.9853844225505
 30
0.0
 10
1449.117264323216
 20
665.9926338037754
 30
0.0
 10
1445.625750139928
 20
665.9966188837425
 30
0.0
 10
1442.343226090064
 20
665.9990890440001
 30
0.0
 10
1439.032170532044
 20
666.0001357801384
 30
0.0
 10
1435.738745847176
 20
665.9997529763236
 30
0.0
 10
1432.501145624339
 20
665.9979900794792
 30
0.0
 10
1428.777487867161
 20
665.9944405666909
 30
0.0
 10
1424.593187241968
 20
665.9864556811752
 30
0.0
 10
1419.975155611522
 20
665.9687316057978
 30
0.0
 10
1415.49499613329
 20
665.9397966920144
 30
0.0
 10
1411.1538046269
 20
665.8979130920103
 30
0.0
 10
1406.95228587704
 20
665.8419544969956
 30
0.0
 10
1402.89104857076
 20
665.7713412125596
 30
0.0
 10
1399.238873500653
 20
665.6914487592278
 30
0.0
 10
1395.978134031054
 20
665.6056096732763
 30
0.0
 10
1393.091070351825
 20
665.5176889339294
 30
0.0
 10
1390.291876808064
 20
665.4203244611176
 30
0.0
 10
1387.566470423446
 20
665.3132748276515
 30
0.0
 10
1384.873967481569
 20
665.194810025547
 30
0.0
 10
1382.154656553699
 20
665.061511239744
 30
0.0
 10
1379.362772606606
 20
664.9093567363685
 30
0.0
 10
1376.478765507829
 20
664.7344973793245
 30
0.0
 10
1373.480077382467
 20
664.5323017657266
 30
0.0
 10
1370.364107504031
 20
664.298425018667
 30
0.0
 10
1367.128330669384
 20
664.0276956294862
 30
0.0
 10
1363.791401595601
 20
663.7166175095551
 30
0.0
 10
1360.351854191995
 20
663.359756320057
 30
0.0
 10
1356.80761557649
 20
662.950789496487
 30
0.0
 10
1353.156096395582
 20
662.4804554531706
 30
0.0
 10
1349.59920612923
 20
661.968186989411
 30
0.0
 10
1346.14451650363
 20
661.4164746513853
 30
0.0
 10
1342.799919590661
 20
660.829363204408
 30
0.0
 10
1339.371735026529
 20
660.1662404238018
 30
0.0
 10
1335.890591530266
 20
659.4230954790274
 30
0.0
 10
1332.405434020997
 20
658.6012610128851
 30
0.0
 10
1328.764072170596
 20
657.6535007284074
 30
0.0
 10
1324.995045284617
 20
656.563024784824
 30
0.0
 10
1321.11162957827
 20
655.3042678503949
 30
0.0
 10
1317.322093315507
 20
653.9294472762913
 30
0.0
 10
1313.924167166006
 20
652.5499192012636
 30
0.0
 10
1310.903020066805
 20
651.1941834896538
 30
0.0
 10
1308.240165767883
 20
649.8922579995676
 30
0.0
 10
1305.645559900861
 20
648.5093146248224
 30
0.0
 10
1303.12499296979
 20
647.0421806505675
 30
0.0
 10
1300.685804094893
 20
645.4924067588607
 30
0.0
 10
1298.350837407163
 20
643.8692297811698
 30
0.0
 10
1296.144435626354
 20
642.1930006348701
 30
0.0
 10
1294.079733860695
 20
640.4888594576954
 30
0.0
 10
1292.14840229523
 20
638.7636818247744
 30
0.0
 10
1290.336512740287
 20
637.0189612238129
 30
0.0
 10
1288.634194927465
 20
635.2565919115858
 30
0.0
 10
1287.112905295408
 20
633.5671652418423
 30
0.0
 10
1285.757082463784
 20
631.96392287903
 30
0.0
 10
1284.550698482771
 20
630.4548230381351
 30
0.0
 10
1283.418115263827
 20
628.9585708255411
 30
0.0
 10
1282.35696551702
 20
627.4802864588622
 30
0.0
 10
1281.367874550772
 20
626.0296273046878
 30
0.0
 10
1280.456798527304
 20
624.6255859433926
 30
0.0
 10
1279.757992215843
 20
623.4973487677271
 30
0.0
 10
1279.243212456681
 20
622.637932454729
 30
0.0
 10
1278.884707731706
 20
622.0269835018703
 30
0.0
 10
1278.543489699182
 20
621.4337279742226
 30
0.0
 10
1278.225731693247
 20
620.8704797034362
 30
0.0
 10
1277.940141921901
 20
620.3551957813884
 30
0.0
 10
1277.690570168142
 20
619.8976090546753
 30
0.0
 10
1277.453021733312
 20
619.4559673129258
 30
0.0
 10
1277.194075491702
 20
618.9676835903771
 30
0.0
 10
1276.890920769182
 20
618.385814442867
 30
0.0
 10
1276.543066909246
 20
617.7043204479795
 30
0.0
 10
1276.160601299936
 20
616.9371423529021
 30
0.0
 10
1275.748948990095
 20
616.0901290218677
 30
0.0
 10
1275.318189251647
 20
615.178187837472
 30
0.0
 10
1274.883302491642
 20
614.2305355428875
 30
0.0
 10
1274.450360707998
 20
613.2584145895092
 30
0.0
 10
1274.031993996758
 20
612.2907730591612
 30
0.0
 10
1273.642801882837
 20
611.3647122279123
 30
0.0
 10
1273.322127575188
 20
610.5815734889139
 30
0.0
 10
1273.069045934439
 20
609.9514583111065
 30
0.0
 10
1272.866601887946
 20
609.4399248267315
 30
0.0
 10
1272.678274149667
 20
608.9577905273032
 30
0.0
 10
1272.478642924221
 20
608.4404494592413
 30
0.0
 10
1272.277729414215
 20
607.9128496832426
 30
0.0
 10
1272.082157455953
 20
607.3928995665609
 30
0.0
 10
1271.905810260163
 20
606.919526935366
 30
0.0
 10
1271.751176741202
 20
606.5011681553082
 30
0.0
 10
1271.61002247323
 20
606.1173498405709
 30
0.0
 10
1271.486286796356
 20
605.779890489873
 30
0.0
 10
1271.378845012899
 20
605.4863746880989
 30
0.0
 10
1271.30203178873
 20
605.2765275837431
 30
0.0
 10
1271.24581775323
 20
605.1230894042897
 30
0.0
 10
1271.197936862639
 20
604.9925401705153
 30
0.0
 10
1271.144714624791
 20
604.8477200281483
 30
0.0
 10
1271.090268570513
 20
604.6999505688207
 30
0.0
 10
1271.040829735924
 20
604.5661429740093
 30
0.0
 10
1271.001055075813
 20
604.4587900632409
 30
0.0
 10
1270.970358357325
 20
604.3761465552294
 30
0.0
 10
1270.942985345941
 20
604.3026161928725
 30
0.0
 10
1270.91184949783
 20
604.219176194282
 30
0.0
 10
1270.873779636416
 20
604.1174815393895
 30
0.0
 10
1270.832971040913
 20
604.0089776481138
 30
0.0
 10
1270.797407348589
 20
603.9151628020048
 30
0.0
 10
1270.769718727725
 20
603.8428159742892
 30
0.0
 10
1270.749020134722
 20
603.7892837379953
 30
0.0
 10
1270.732297656294
 20
603.746427091435
 30
0.0
 10
1270.722376866104
 20
603.7215442765364
 30
0.0
 10
1270.724032120919
 20
603.7255031814477
 30
0.0
 10
1270.724549898057
 20
603.7267415590314
 30
0.0
  0
SPLINE
  5
14B
330
1F
100
AcDbEntity
  8
0
  6
Continuous
 62
     7
370
    15
100
AcDbSpline
210
0.0
220
0.0
230
1.0
 70
     8
 71
     3
 72
   138
 73
   134
 74
     0
 42
0.000000001
 43
0.00000001
 40
0.0
 40
0.0
 40
0.0
 40
0.0
 40
0.0024698612676291
 40
0.0059145884774222
 40
0.0095636416692614
 40
0.0132135868369414
 40
0.0146314249214934
 40
0.0161448334371454
 40
0.0178414488340948
 40
0.0197215035250176
 40
0.0216559749520056
 40
0.0233381945025763
 40
0.0247954533575726
 40
0.0260431330978419
 40
0.0273542469906115
 40
0.0295111092771134
 40
0.031962644630107
 40
0.0343873422799654
 40
0.036714789616233
 40
0.0389566566263023
 40
0.0418700590794214
 40
0.0448976814426681
 40
0.0479363902326291
 40
0.0507495055502884
 40
0.0533506894480883
 40
0.0559309932066738
 40
0.0585977391578163
 40
0.0614214895044656
 40
0.0645405572058722
 40
0.0664467242557733
 40
0.068450466324243
 40
0.0705522201085609
 40
0.0725653506886252
 40
0.0742384856555511
 40
0.0755693826281762
 40
0.0765021063825583
 40
0.0771359040781946
 40
0.0777009633212497
 40
0.0783954734703888
 40
0.0792195419379435
 40
0.0801732992614496
 40
0.0819344563326501
 40
0.0840169891310635
 40
0.0864217882521268
 40
0.0918048986531108
 40
0.097271157088691
 40
0.1028287397755953
 40
0.1084835073187931
 40
0.1142386391266314
 40
0.1200962988161242
 40
0.1270519841652724
 40
0.1339146675909536
 40
0.1406523951982747
 40
0.1472604974296797
 40
0.1551533339694412
 40
0.1628471766197412
 40
0.1703476182306232
 40
0.1778395689757029
 40
0.1854353975459281
 40
0.1931439524865805
 40
0.2009600479918601
 40
0.2118873265097498
 40
0.2230416782347718
 40
0.2344219022694991
 40
0.246019412143285
 40
0.2554574118675967
 40
0.26491380482548
 40
0.2741491884999601
 40
0.2831566194018598
 40
0.2919346876126407
 40
0.3030828149886625
 40
0.3138393070183086
 40
0.3241994201295194
 40
0.3338090276170017
 40
0.3430386408217627
 40
0.3518934157856894
 40
0.3603602290701011
 40
0.3684315012120435
 40
0.3761125266835196
 40
0.3818526087560599
 40
0.3875232032336108
 40
0.3933638605326087
 40
0.3993650763265122
 40
0.4055189338078138
 40
0.4118718265637956
 40
0.4182917357349596
 40
0.4249144190723588
 40
0.4317795404134546
 40
0.4389090453035457
 40
0.446288305524157
 40
0.4538777889136952
 40
0.4614904832152074
 40
0.4690669227948024
 40
0.4765813414961432
 40
0.4840265447889447
 40
0.4914051084120307
 40
0.4987170571965829
 40
0.5059598668429012
 40
0.5131374825000774
 40
0.5224436908805261
 40
0.5317283719449736
 40
0.5410120192199078
 40
0.5503064912033099
 40
0.5596242214782567
 40
0.5689753372678779
 40
0.5800522647235312
 40
0.5912046402410372
 40
0.6024454568210512
 40
0.613785757793124
 40
0.6286761002864442
 40
0.6437680341287481
 40
0.6590771045947592
 40
0.6746141134401858
 40
0.690389645366413
 40
0.7063199824540403
 40
0.722151650799371
 40
0.7451372255555954
 40
0.767927030895334
 40
0.7905426568491041
 40
0.8130011336266096
 40
0.8352963370332094
 40
0.8574791211498147
 40
0.8724530517042884
 40
0.8874815243398286
 40
0.9025596656798457
 40
0.9175388111563755
 40
0.9321668040600923
 40
0.9464389254460531
 40
0.9603539977056007
 40
0.9739106844297383
 40
0.9871089235306748
 40
0.999949092107874
 40
1.0
 40
1.0
 40
1.0
 40
1.0
 10
1266.936011457724
 20
548.311132645029
 30
0.0
 10
1266.936084893864
 20
548.3106803011548
 30
0.0
 10
1266.936260751735
 20
548.3095970711361
 30
0.0
 10
1266.947437216586
 20
548.2399441738585
 30
0.0
 10
1266.965890226752
 20
548.1150232814033
 30
0.0
 10
1266.986624397163
 20
547.9645857894568
 30
0.0
 10
1267.004096836017
 20
547.8315192245952
 30
0.0
 10
1267.017640327613
 20
547.7258200488985
 30
0.0
 10
1267.033685391053
 20
547.5971571745542
 30
0.0
 10
1267.052220296204
 20
547.4441465148258
 30
0.0
 10
1267.071703771646
 20
547.2784228659557
 30
0.0
 10
1267.090407757908
 20
547.1149692920333
 30
0.0
 10
1267.107213960062
 20
546.9647567477942
 30
0.0
 10
1267.123181086307
 20
546.8193197819967
 30
0.0
 10
1267.142739137812
 20
546.6380064849734
 30
0.0
 10
1267.168331941949
 20
546.3951529621988
 30
0.0
 10
1267.200047166269
 20
546.0851014630715
 30
0.0
 10
1267.233622659858
 20
545.7469423788973
 30
0.0
 10
1267.267294936621
 20
545.398385513921
 30
0.0
 10
1267.304380421316
 20
545.0047645283515
 30
0.0
 10
1267.346560185835
 20
544.5448538284587
 30
0.0
 10
1267.394707379922
 20
544.0039763843293
 30
0.0
 10
1267.443926265931
 20
543.4348147067597
 30
0.0
 10
1267.491799908667
 20
542.8663482614772
 30
0.0
 10
1267.538030268128
 20
542.3043846951435
 30
0.0
 10
1267.584406094932
 20
541.7283026470367
 30
0.0
 10
1267.633030873642
 20
541.1112680113692
 30
0.0
 10
1267.685848812846
 20
540.4264069168964
 30
0.0
 10
1267.734801526765
 20
539.7771965400727
 30
0.0
 10
1267.779136293281
 20
539.1782449734116
 30
0.0
 10
1267.81735403249
 20
538.654640315822
 30
0.0
 10
1267.856533161873
 20
538.1100285199262
 30
0.0
 10
1267.893802724986
 20
537.5844626787836
 30
0.0
 10
1267.926230656424
 20
537.1213060165358
 30
0.0
 10
1267.951752183755
 20
536.753012164763
 30
0.0
 10
1267.970580961256
 20
536.4791875736062
 30
0.0
 10
1267.984470424482
 20
536.2761116992423
 30
0.0
 10
1267.99686444195
 20
536.0941561795341
 30
0.0
 10
1268.010529799978
 20
535.8926693103551
 30
0.0
 10
1268.026770605923
 20
535.6519621899039
 30
0.0
 10
1268.05004391165
 20
535.3049204752227
 30
0.0
 10
1268.08162491865
 20
534.8296088788454
 30
0.0
 10
1268.122763917886
 20
534.2022121996837
 30
0.0
 10
1268.187688179034
 20
533.1967234791355
 30
0.0
 10
1268.274489557856
 20
531.814920390905
 30
0.0
 10
1268.381237836659
 20
530.0561007070501
 30
0.0
 10
1268.489245283521
 20
528.2242857975791
 30
0.0
 10
1268.598794127769
 20
526.3234378502059
 30
0.0
 10
1268.710303931362
 20
524.357515296523
 30
0.0
 10
1268.830783138727
 20
522.216428067997
 30
0.0
 10
1268.959791971462
 20
519.9216937134722
 30
0.0
 10
1269.097280719533
 20
517.501916207821
 30
0.0
 10
1269.235917196756
 20
515.1058094811046
 30
0.0
 10
1269.386045414339
 20
512.5728941566389
 30
0.0
 10
1269.548919480861
 20
509.9124323132668
 30
0.0
 10
1269.726374047409
 20
507.1338173456229
 30
0.0
 10
1269.909806708834
 20
504.3959856990853
 30
0.0
 10
1270.102795576201
 20
501.6660880096053
 30
0.0
 10
1270.309468195978
 20
498.9090586708368
 30
0.0
 10
1270.532889400121
 20
496.1122606720958
 30
0.0
 10
1270.806434022562
 20
492.913142041294
 30
0.0
 10
1271.142519182356
 20
489.2993955207933
 30
0.0
 10
1271.559264416272
 20
485.2594979416808
 30
0.0
 10
1272.032367364347
 20
481.1446894059408
 30
0.0
 10
1272.533327203313
 20
477.2438096866971
 30
0.0
 10
1273.055088226055
 20
473.5820788543979
 30
0.0
 10
1273.580589245006
 20
470.210912753019
 30
0.0
 10
1274.143869550232
 20
466.8981179215849
 30
0.0
 10
1274.740493336747
 20
463.6744131387657
 30
0.0
 10
1275.431332463148
 20
460.2320923593732
 30
0.0
 10
1276.229540573015
 20
456.5948319648315
 30
0.0
 10
1277.151198494745
 20
452.7885303337643
 30
0.0
 10
1278.110282199027
 20
449.1840384405938
 30
0.0
 10
1279.100481903655
 20
445.7804476462332
 30
0.0
 10
1280.114141975027
 20
442.5749277489033
 30
0.0
 10
1281.159817763719
 20
439.5262217438512
 30
0.0
 10
1282.230708522928
 20
436.6362331714447
 30
0.0
 10
1283.320678166937
 20
433.9070092894101
 30
0.0
 10
1284.349471239272
 20
431.5115120440663
 30
0.0
 10
1285.310715611673
 20
429.4062533228509
 30
0.0
 10
1286.219253983965
 20
427.5231985713177
 30
0.0
 10
1287.185728430616
 20
425.6327471342289
 30
0.0
 10
1288.227069705605
 20
423.7151086839664
 30
0.0
 10
1289.350233175943
 20
421.7716405300982
 30
0.0
 10
1290.554822404922
 20
419.8171472006879
 30
0.0
 10
1291.851128725594
 20
417.853214345646
 30
0.0
 10
1293.248605818716
 20
415.8827795047681
 30
0.0
 10
1294.768958016225
 20
413.8954330927974
 30
0.0
 10
1296.426803031976
 20
411.8998011996901
 30
0.0
 10
1298.228609676906
 20
409.9122138491628
 30
0.0
 10
1300.163874112235
 20
407.970126619652
 30
0.0
 10
1302.207506537562
 20
406.106517528838
 30
0.0
 10
1304.329518120096
 20
404.346888781667
 30
0.0
 10
1306.510247995426
 20
402.6940928417976
 30
0.0
 10
1308.738699659356
 20
401.1480092001406
 30
0.0
 10
1311.006291424852
 20
399.7053110491524
 30
0.0
 10
1313.305196689565
 20
398.3612591766916
 30
0.0
 10
1315.627900265678
 20
397.1095817714
 30
0.0
 10
1318.206701613982
 20
395.826200230514
 30
0.0
 10
1321.055082934997
 20
394.5319485847047
 30
0.0
 10
1324.185224829776
 20
393.2457111195632
 30
0.0
 10
1327.355224042747
 20
392.0654968950084
 30
0.0
 10
1330.564119040318
 20
390.9832803514472
 30
0.0
 10
1333.810388117911
 20
389.9908959418796
 30
0.0
 10
1337.290121301924
 20
389.0266927004515
 30
0.0
 10
1341.010399679599
 20
388.1013109939557
 30
0.0
 10
1344.977623030517
 20
387.2246987442268
 30
0.0
 10
1348.99598746482
 20
386.4371627524212
 30
0.0
 10
1353.477372214811
 20
385.6588201179129
 30
0.0
 10
1358.438198003355
 20
384.9159384259587
 30
0.0
 10
1363.892671671958
 20
384.2275486323453
 30
0.0
 10
1369.437976887884
 20
383.6414197597334
 30
0.0
 10
1375.075820008567
 20
383.1509877877077
 30
0.0
 10
1380.796032109749
 20
382.7462332177623
 30
0.0
 10
1386.557148153832
 20
382.4212293264066
 30
0.0
 10
1393.196128179987
 20
382.1283106420573
 30
0.0
 10
1400.670640249312
 20
381.8925383727781
 30
0.0
 10
1408.970734546673
 20
381.7308714186632
 30
0.0
 10
1417.207968214522
 20
381.6451116020891
 30
0.0
 10
1425.385533871494
 20
381.6056618152004
 30
0.0
 10
1433.510666253855
 20
381.6014104586169
 30
0.0
 10
1440.727285432804
 20
381.5978619600839
 30
0.0
 10
1447.061820694561
 20
381.602358723519
 30
0.0
 10
1452.533927877102
 20
381.6162601992543
 30
0.0
 10
1458.006597633668
 20
381.643975322283
 30
0.0
 10
1463.430503408691
 20
381.6931859090795
 30
0.0
 10
1468.756282705511
 20
381.7697954992565
 30
0.0
 10
1473.952368513611
 20
381.8773094918027
 30
0.0
 10
1479.017519736182
 20
382.0195819719586
 30
0.0
 10
1483.951223007521
 20
382.1960171068978
 30
0.0
 10
1488.752274584894
 20
382.4185054363332
 30
0.0
 10
1491.915148236809
 20
382.5809837892359
 30
0.0
 10
1493.476384281644
 20
382.6854777533704
 30
0.0
 10
1493.482549727667
 20
382.6858904083932
 30
0.0
  0
SPLINE
  5
14C
330
1F
100
AcDbEntity
  8
0
  6
Continuous
 62
     7
370
    15
100
AcDbSpline
210
0.0
220
0.0
230
1.0
 70
     8
 71
     3
 72
    63
 73
    59
 74
     0
 42
0.000000001
 43
0.00000001
 40
0.0
 40
0.0
 40
0.0
 40
0.0
 40
0.0003610457115317
 40
0.0211689532539919
 40
0.039258683201383
 40
0.0579651516586953
 40
0.0772874219242762
 40
0.096984236448584
 40
0.1127112427513892
 40
0.1286685113797414
 40
0.14486987001229
 40
0.1613181043773344
 40
0.1783050089529968
 40
0.1954841658085476
 40
0.2125445997104498
 40
0.2292445607603492
 40
0.2456287166921884
 40
0.2614162242104241
 40
0.276903584956502
 40
0.2920940356042614
 40
0.3069932477597605
 40
0.3259280048098513
 40
0.3444200922443297
 40
0.3625034107093268
 40
0.3802052148657328
 40
0.3975511577656005
 40
0.4146443192054564
 40
0.4315463631044737
 40
0.4577088089019014
 40
0.4834987577040259
 40
0.5089679693192289
 40
0.5341741370267105
 40
0.5591540716231536
 40
0.5915744693118685
 40
0.6237188870981056
 40
0.6556345236623115
 40
0.6657472212994817
 40
0.6761912991704623
 40
0.6874165642910339
 40
0.6994167005322571
 40
0.7121828861317935
 40
0.7257041020637569
 40
0.7425893013845599
 40
0.7604767598216512
 40
0.779360716153115
 40
0.7992253502421395
 40
0.8168155503977372
 40
0.8350797315073051
 40
0.8539853326467868
 40
0.8735236661534709
 40
0.8937024855563324
 40
0.9145123052618005
 40
0.9288749902168294
 40
0.9434651954495931
 40
0.9582579153351982
 40
0.9732450294829832
 40
0.9884222751615096
 40
1.0
 40
1.0
 40
1.0
 40
1.0
 10
1548.363597349885
 20
392.0975027836575
 30
0.0
 10
1548.382116990374
 20
392.1036844718078
 30
0.0
 10
1549.467966763106
 20
392.4661312847828
 30
0.0
 10
1551.453300446751
 20
393.2193579544185
 30
0.0
 10
1554.344407279472
 20
394.37608178863
 30
0.0
 10
1557.119923332818
 20
395.6012058987992
 30
0.0
 10
1559.929704901261
 20
396.9583236387079
 30
0.0
 10
1562.543096628071
 20
398.3497027296551
 30
0.0
 10
1564.945205054929
 20
399.7472319165547
 30
0.0
 10
1567.136688180109
 20
401.1288875649334
 30
0.0
 10
1569.30704378973
 20
402.6147755641978
 30
0.0
 10
1571.461461222461
 20
404.2197635730033
 30
0.0
 10
1573.587170516323
 20
405.9487035438836
 30
0.0
 10
1575.656863228522
 20
407.7952310914771
 30
0.0
 10
1577.628644772397
 20
409.7241890533618
 30
0.0
 10
1579.483492916745
 20
411.7074509893198
 30
0.0
 10
1581.209551429004
 20
413.7138211760294
 30
0.0
 10
1582.814834686997
 20
415.7349420008624
 30
0.0
 10
1584.307011919859
 20
417.7612854796868
 30
0.0
 10
1585.701129590257
 20
419.7983329956388
 30
0.0
 10
1587.128588722592
 20
422.0371048908518
 30
0.0
 10
1588.56814390841
 20
424.478572173187
 30
0.0
 10
1590.000975303131
 20
427.1218152360308
 30
0.0
 10
1591.313625978259
 20
429.7522073526606
 30
0.0
 10
1592.518359257769
 20
432.3653330433324
 30
0.0
 10
1593.628667449681
 20
434.9614607324251
 30
0.0
 10
1594.654279764129
 20
437.5455551613249
 30
0.0
 10
1595.781378399397
 20
440.6018728188666
 30
0.0
 10
1596.970750237113
 20
444.1359495430564
 30
0.0
 10
1598.181812829761
 20
448.1498016619581
 30
0.0
 10
1599.26377807581
 20
452.1466055332677
 30
0.0
 10
1600.234934291248
 20
456.126537325248
 30
0.0
 10
1601.19424968916
 20
460.4954956538226
 30
0.0
 10
1602.120409965684
 20
465.2551455761273
 30
0.0
 10
1602.996758921074
 20
470.405480399574
 30
0.0
 10
1603.587241671182
 20
474.3782600332701
 30
0.0
 10
1603.970930334112
 20
477.1934269722239
 30
0.0
 10
1604.193650287568
 20
478.8998153029052
 30
0.0
 10
1604.419185072086
 20
480.7087575743828
 30
0.0
 10
1604.648883547417
 20
482.6437380345193
 30
0.0
 10
1604.88097280363
 20
484.7034426947787
 30
0.0
 10
1605.128827488423
 20
487.02727891389
 30
0.0
 10
1605.389224822278
 20
489.6281730281216
 30
0.0
 10
1605.658874547763
 20
492.5190760682864
 30
0.0
 10
1605.92341589966
 20
495.5710704018799
 30
0.0
 10
1606.167623393696
 20
498.606646277065
 30
0.0
 10
1606.393110761769
 20
501.6071490307534
 30
0.0
 10
1606.601354633043
 20
504.5529137884212
 30
0.0
 10
1606.80458305891
 20
507.598059750901
 30
0.0
 10
1607.003414340529
 20
510.7368394394159
 30
0.0
 10
1607.19885573719
 20
513.9632654648924
 30
0.0
 10
1607.370207993244
 20
516.8960558614906
 30
0.0
 10
1607.520055903364
 20
519.5142953393378
 30
0.0
 10
1607.6494868912
 20
521.8001833579578
 30
0.0
 10
1607.779360305653
 20
524.0960510362557
 30
0.0
 10
1607.910343153549
 20
526.3896048200097
 30
0.0
 10
1608.031999167577
 20
528.486948152495
 30
0.0
 10
1608.110557872815
 20
529.7898328831461
 30
0.0
 10
1608.144552717711
 20
530.3536324544503
 30
0.0
  0
SPLINE
  5
14D
330
1F
100
AcDbEntity
  8
0
  6
Continuous
 62
     7
370
    15
100
AcDbSpline
210
0.0
220
0.0
230
1.0
 70
     8
 71
     3
 72
    58
 73
    54
 74
     0
 42
0.000000001
 43
0.00000001
 40
0.0
 40
0.0
 40
0.0
 40
0.0
 40
0.0357981605710817
 40
0.0681795547597019
 40
0.0971669287511683
 40
0.1227701644803371
 40
0.1449993791765156
 40
0.1668383240530763
 40
0.1840422942270995
 40
0.1967829613914362
 40
0.2091975703777896
 40
0.2317281405543898
 40
0.2579383870232728
 40
0.2844364177165323
 40
0.3133369505601665
 40
0.3411426836321163
 40
0.3671981664905942
 40
0.3977134735535031
 40
0.425415419981917
 40
0.4497167830983499
 40
0.4599223939128284
 40
0.4700106419330785
 40
0.4828520671761288
 40
0.4987628140466431
 40
0.5177391165323798
 40
0.5436301337977681
 40
0.5659459453014962
 40
0.5845070415460453
 40
0.5993179384019841
 40
0.6116447678954683
 40
0.6252169519227955
 40
0.6402768510225483
 40
0.6587959834819923
 40
0.677379190188934
 40
0.6938187986914414
 40
0.7082488243720879
 40
0.7241336740933172
 40
0.7429811947820061
 40
0.7630297879290565
 40
0.7816627600217576
 40
0.7968712374918338
 40
0.811769970606815
 40
0.8292983787993933
 40
0.84972875312509
 40
0.8678183596575072
 40
0.8858999946149846
 40
0.9010231405337856
 40
0.9131450020188402
 40
0.9299473641584093
 40
0.9503531523971419
 40
0.9723576667937218
 40
0.9935216900582916
 40
1.0
 40
1.0
 40
1.0
 40
1.0
 10
1608.144096001247
 20
530.3515451078233
 30
0.0
 10
1608.166575948076
 20
530.7209511615198
 30
0.0
 10
1608.209390236334
 20
531.4245051951568
 30
0.0
 10
1608.27072874984
 20
532.4075045895456
 30
0.0
 10
1608.325706393501
 20
533.2747425551688
 30
0.0
 10
1608.374282051952
 20
534.0290419057726
 30
0.0
 10
1608.418294500538
 20
534.7033917273222
 30
0.0
 10
1608.456925504114
 20
535.287923934543
 30
0.0
 10
1608.489479517875
 20
535.7750509801933
 30
0.0
 10
1608.516005221116
 20
536.168552891912
 30
0.0
 10
1608.54573189502
 20
536.6063098970669
 30
0.0
 10
1608.583666248712
 20
537.1591777786972
 30
0.0
 10
1608.630018557054
 20
537.8248325809795
 30
0.0
 10
1608.679906803165
 20
538.5295859933566
 30
0.0
 10
1608.73034029763
 20
539.2294009106655
 30
0.0
 10
1608.779910401637
 20
539.90425561428
 30
0.0
 10
1608.829772351387
 20
540.5704291256321
 30
0.0
 10
1608.878769974191
 20
541.2116605813638
 30
0.0
 10
1608.925710238424
 20
541.8124985847008
 30
0.0
 10
1608.960494205447
 20
542.2486788256493
 30
0.0
 10
1608.985120685631
 20
542.553164963293
 30
0.0
 10
1609.003258468513
 20
542.7755289503086
 30
0.0
 10
1609.024265164951
 20
543.0305714030644
 30
0.0
 10
1609.049791379769
 20
543.3366563533783
 30
0.0
 10
1609.0818759794
 20
543.7154598379884
 30
0.0
 10
1609.116768653145
 20
544.118964450279
 30
0.0
 10
1609.150738945761
 20
544.5027785473702
 30
0.0
 10
1609.178492878007
 20
544.8099887892721
 30
0.0
 10
1609.200786377688
 20
545.0525101484959
 30
0.0
 10
1609.220077780365
 20
545.2593786933371
 30
0.0
 10
1609.239164671991
 20
545.4612210355552
 30
0.0
 10
1609.260730328739
 20
545.6856847136182
 30
0.0
 10
1609.284094911798
 20
545.9242450884444
 30
0.0
 10
1609.307563689489
 20
546.1586309871766
 30
0.0
 10
1609.328739947784
 20
546.3655938305827
 30
0.0
 10
1609.34840316038
 20
546.5539712484598
 30
0.0
 10
1609.368075377899
 20
546.7386655074669
 30
0.0
 10
1609.388942728981
 20
546.9300730413381
 30
0.0
 10
1609.409943682682
 20
547.1176087748927
 30
0.0
 10
1609.428881430404
 20
547.2820422287296
 30
0.0
 10
1609.44534788823
 20
547.4214067784675
 30
0.0
 10
1609.46074391419
 20
547.5486576892409
 30
0.0
 10
1609.476409508205
 20
547.674828940529
 30
0.0
 10
1609.491794200211
 20
547.7950480863561
 30
0.0
 10
1609.506165626977
 20
547.9038548459899
 30
0.0
 10
1609.518283691876
 20
547.9927694809842
 30
0.0
 10
1609.528099047543
 20
548.0626442386059
 30
0.0
 10
1609.536658942738
 20
548.1220190921491
 30
0.0
 10
1609.544404441096
 20
548.1742728325146
 30
0.0
 10
1609.551899292862
 20
548.2231104960949
 30
0.0
 10
1609.557424624178
 20
548.2577773774469
 30
0.0
 10
1609.560063193056
 20
548.2734159061893
 30
0.0
 10
1609.559632277653
 20
548.2710881197495
 30
0.0
 10
1609.559531287498
 20
548.2705425752788
 30
0.0
  0
SPLINE
  5
14E
330
1F
100
AcDbEntity
  8
0
  6
Continuous
 62
     7
370
    15
100
AcDbSpline
210
0.0
220
0.0
230
1.0
 70
     8
 71
     3
 72
   138
 73
   134
 74
     0
 42
0.000000001
 43
0.00000001
 40
0.0
 40
0.0
 40
0.0
 40
0.0
 40
0.0140753356589702
 40
0.0281272611214804
 40
0.0421851505828338
 40
0.056243298489767
 40
0.0703054113159288
 40
0.0780444714576461
 40
0.0857833329280083
 40
0.0935203367690297
 40
0.1012562311997984
 40
0.1073351493454399
 40
0.1134258310996976
 40
0.1195320308747494
 40
0.1256452194438059
 40
0.1306937148376789
 40
0.1357370573964097
 40
0.1408144104151001
 40
0.1459799386969303
 40
0.1512814640016738
 40
0.1567000010174937
 40
0.1621789591425793
 40
0.168211585637338
 40
0.1742438075436425
 40
0.1803167031369938
 40
0.1864458156344799
 40
0.1925981714450824
 40
0.1984451639134932
 40
0.2043290928839495
 40
0.2102524777612386
 40
0.2161762288711385
 40
0.2221033465857649
 40
0.2280473912790877
 40
0.2339818340055863
 40
0.2398903583005731
 40
0.2457843550778146
 40
0.2516690307812294
 40
0.2574958688470333
 40
0.2632726470144161
 40
0.268087659422626
 40
0.2728626443294249
 40
0.2775962860038649
 40
0.2823207997276281
 40
0.2869803822790375
 40
0.2914771686244136
 40
0.295858108879118
 40
0.3002081814828368
 40
0.3070052807416243
 40
0.3137422266403526
 40
0.320412237658498
 40
0.3270577600622628
 40
0.3351443387453381
 40
0.3430824125089874
 40
0.351029107663968
 40
0.3589372634602728
 40
0.3667490998854968
 40
0.3745654297384415
 40
0.382362611485391
 40
0.3929822142462885
 40
0.4035867551755897
 40
0.4141938639405103
 40
0.4247810773750491
 40
0.4398377680442733
 40
0.4548210837356808
 40
0.4698127523178912
 40
0.4848790428539497
 40
0.4998526383191478
 40
0.5158120488543411
 40
0.5317368188064234
 40
0.5476599895598379
 40
0.5636048939849497
 40
0.5761057793267742
 40
0.5886467817354081
 40
0.6012761986702193
 40
0.6139431125607437
 40
0.6220039315185738
 40
0.6300500199053289
 40
0.6381119298436413
 40
0.6462511530765727
 40
0.6505552731619069
 40
0.6548573207885386
 40
0.6591515729829542
 40
0.6634437490768204
 40
0.6677439244740209
 40
0.6721385061184868
 40
0.6791127516523883
 40
0.6861071192123686
 40
0.6931951499258642
 40
0.7003292640444106
 40
0.7075251853736412
 40
0.7132260215745404
 40
0.7189863140031446
 40
0.7247963960790001
 40
0.7306507856133486
 40
0.7365912076690827
 40
0.7422625004234362
 40
0.7479617257699787
 40
0.7537433273866841
 40
0.7595660041406479
 40
0.7654230347982927
 40
0.7713194081974932
 40
0.7763771953445254
 40
0.7814603137933609
 40
0.7865434119972488
 40
0.7916195765640581
 40
0.796704131077851
 40
0.8017962243840614
 40
0.8068241229251183
 40
0.8122881991675984
 40
0.8177065754654678
 40
0.8231090855376711
 40
0.8284638056034945
 40
0.8338093615930635
 40
0.8391312328641254
 40
0.8444155010375278
 40
0.8501943485572127
 40
0.8559543387872086
 40
0.8616962620397717
 40
0.867405459928099
 40
0.8730776098156778
 40
0.8797857215088507
 40
0.8864740287960092
 40
0.8931395851084836
 40
0.8997824406848968
 40
0.9064145339313093
 40
0.9130425483153599
 40
0.9234478221836412
 40
0.9338439865626621
 40
0.944239151229056
 40
0.9581748176443929
 40
0.9721156937767522
 40
0.9860541748650696
 40
1.0
 40
1.0
 40
1.0
 40
1.0
 10
1629.060243767217
 20
512.7660715428858
 30
0.0
 10
1629.209588616984
 20
515.7177901985443
 30
0.0
 10
1629.50802992512
 20
521.6163181908017
 30
0.0
 10
1629.931651380031
 20
530.4641139841962
 30
0.0
 10
1630.305280697231
 20
539.3106025846755
 30
0.0
 10
1630.604499372491
 20
548.1621422225537
 30
0.0
 10
1630.767870951054
 20
555.6902734683083
 30
0.0
 10
1630.829771135124
 20
561.8927806881452
 30
0.0
 10
1630.829265530454
 20
566.7674855717339
 30
0.0
 10
1630.776527544202
 20
571.6412188099794
 30
0.0
 10
1630.675545137153
 20
576.1656707619044
 30
0.0
 10
1630.500476948819
 20
580.34206278297
 30
0.0
 10
1630.231468688888
 20
584.1707691384518
 30
0.0
 10
1629.838850037915
 20
587.9959739131971
 30
0.0
 10
1629.363811287947
 20
591.5910993393993
 30
0.0
 10
1628.827775906233
 20
594.9516258189859
 30
0.0
 10
1628.248783914224
 20
598.08408149074
 30
0.0
 10
1627.584321419003
 20
601.2246761264711
 30
0.0
 10
1626.824639265868
 20
604.3993951919341
 30
0.0
 10
1625.962015443357
 20
607.6219341284991
 30
0.0
 10
1624.994903345868
 20
610.8833954281713
 30
0.0
 10
1623.891130503201
 20
614.2631004218016
 30
0.0
 10
1622.642777110651
 20
617.7296008388778
 30
0.0
 10
1621.235475679575
 20
621.2692848363941
 30
0.0
 10
1619.704416198056
 20
624.7793247386554
 30
0.0
 10
1618.048035531547
 20
628.2600179778086
 30
0.0
 10
1616.292702852257
 20
631.6385772478972
 30
0.0
 10
1614.447259213073
 20
634.9096936933806
 30
0.0
 10
1612.514083959681
 20
638.073614528189
 30
0.0
 10
1610.459186456481
 20
641.1792583018572
 30
0.0
 10
1608.28600056553
 20
644.214560423697
 30
0.0
 10
1605.994336198818
 20
647.1670023053535
 30
0.0
 10
1603.58710157105
 20
650.0290157381229
 30
0.0
 10
1601.066999890299
 20
652.7869708284287
 30
0.0
 10
1598.441405727784
 20
655.4299586259986
 30
0.0
 10
1595.712117912923
 20
657.950445323596
 30
0.0
 10
1592.887618886103
 20
660.337338692467
 30
0.0
 10
1589.979922693447
 20
662.5819678325851
 30
0.0
 10
1587.163853090702
 20
664.5724564578093
 30
0.0
 10
1584.461885805869
 20
666.3372292342808
 30
0.0
 10
1581.891433275952
 20
667.8997917905766
 30
0.0
 10
1579.291517344259
 20
669.3746063714327
 30
0.0
 10
1576.669651007518
 20
670.7587835131802
 30
0.0
 10
1574.05593333043
 20
672.0493815206854
 30
0.0
 10
1571.475601029867
 20
673.242517070887
 30
0.0
 10
1568.925582404676
 20
674.3441527872274
 30
0.0
 10
1565.903734276898
 20
675.5693541775339
 30
0.0
 10
1562.385431426061
 20
676.8842326862797
 30
0.0
 10
1558.365952341845
 20
678.2433019469313
 30
0.0
 10
1554.339158374579
 20
679.475542831207
 30
0.0
 10
1550.007791257004
 20
680.6752409428246
 30
0.0
 10
1545.386200266279
 20
681.8185525266557
 30
0.0
 10
1540.468461986566
 20
682.8941838339708
 30
0.0
 10
1535.562087529185
 20
683.8385932501093
 30
0.0
 10
1530.662320450902
 20
684.6701994948675
 30
0.0
 10
1525.773566621053
 20
685.3965023049076
 30
0.0
 10
1520.895363753503
 20
686.0290439764917
 30
0.0
 10
1515.421577130021
 20
686.6471898116321
 30
0.0
 10
1509.354467503255
 20
687.2214516758338
 30
0.0
 10
1502.689855477242
 20
687.731964253709
 30
0.0
 10
1496.024917873948
 20
688.1376785677093
 30
0.0
 10
1488.421309210351
 20
688.496533313781
 30
0.0
 10
1479.894923246679
 20
688.7801475916566
 30
0.0
 10
1470.441145418778
 20
688.9758249100983
 30
0.0
 10
1460.983971136877
 20
689.079289135593
 30
0.0
 10
1451.528434905489
 20
689.1218375556695
 30
0.0
 10
1441.869627430565
 20
689.127963692619
 30
0.0
 10
1432.030566732856
 20
689.1283893620895
 30
0.0
 10
1421.992104471169
 20
689.1133252825141
 30
0.0
 10
1411.956839543302
 20
689.0479809114566
 30
0.0
 10
1402.641205891772
 20
688.9110934246662
 30
0.0
 10
1394.037487326189
 20
688.6946028829706
 30
0.0
 10
1386.132431407677
 20
688.405736511625
 30
0.0
 10
1378.197326720041
 20
688.0036060271347
 30
0.0
 10
1371.208693772211
 20
687.5295667189562
 30
0.0
 10
1365.18815238078
 20
687.0205624555306
 30
0.0
 10
1360.137622410998
 20
686.5218415371484
 30
0.0
 10
1355.079255898305
 20
685.9410530945048
 30
0.0
 10
1350.810909246331
 20
685.3735647990652
 30
0.0
 10
1347.332494531138
 20
684.8594488102419
 30
0.0
 10
1344.657258785966
 20
684.4340265083598
 30
0.0
 10
1341.989576388228
 20
683.9782117539728
 30
0.0
 10
1339.327905356447
 20
683.4906986379806
 30
0.0
 10
1336.65176903509
 20
682.9662838798898
 30
0.0
 10
1333.432229263453
 20
682.2879988615367
 30
0.0
 10
1329.673691752664
 20
681.4256139669886
 30
0.0
 10
1325.389647249791
 20
680.3302115466514
 30
0.0
 10
1321.103888441254
 20
679.1119563446017
 30
0.0
 10
1316.815356857179
 20
677.7553992452307
 30
0.0
 10
1312.846740946981
 20
676.3599392893909
 30
0.0
 10
1309.192328333346
 20
674.9470121397608
 30
0.0
 10
1305.849295730194
 20
673.5398856710151
 30
0.0
 10
1302.521634379772
 20
672.0173980125198
 30
0.0
 10
1299.212549286837
 20
670.3680089564762
 30
0.0
 10
1295.990203671394
 20
668.6150421226702
 30
0.0
 10
1292.860980557405
 20
666.7640159889552
 30
0.0
 10
1289.832587079605
 20
664.8129439609339
 30
0.0
 10
1286.858033439782
 20
662.7247999022339
 30
0.0
 10
1283.945941476633
 20
660.495189089049
 30
0.0
 10
1281.117166134833
 20
658.1230147375763
 30
0.0
 10
1278.512560406266
 20
655.7387499347038
 30
0.0
 10
1276.121690606587
 20
653.3663105732784
 30
0.0
 10
1273.934336851731
 20
651.0342265714671
 30
0.0
 10
1271.827391442175
 20
648.6241507669662
 30
0.0
 10
1269.804914647859
 20
646.1424231723411
 30
0.0
 10
1267.86495352507
 20
643.5933366201776
 30
0.0
 10
1266.01572633994
 20
640.9901435417826
 30
0.0
 10
1264.20444503194
 20
638.2642459099069
 30
0.0
 10
1262.445873500153
 20
635.4230174119394
 30
0.0
 10
1260.740936214109
 20
632.4582465437369
 30
0.0
 10
1259.14073210196
 20
629.4617058789677
 30
0.0
 10
1257.639064150733
 20
626.4316710007703
 30
0.0
 10
1256.23674786296
 20
623.3730448345154
 30
0.0
 10
1254.928606158493
 20
620.2890729118936
 30
0.0
 10
1253.675757657416
 20
617.0843370107774
 30
0.0
 10
1252.487108300604
 20
613.757264665221
 30
0.0
 10
1251.370484493249
 20
610.3042174402475
 30
0.0
 10
1250.360221589755
 20
606.8338261207701
 30
0.0
 10
1249.455681661369
 20
603.3534474696072
 30
0.0
 10
1248.607072915243
 20
599.6505582079178
 30
0.0
 10
1247.835074432311
 20
595.7209444151589
 30
0.0
 10
1247.160137970163
 20
591.5620217579336
 30
0.0
 10
1246.625158637573
 20
587.3966792579969
 30
0.0
 10
1246.222587295797
 20
583.2282370083817
 30
0.0
 10
1245.968074305097
 20
579.0560019339891
 30
0.0
 10
1245.809529557403
 20
574.0890275436965
 30
0.0
 10
1245.718394464983
 20
568.3299629770871
 30
0.0
 10
1245.711064020772
 20
561.7791820661998
 30
0.0
 10
1245.801555921468
 20
554.4876997815005
 30
0.0
 10
1246.003735141415
 20
546.4538497144528
 30
0.0
 10
1246.319439436475
 20
537.6792311678857
 30
0.0
 10
1246.705280081989
 20
528.9053269241587
 30
0.0
 10
1246.995321766535
 20
523.0574551503881
 30
0.0
 10
1247.140380803763
 20
520.1327491700577
 30
0.0
  0
SPLINE
  5
14F
330
1F
100
AcDbEntity
  8
0
  6
Continuous
 62
     7
370
    15
100
AcDbSpline
210
0.0
220
0.0
230
1.0
 70
     8
 71
     3
 72
   127
 73
   123
 74
     0
 42
0.000000001
 43
0.00000001
 40
0.0
 40
0.0
 40
0.0
 40
0.0
 40
0.0173473986103088
 40
0.0345982259406675
 40
0.0518615583398748
 40
0.0691395401834267
 40
0.0800003592768675
 40
0.0908542935136973
 40
0.1016994361669925
 40
0.1125585772887242
 40
0.123402549622281
 40
0.1320328061325932
 40
0.1406788371453561
 40
0.1493217760610046
 40
0.1579650557893387
 40
0.1633658150728083
 40
0.1688383071906562
 40
0.1744466937111292
 40
0.1800422096461017
 40
0.1856376518273793
 40
0.1919986806609223
 40
0.1983582318600092
 40
0.2047079124737227
 40
0.2110585960841353
 40
0.2174334775013601
 40
0.2227280206573333
 40
0.2280461442862939
 40
0.2334284319731296
 40
0.2387901949155907
 40
0.2441575996781271
 40
0.2495326399321773
 40
0.2549098802562353
 40
0.2602825178347041
 40
0.2656463563437809
 40
0.2710075490096133
 40
0.2763761326689756
 40
0.28175482982359
 40
0.2871322557657173
 40
0.2924992246620666
 40
0.2978584799142517
 40
0.3032201884165278
 40
0.3085894563656242
 40
0.3139563495894249
 40
0.3196088442374233
 40
0.3252713107020463
 40
0.330955348615147
 40
0.3365856707215376
 40
0.3420674379933115
 40
0.3474570467588214
 40
0.3559583449948169
 40
0.3644837546485353
 40
0.3729991709762701
 40
0.3820982430340883
 40
0.3912067406160981
 40
0.4003342738660801
 40
0.4094680727518408
 40
0.418591818765242
 40
0.4321518536366214
 40
0.4457203311206393
 40
0.4592808681777799
 40
0.4728379757223814
 40
0.4864161608766056
 40
0.499969878543249
 40
0.51725662997859
 40
0.5345670486808695
 40
0.5518726460688056
 40
0.5692041909320181
 40
0.5800924277908097
 40
0.5909686789692012
 40
0.6018364085548504
 40
0.612709237332476
 40
0.6235985647717276
 40
0.6322696358340391
 40
0.6409351764155066
 40
0.6495685995831835
 40
0.6582357216876935
 40
0.6650694210143648
 40
0.6718667053848933
 40
0.6786679386421827
 40
0.6854658789123609
 40
0.6905880148543915
 40
0.6957835765464704
 40
0.7011231077223621
 40
0.7065410535862919
 40
0.7119462156473194
 40
0.7173244319281539
 40
0.7227002105205793
 40
0.7280874740153983
 40
0.73347892374714
 40
0.7388661959572934
 40
0.74425300079318
 40
0.7496426550388446
 40
0.7550329348377606
 40
0.7604204745315551
 40
0.7658053029339664
 40
0.7711925826834144
 40
0.776581920794079
 40
0.7819766024060769
 40
0.7873540944690699
 40
0.792724031472959
 40
0.7981192247668053
 40
0.8035359572826453
 40
0.8088949477368034
 40
0.8141266943355698
 40
0.8210433946099366
 40
0.827977218910249
 40
0.8349302336420569
 40
0.8418721852161177
 40
0.8488076940023712
 40
0.8578955114491099
 40
0.8669943998375104
 40
0.8760789703977618
 40
0.8859738467157021
 40
0.8959218207104438
 40
0.9058492028217023
 40
0.9157557927238233
 40
0.9256692808244313
 40
0.9355841927740597
 40
0.9454882922588268
 40
0.9636404731607019
 40
0.9818473044866308
 40
1.0
 40
1.0
 40
1.0
 40
1.0
 10
1247.14038080387
 20
520.1327491680646
 30
0.0
 10
1247.326498315448
 20
516.4591265922259
 30
0.0
 10
1247.697697240528
 20
509.1323321399399
 30
0.0
 10
1248.270051219393
 20
498.1505156674297
 30
0.0
 10
1248.901930356841
 20
487.1866325286155
 30
0.0
 10
1249.550206294844
 20
477.5811603262229
 30
0.0
 10
1250.205088541744
 20
469.3389890753477
 30
0.0
 10
1250.828445229512
 20
462.4630254102223
 30
0.0
 10
1251.543010345604
 20
455.5962268897108
 30
0.0
 10
1252.365123086875
 20
448.7435175498165
 30
0.0
 10
1253.247916943047
 20
442.3720679131536
 30
0.0
 10
1254.178758779505
 20
436.4822490178474
 30
0.0
 10
1255.139905898851
 20
431.0706645513201
 30
0.0
 10
1256.216330273533
 20
425.6779237826985
 30
0.0
 10
1257.271447603123
 20
420.9839679663193
 30
0.0
 10
1258.264872723649
 20
416.9665008277782
 30
0.0
 10
1259.167284678848
 20
413.5900458312607
 30
0.0
 10
1260.145878710438
 20
410.1918505211295
 30
0.0
 10
1261.205985045691
 20
406.7908190912206
 30
0.0
 10
1262.395407919296
 20
403.2639373481343
 30
0.0
 10
1263.734134462072
 20
399.6176432108842
 30
0.0
 10
1265.244263812961
 20
395.8658390262647
 30
0.0
 10
1266.877315933924
 20
392.1681423232854
 30
0.0
 10
1268.644619851269
 20
388.5289259528639
 30
0.0
 10
1270.447733943418
 20
385.1589416950231
 30
0.0
 10
1272.267884816627
 20
382.0497234938204
 30
0.0
 10
1274.091955290267
 20
379.1894432620259
 30
0.0
 10
1276.035298872619
 20
376.3913236289368
 30
0.0
 10
1278.102202357857
 20
373.6698937275669
 30
0.0
 10
1280.286969581008
 20
371.0440284899694
 30
0.0
 10
1282.593102117276
 20
368.5195051371713
 30
0.0
 10
1285.018839968496
 20
366.1079331675589
 30
0.0
 10
1287.559954978901
 20
363.8217868647132
 30
0.0
 10
1290.206135612478
 20
361.6636823100815
 30
0.0
 10
1292.949033944037
 20
359.6315388508957
 30
0.0
 10
1295.782111159898
 20
357.721667155397
 30
0.0
 10
1298.69649774338
 20
355.9319565624168
 30
0.0
 10
1301.679489397974
 20
354.2600359038829
 30
0.0
 10
1304.71928713428
 20
352.7030031082729
 30
0.0
 10
1307.809145167402
 20
351.2558856165007
 30
0.0
 10
1310.945731770758
 20
349.9120260822866
 30
0.0
 10
1314.123826992303
 20
348.6653120884073
 30
0.0
 10
1317.39397351741
 20
347.4884299296607
 30
0.0
 10
1320.754386393447
 20
346.3826933458471
 30
0.0
 10
1324.207471023253
 20
345.3477172247876
 30
0.0
 10
1327.680496021256
 20
344.3997301112333
 30
0.0
 10
1331.136182290862
 20
343.537228714558
 30
0.0
 10
1334.54784578137
 20
342.7592076364183
 30
0.0
 10
1338.570221513427
 20
341.9249486280549
 30
0.0
 10
1343.244740207544
 20
341.0609425639776
 30
0.0
 10
1348.593504899427
 20
340.2075477270503
 30
0.0
 10
1354.085049830378
 20
339.4534099266758
 30
0.0
 10
1359.713520140651
 20
338.7962724908048
 30
0.0
 10
1365.482163896716
 20
338.2295716307452
 30
0.0
 10
1371.266575040881
 20
337.7565263562729
 30
0.0
 10
1377.060407519086
 20
337.3670925959672
 30
0.0
 10
1383.797163980186
 20
337.0001770147381
 30
0.0
 10
1391.477989751078
 20
336.686643370163
 30
0.0
 10
1400.102610750174
 20
336.4492004914237
 30
0.0
 10
1408.728553281692
 20
336.3022334922874
 30
0.0
 10
1417.357376169584
 20
336.2222267651957
 30
0.0
 10
1425.985027770785
 20
336.1892352398309
 30
0.0
 10
1435.403552785573
 20
336.1831833512548
 30
0.0
 10
1445.613453125604
 20
336.1836137874383
 30
0.0
 10
1456.618917446452
 20
336.2029573720919
 30
0.0
 10
1467.633608202215
 20
336.2918432870354
 30
0.0
 10
1477.285527381334
 20
336.4631491490391
 30
0.0
 10
1485.572011782661
 20
336.7059610138987
 30
0.0
 10
1492.485921871875
 20
336.9836887055333
 30
0.0
 10
1499.392523728055
 20
337.3493394695942
 30
0.0
 10
1506.29579347551
 20
337.8175375948923
 30
0.0
 10
1512.72573616747
 20
338.3679677036374
 30
0.0
 10
1518.678964293909
 20
338.9868067473079
 30
0.0
 10
1524.145146131078
 20
339.656243874074
 30
0.0
 10
1529.595906935172
 20
340.4360507256163
 30
0.0
 10
1534.644182794145
 20
341.2777039894816
 30
0.0
 10
1539.289190727919
 20
342.1618646277566
 30
0.0
 10
1543.526940700051
 20
343.064644824108
 30
0.0
 10
1547.733468556963
 20
344.0713523497171
 30
0.0
 10
1551.569608694487
 20
345.0941558455011
 30
0.0
 10
1555.052077050258
 20
346.1167610145182
 30
0.0
 10
1558.213569455047
 20
347.1313797734529
 30
0.0
 10
1561.407138738333
 20
348.247697011612
 30
0.0
 10
1564.611095139118
 20
349.4654761712229
 30
0.0
 10
1567.78427182247
 20
350.783198821026
 30
0.0
 10
1570.904006079618
 20
352.2015954145278
 30
0.0
 10
1573.969271619464
 20
353.7257908655465
 30
0.0
 10
1576.979229592175
 20
355.3625764677079
 30
0.0
 10
1579.92485046378
 20
357.1175274834482
 30
0.0
 10
1582.794164712935
 20
358.9946597317215
 30
0.0
 10
1585.578420387995
 20
360.9952828842008
 30
0.0
 10
1588.268479417353
 20
363.1221330727267
 30
0.0
 10
1590.852227948946
 20
365.3773654333405
 30
0.0
 10
1593.319913698588
 20
367.7575429028042
 30
0.0
 10
1595.668502279115
 20
370.2543388811456
 30
0.0
 10
1597.89657451111
 20
372.8596093809519
 30
0.0
 10
1600.006502595258
 20
375.5639897247385
 30
0.0
 10
1601.995187500473
 20
378.3560429500938
 30
0.0
 10
1603.867705281375
 20
381.222219369905
 30
0.0
 10
1605.628172339232
 20
384.1586243107432
 30
0.0
 10
1607.282265493715
 20
387.1656393345916
 30
0.0
 10
1608.831317812497
 20
390.2253294429534
 30
0.0
 10
1610.270974000206
 20
393.2996588118039
 30
0.0
 10
1611.746396968932
 20
396.7066833742963
 30
0.0
 10
1613.23076446678
 20
400.4717002860259
 30
0.0
 10
1614.716797612376
 20
404.6257430053341
 30
0.0
 10
1616.078738092255
 20
408.8276925178365
 30
0.0
 10
1617.323962397351
 20
413.0659435288609
 30
0.0
 10
1618.57960176512
 20
417.771282559277
 30
0.0
 10
1619.816230585976
 20
422.9534282129849
 30
0.0
 10
1621.008775664199
 20
428.612317061963
 30
0.0
 10
1622.09846498822
 20
434.4659627385767
 30
0.0
 10
1623.088930351679
 20
440.519703489734
 30
0.0
 10
1623.983230548147
 20
446.7688738686307
 30
0.0
 10
1624.767962060207
 20
453.0351598715254
 30
0.0
 10
1625.456995280522
 20
459.3052590796691
 30
0.0
 10
1626.063713380082
 20
465.5811498220398
 30
0.0
 10
1626.599348083631
 20
471.8629354728043
 30
0.0
 10
1627.206780270966
 20
479.8914790397633
 30
0.0
 10
1627.839118804505
 20
489.6809454616182
 30
0.0
 10
1628.476183358449
 20
501.2220849580822
 30
0.0
 10
1628.86575030677
 20
508.9218974395266
 30
0.0
 10
1629.06024376721
 20
512.7660715428767
 30
0.0
  0
SPLINE
  5
150
330
1F
100
AcDbEntity
  8
0
  6
Continuous
 62
     7
370
    15
100
AcDbSpline
210
0.0
220
0.0
230
1.0
 70
     8
 71
     3
 72
    22
 73
    18
 74
     0
 42
0.000000001
 43
0.00000001
 40
0.5964934825294727
 40
0.5964934825294727
 40
0.5964934825294727
 40
0.5964934825294727
 40
0.5985122971406358
 40
0.6061624809425492
 40
0.6100414401470308
 40
0.6139542175768976
 40
0.6273574299900687
 40
0.635212843236997
 40
0.6394124174120863
 40
0.6437857991662326
 40
0.6637234046088921
 40
0.6702906937251984
 40
0.6747248162551833
 40
0.6926652144282784
 40
0.7005003124574214
 40
0.7041512552123906
 40
0.7051180636417786
 40
0.7051180636417786
 40
0.7051180636417786
 40
0.7051180636417786
 10
1490.161404351311
 20
382.4908731411637
 30
0.0
 10
1490.53230560118
 20
382.5103467652734
 30
0.0
 10
1492.308600418113
 20
382.605774536214
 30
0.0
 10
1494.796673668953
 20
382.7543832435257
 30
0.0
 10
1497.631090571149
 20
382.9463176906903
 30
0.0
 10
1501.51990598713
 20
383.2318443472954
 30
0.0
 10
1506.13385078503
 20
383.6322175703243
 30
0.0
 10
1510.791261849367
 20
384.1278217207125
 30
0.0
 10
1513.792526173526
 20
384.4844121075964
 30
0.0
 10
1518.994970976732
 20
385.1512288165962
 30
0.0
 10
1524.610791292964
 20
386.0285796142699
 30
0.0
 10
1530.196262426998
 20
387.1255343199329
 30
0.0
 10
1535.401772007066
 20
388.2440704895654
 30
0.0
 10
1540.792562657904
 20
389.6187402667375
 30
0.0
 10
1545.956602446273
 20
391.2468115277762
 30
0.0
 10
1548.121901276586
 20
391.9957455965456
 30
0.0
 10
1548.921447932225
 20
392.2827671055149
 30
0.0
 10
1549.088698928401
 20
392.3432740030961
 30
0.0
  0
ENDSEC
  0
SECTION
  2
OBJECTS
  0
DICTIONARY
  5
C
330
0
100
AcDbDictionary
281
     1
  3
ACAD_GROUP
350
D
  3
ACAD_LAYOUT
350
1A
  3
ACAD_MLINESTYLE
350
17
  3
ACAD_PLOTSETTINGS
350
19
  3
ACAD_PLOTSTYLENAME
350
E
  3
ACAD_SCALELIST
350
47
  0
DICTIONARY
  5
D
102
{ACAD_REACTORS
330
C
102
}
330
C
100
AcDbDictionary
281
     1
  0
DICTIONARY
  5
1A
102
{ACAD_REACTORS
330
C
102
}
330
C
100
AcDbDictionary
281
     1
  3
Layout1
350
1E
  3
Layout2
350
26
  3
Model
350
22
  0
DICTIONARY
  5
17
102
{ACAD_REACTORS
330
C
102
}
330
C
100
AcDbDictionary
281
     1
  3
Standard
350
18
  0
DICTIONARY
  5
19
102
{ACAD_REACTORS
330
C
102
}
330
C
100
AcDbDictionary
281
     1
  0
ACDBDICTIONARYWDFLT
  5
E
102
{ACAD_REACTORS
330
C
102
}
330
C
100
AcDbDictionary
281
     1
  3
Normal
350
F
100
AcDbDictionaryWithDefault
340
F
  0
DICTIONARY
  5
47
102
{ACAD_REACTORS
330
C
102
}
330
C
100
AcDbDictionary
281
     1
  3
A0
350
48
  3
A1
350
49
  3
A2
350
4A
  3
A3
350
4B
  3
A4
350
4C
  3
A5
350
4D
  3
A6
350
4E
  3
A7
350
4F
  3
A8
350
50
  3
A9
350
51
  3
B0
350
52
  3
B1
350
53
  3
B2
350
54
  3
B3
350
55
  3
B4
350
56
  3
B5
350
57
  3
B6
350
58
  3
B7
350
59
  3
B8
350
5A
  3
B9
350
5B
  3
C0
350
5C
  3
C1
350
5D
  3
C2
350
5E
  3
C3
350
5F
  3
C4
350
60
  3
C5
350
61
  3
C6
350
62
  3
C7
350
63
  3
C8
350
64
  3
C9
350
65
  3
D0
350
66
  3
D1
350
67
  3
D2
350
68
  0
LAYOUT
  5
1E
102
{ACAD_REACTORS
330
1A
102
}
330
1A
100
AcDbPlotSettings
  1

  2
none_device
  4

  6

 40
0.0
 41
0.0
 42
0.0
 43
0.0
 44
0.0
 45
0.0
 46
0.0
 47
0.0
 48
0.0
 49
0.0
140
0.0
141
0.0
142
1.0
143
1.0
 70
   688
 72
     1
 73
     0
 74
     5
  7

 75
    16
147
1.0
148
0.0
149
0.0
100
AcDbLayout
  1
Layout1
 70
     1
 71
     1
 10
0.0
 20
0.0
 11
420.0
 21
297.0
 12
0.0
 22
0.0
 32
0.0
 14
1.0000000000E+20
 24
1.0000000000E+20
 34
1.0000000000E+20
 15
-1.0000000000E+20
 25
-1.0000000000E+20
 35
-1.0000000000E+20
146
0.0
 13
0.0
 23
0.0
 33
0.0
 16
1.0
 26
0.0
 36
0.0
 17
0.0
 27
1.0
 37
0.0
 76
     0
330
1B
  0
LAYOUT
  5
26
102
{ACAD_REACTORS
330
1A
102
}
330
1A
100
AcDbPlotSettings
  1

  2
none_device
  4

  6

 40
0.0
 41
0.0
 42
0.0
 43
0.0
 44
0.0
 45
0.0
 46
0.0
 47
0.0
 48
0.0
 49
0.0
140
0.0
141
0.0
142
1.0
143
1.0
 70
   688
 72
     1
 73
     0
 74
     5
  7

 75
    16
147
1.0
148
0.0
149
0.0
100
AcDbLayout
  1
Layout2
 70
     1
 71
     2
 10
0.0
 20
0.0
 11
0.0
 21
0.0
 12
0.0
 22
0.0
 32
0.0
 14
0.0
 24
0.0
 34
0.0
 15
0.0
 25
0.0
 35
0.0
146
0.0
 13
0.0
 23
0.0
 33
0.0
 16
1.0
 26
0.0
 36
0.0
 17
0.0
 27
1.0
 37
0.0
 76
     0
330
23
  0
LAYOUT
  5
22
102
{ACAD_REACTORS
330
1A
102
}
330
1A
100
AcDbPlotSettings
  1

  2
none_device
  4
Letter_(8.50_x_11.00_Inches)
  6

 40
6.35
 41
6.35
 42
6.35000508
 43
6.35000508
 44
215.9
 45
279.4
 46
0.0
 47
0.0
 48
0.0
 49
0.0
140
0.0
141
0.0
142
1.0
143
1.0
 70
  1712
 72
     1
 73
     0
 74
     0
  7

 75
     0
147
1.0
148
0.0
149
0.0
100
AcDbLayout
  1
Model
 70
     1
 71
     0
 10
0.0
 20
0.0
 11
2970.0
 21
2100.0
 12
0.0
 22
0.0
 32
0.0
 14
0.0
 24
0.0
 34
0.0
 15
2970.0
 25
2100.0
 35
0.0
146
0.0
 13
0.0
 23
0.0
 33
0.0
 16
1.0
 26
0.0
 36
0.0
 17
0.0
 27
1.0
 37
0.0
 76
     0
330
1F
331
29
  0
MLINESTYLE
  5
18
102
{ACAD_REACTORS
330
17
102
}
330
17
100
AcDbMlineStyle
  2
Standard
 70
     0
  3

 62
   256
 51
90.0
 52
90.0
 71
     2
 49
0.5
 62
   256
  6
BYLAYER
 49
-0.5
 62
   256
  6
BYLAYER
  0
ACDBPLACEHOLDER
  5
F
102
{ACAD_REACTORS
330
E
102
}
330
E
  0
SCALE
  5
48
102
{ACAD_REACTORS
330
47
102
}
330
47
100
AcDbScale
 70
     0
300
1:1
140
1.0
141
1.0
290
     1
  0
SCALE
  5
49
102
{ACAD_REACTORS
330
47
102
}
330
47
100
AcDbScale
 70
     0
300
1:2
140
1.0
141
2.0
290
     0
  0
SCALE
  5
4A
102
{ACAD_REACTORS
330
47
102
}
330
47
100
AcDbScale
 70
     0
300
1:4
140
1.0
141
4.0
290
     0
  0
SCALE
  5
4B
102
{ACAD_REACTORS
330
47
102
}
330
47
100
AcDbScale
 70
     0
300
1:5
140
1.0
141
5.0
290
     0
  0
SCALE
  5
4C
102
{ACAD_REACTORS
330
47
102
}
330
47
100
AcDbScale
 70
     0
300
1:8
140
1.0
141
8.0
290
     0
  0
SCALE
  5
4D
102
{ACAD_REACTORS
330
47
102
}
330
47
100
AcDbScale
 70
     0
300
1:10
140
1.0
141
10.0
290
     0
  0
SCALE
  5
4E
102
{ACAD_REACTORS
330
47
102
}
330
47
100
AcDbScale
 70
     0
300
1:16
140
1.0
141
16.0
290
     0
  0
SCALE
  5
4F
102
{ACAD_REACTORS
330
47
102
}
330
47
100
AcDbScale
 70
     0
300
1:20
140
1.0
141
20.0
290
     0
  0
SCALE
  5
50
102
{ACAD_REACTORS
330
47
102
}
330
47
100
AcDbScale
 70
     0
300
1:30
140
1.0
141
30.0
290
     0
  0
SCALE
  5
51
102
{ACAD_REACTORS
330
47
102
}
330
47
100
AcDbScale
 70
     0
300
1:40
140
1.0
141
40.0
290
     0
  0
SCALE
  5
52
102
{ACAD_REACTORS
330
47
102
}
330
47
100
AcDbScale
 70
     0
300
1:50
140
1.0
141
50.0
290
     0
  0
SCALE
  5
53
102
{ACAD_REACTORS
330
47
102
}
330
47
100
AcDbScale
 70
     0
300
1:100
140
1.0
141
100.0
290
     0
  0
SCALE
  5
54
102
{ACAD_REACTORS
330
47
102
}
330
47
100
AcDbScale
 70
     0
300
2:1
140
2.0
141
1.0
290
     0
  0
SCALE
  5
55
102
{ACAD_REACTORS
330
47
102
}
330
47
100
AcDbScale
 70
     0
300
4:1
140
4.0
141
1.0
290
     0
  0
SCALE
  5
56
102
{ACAD_REACTORS
330
47
102
}
330
47
100
AcDbScale
 70
     0
300
8:1
140
8.0
141
1.0
290
     0
  0
SCALE
  5
57
102
{ACAD_REACTORS
330
47
102
}
330
47
100
AcDbScale
 70
     0
300
10:1
140
10.0
141
1.0
290
     0
  0
SCALE
  5
58
102
{ACAD_REACTORS
330
47
102
}
330
47
100
AcDbScale
 70
     0
300
100:1
140
100.0
141
1.0
290
     0
  0
SCALE
  5
59
102
{ACAD_REACTORS
330
47
102
}
330
47
100
AcDbScale
 70
     0
300
1/128" = 1'-0"
140
0.0078125
141
12.0
290
     0
  0
SCALE
  5
5A
102
{ACAD_REACTORS
330
47
102
}
330
47
100
AcDbScale
 70
     0
300
1/64" = 1'-0"
140
0.015625
141
12.0
290
     0
  0
SCALE
  5
5B
102
{ACAD_REACTORS
330
47
102
}
330
47
100
AcDbScale
 70
     0
300
1/32" = 1'-0"
140
0.03125
141
12.0
290
     0
  0
SCALE
  5
5C
102
{ACAD_REACTORS
330
47
102
}
330
47
100
AcDbScale
 70
     0
300
1/16" = 1'-0"
140
0.0625
141
12.0
290
     0
  0
SCALE
  5
5D
102
{ACAD_REACTORS
330
47
102
}
330
47
100
AcDbScale
 70
     0
300
3/32" = 1'-0"
140
0.09375
141
12.0
290
     0
  0
SCALE
  5
5E
102
{ACAD_REACTORS
330
47
102
}
330
47
100
AcDbScale
 70
     0
300
1/8" = 1'-0"
140
0.125
141
12.0
290
     0
  0
SCALE
  5
5F
102
{ACAD_REACTORS
330
47
102
}
330
47
100
AcDbScale
 70
     0
300
3/16" = 1'-0"
140
0.1875
141
12.0
290
     0
  0
SCALE
  5
60
102
{ACAD_REACTORS
330
47
102
}
330
47
100
AcDbScale
 70
     0
300
1/4" = 1'-0"
140
0.25
141
12.0
290
     0
  0
SCALE
  5
61
102
{ACAD_REACTORS
330
47
102
}
330
47
100
AcDbScale
 70
     0
300
3/8" = 1'-0"
140
0.375
141
12.0
290
     0
  0
SCALE
  5
62
102
{ACAD_REACTORS
330
47
102
}
330
47
100
AcDbScale
 70
     0
300
1/2" = 1'-0"
140
0.5
141
12.0
290
     0
  0
SCALE
  5
63
102
{ACAD_REACTORS
330
47
102
}
330
47
100
AcDbScale
 70
     0
300
3/4" = 1'-0"
140
0.75
141
12.0
290
     0
  0
SCALE
  5
64
102
{ACAD_REACTORS
330
47
102
}
330
47
100
AcDbScale
 70
     0
300
1" = 1'-0"
140
1.0
141
12.0
290
     0
  0
SCALE
  5
65
102
{ACAD_REACTORS
330
47
102
}
330
47
100
AcDbScale
 70
     0
300
1-1/2" = 1'-0"
140
1.5
141
12.0
290
     0
  0
SCALE
  5
66
102
{ACAD_REACTORS
330
47
102
}
330
47
100
AcDbScale
 70
     0
300
3" = 1'-0"
140
3.0
141
12.0
290
     0
  0
SCALE
  5
67
102
{ACAD_REACTORS
330
47
102
}
330
47
100
AcDbScale
 70
     0
300
6" = 1'-0"
140
6.0
141
12.0
290
     0
  0
SCALE
  5
68
102
{ACAD_REACTORS
330
47
102
}
330
47
100
AcDbScale
 70
     0
300
1'-0" = 1'-0"
140
12.0
141
12.0
290
     0
  0
ENDSEC
  0
EOF
