  0
SECTION
  2
HEADER
  9
$ACADVER
  1
AC1014
  9
$ACADMAINTVER
 70
     9
  9
$DWGCODEPAGE
  3
ANSI_1252
  9
$INSBASE
 10
0.0
 20
0.0
 30
0.0
  9
$EXTMIN
 10
1.000000000000000E+20
 20
1.000000000000000E+20
 30
1.000000000000000E+20
  9
$EXTMAX
 10
-1.000000000000000E+20
 20
-1.000000000000000E+20
 30
-1.000000000000000E+20
  9
$LIMMIN
 10
0.0
 20
0.0
  9
$LIMMAX
 10
12.0
 20
9.0
  9
$ORTHOMODE
 70
     0
  9
$REGENMODE
 70
     1
  9
$FILLMODE
 70
     1
  9
$QTEXTMODE
 70
     0
  9
$MIRRTEXT
 70
     1
  9
$DRAGMODE
 70
     2
  9
$LTSCALE
 40
1.0
  9
$OSMODE
 70
    37
  9
$ATTMODE
 70
     1
  9
$TEXTSIZE
 40
0.2
  9
$TRACEWID
 40
0.05
  9
$TEXTSTYLE
  7
STANDARD
  9
$CLAYER
  8
0
  9
$CELTYPE
  6
BYLAYER
  9
$CECOLOR
 62
   256
  9
$CELTSCALE
 40
1.0
  9
$DELOBJ
 70
     1
  9
$DISPSILH
 70
     0
  9
$DIMSCALE
 40
1.0
  9
$DIMASZ
 40
0.18
  9
$DIMEXO
 40
0.0625
  9
$DIMDLI
 40
0.38
  9
$DIMRND
 40
0.0
  9
$DIMDLE
 40
0.0
  9
$DIMEXE
 40
0.18
  9
$DIMTP
 40
0.0
  9
$DIMTM
 40
0.0
  9
$DIMTXT
 40
0.18
  9
$DIMCEN
 40
0.09
  9
$DIMTSZ
 40
0.0
  9
$DIMTOL
 70
     0
  9
$DIMLIM
 70
     0
  9
$DIMTIH
 70
     1
  9
$DIMTOH
 70
     1
  9
$DIMSE1
 70
     0
  9
$DIMSE2
 70
     0
  9
$DIMTAD
 70
     0
  9
$DIMZIN
 70
     0
  9
$DIMBLK
  1

  9
$DIMASO
 70
     1
  9
$DIMSHO
 70
     1
  9
$DIMPOST
  1

  9
$DIMAPOST
  1

  9
$DIMALT
 70
     0
  9
$DIMALTD
 70
     2
  9
$DIMALTF
 40
25.4
  9
$DIMLFAC
 40
1.0
  9
$DIMTOFL
 70
     0
  9
$DIMTVP
 40
0.0
  9
$DIMTIX
 70
     0
  9
$DIMSOXD
 70
     0
  9
$DIMSAH
 70
     0
  9
$DIMBLK1
  1

  9
$DIMBLK2
  1

  9
$DIMSTYLE
  2
STANDARD
  9
$DIMCLRD
 70
     0
  9
$DIMCLRE
 70
     0
  9
$DIMCLRT
 70
     0
  9
$DIMTFAC
 40
1.0
  9
$DIMGAP
 40
0.09
  9
$DIMJUST
 70
     0
  9
$DIMSD1
 70
     0
  9
$DIMSD2
 70
     0
  9
$DIMTOLJ
 70
     1
  9
$DIMTZIN
 70
     0
  9
$DIMALTZ
 70
     0
  9
$DIMALTTZ
 70
     0
  9
$DIMFIT
 70
     3
  9
$DIMUPT
 70
     0
  9
$DIMUNIT
 70
     2
  9
$DIMDEC
 70
     4
  9
$DIMTDEC
 70
     4
  9
$DIMALTU
 70
     2
  9
$DIMALTTD
 70
     2
  9
$DIMTXSTY
  7
STANDARD
  9
$DIMAUNIT
 70
     0
  9
$LUNITS
 70
     2
  9
$LUPREC
 70
     4
  9
$SKETCHINC
 40
0.1
  9
$FILLETRAD
 40
0.5
  9
$AUNITS
 70
     0
  9
$AUPREC
 70
     0
  9
$MENU
  1
.
  9
$ELEVATION
 40
0.0
  9
$PELEVATION
 40
0.0
  9
$THICKNESS
 40
0.0
  9
$LIMCHECK
 70
     0
  9
$CHAMFERA
 40
0.5
  9
$CHAMFERB
 40
0.5
  9
$CHAMFERC
 40
1.0
  9
$CHAMFERD
 40
0.0
  9
$SKPOLY
 70
     0
  9
$TDCREATE
 40
2459971.554370278
  9
$TDUPDATE
 40
2459971.554370405
  9
$TDINDWG
 40
0.0000000116
  9
$TDUSRTIMER
 40
0.0000000116
  9
$USRTIMER
 70
     1
  9
$ANGBASE
 50
0.0
  9
$ANGDIR
 70
     0
  9
$PDMODE
 70
     0
  9
$PDSIZE
 40
0.0
  9
$PLINEWID
 40
0.0
  9
$COORDS
 70
     1
  9
$SPLFRAME
 70
     0
  9
$SPLINETYPE
 70
     6
  9
$SPLINESEGS
 70
     8
  9
$ATTDIA
 70
     0
  9
$ATTREQ
 70
     1
  9
$HANDLING
 70
     1
  9
$HANDSEED
  5
30D
  9
$SURFTAB1
 70
     6
  9
$SURFTAB2
 70
     6
  9
$SURFTYPE
 70
     6
  9
$SURFU
 70
     6
  9
$SURFV
 70
     6
  9
$UCSNAME
  2

  9
$UCSORG
 10
0.0
 20
0.0
 30
0.0
  9
$UCSXDIR
 10
1.0
 20
0.0
 30
0.0
  9
$UCSYDIR
 10
0.0
 20
1.0
 30
0.0
  9
$PUCSNAME
  2

  9
$PUCSORG
 10
0.0
 20
0.0
 30
0.0
  9
$PUCSXDIR
 10
1.0
 20
0.0
 30
0.0
  9
$PUCSYDIR
 10
0.0
 20
1.0
 30
0.0
  9
$USERI1
 70
     0
  9
$USERI2
 70
     0
  9
$USERI3
 70
     0
  9
$USERI4
 70
     0
  9
$USERI5
 70
     0
  9
$USERR1
 40
0.0
  9
$USERR2
 40
0.0
  9
$USERR3
 40
0.0
  9
$USERR4
 40
0.0
  9
$USERR5
 40
0.0
  9
$WORLDVIEW
 70
     1
  9
$SHADEDGE
 70
     3
  9
$SHADEDIF
 70
    70
  9
$TILEMODE
 70
     1
  9
$MAXACTVP
 70
    64
  9
$PINSBASE
 10
0.0
 20
0.0
 30
0.0
  9
$PLIMCHECK
 70
     0
  9
$PEXTMIN
 10
1.000000000000000E+20
 20
1.000000000000000E+20
 30
1.000000000000000E+20
  9
$PEXTMAX
 10
-1.000000000000000E+20
 20
-1.000000000000000E+20
 30
-1.000000000000000E+20
  9
$PLIMMIN
 10
0.0
 20
0.0
  9
$PLIMMAX
 10
12.0
 20
9.0
  9
$UNITMODE
 70
     0
  9
$VISRETAIN
 70
     1
  9
$PLINEGEN
 70
     0
  9
$PSLTSCALE
 70
     1
  9
$TREEDEPTH
 70
  3020
  9
$PICKSTYLE
 70
     1
  9
$CMLSTYLE
  2
STANDARD
  9
$CMLJUST
 70
     0
  9
$CMLSCALE
 40
1.0
  9
$PROXYGRAPHICS
 70
     1
  9
$MEASUREMENT
 70
     0
  0
ENDSEC
  0
SECTION
  2
CLASSES
  0
CLASS
  1
ACDBDICTIONARYWDFLT
  2
AcDbDictionaryWithDefault
  3
ObjectDBX Classes
 90
        0
280
     0
281
     0
  0
CLASS
  1
VISUALSTYLE
  2
AcDbVisualStyle
  3
ObjectDBX Classes
 90
     4095
280
     0
281
     0
  0
CLASS
  1
MATERIAL
  2
AcDbMaterial
  3
ObjectDBX Classes
 90
     1153
280
     0
281
     0
  0
CLASS
  1
SUN
  2
AcDbSun
  3
SCENEOE
 90
     1024
280
     0
281
     0
  0
CLASS
  1
DICTIONARYVAR
  2
AcDbDictionaryVar
  3
ObjectDBX Classes
 90
        0
280
     0
281
     0
  0
CLASS
  1
XRECORD
  2
AcDbXrecord
  3
AutoCAD 2000
 90
        0
280
     0
281
     0
  0
CLASS
  1
LWPOLYLINE
  2
AcDbPolyline
  3
AutoCAD 2000
 90
        0
280
     0
281
     1
  0
CLASS
  1
HATCH
  2
AcDbHatch
  3
AutoCAD 2000
 90
        0
280
     0
281
     1
  0
CLASS
  1
ACDBPLACEHOLDER
  2
AcDbPlaceHolder
  3
ObjectDBX Classes
 90
        0
280
     0
281
     0
  0
CLASS
  1
LAYOUT
  2
AcDbLayout
  3
ObjectDBX Classes
 90
        0
280
     0
281
     0
  0
ENDSEC
  0
SECTION
  2
TABLES
  0
TABLE
  2
VPORT
  5
8
330
0
100
AcDbSymbolTable
 70
     1
  0
VPORT
  5
29
330
8
100
AcDbSymbolTableRecord
100
AcDbViewportTableRecord
  2
*ACTIVE
 70
     0
 10
0.0
 20
0.0
 11
1.0
 21
1.0
 12
0.0
 22
0.0
 13
0.0
 23
0.0
 14
0.5
 24
0.5
 15
0.5
 25
0.5
 16
0.0
 26
0.0
 36
1.0
 17
74.99999786197358
 27
39.74999886684608
 37
0.0
 40
39.99999998999989
 41
1.000000000000008
 42
50.0
 43
0.0
 44
0.0
 50
0.0
 51
0.0
 71
     0
 72
   100
 73
     1
 74
     3
 75
     0
 76
     0
 77
     0
 78
     0
  0
ENDTAB
  0
TABLE
  2
LTYPE
  5
5
330
0
100
AcDbSymbolTable
 70
     1
  0
LTYPE
  5
14
330
5
100
AcDbSymbolTableRecord
100
AcDbLinetypeTableRecord
  2
BYBLOCK
 70
     0
  3

 72
    65
 73
     0
 40
0.0
  0
LTYPE
  5
15
330
5
100
AcDbSymbolTableRecord
100
AcDbLinetypeTableRecord
  2
BYLAYER
 70
     0
  3

 72
    65
 73
     0
 40
0.0
  0
LTYPE
  5
16
330
5
100
AcDbSymbolTableRecord
100
AcDbLinetypeTableRecord
  2
CONTINUOUS
 70
     0
  3
Solid line
 72
    65
 73
     0
 40
0.0
  0
ENDTAB
  0
TABLE
  2
LAYER
  5
2
330
0
100
AcDbSymbolTable
 70
     6
  0
LAYER
  5
10
330
2
100
AcDbSymbolTableRecord
100
AcDbLayerTableRecord
  2
0
 70
     0
 62
     7
  6
CONTINUOUS
  0
LAYER
  5
40
330
2
100
AcDbSymbolTableRecord
100
AcDbLayerTableRecord
  2
REFERENCIAS
 70
     0
 62
     7
  6
CONTINUOUS
  0
LAYER
  5
42
330
2
100
AcDbSymbolTableRecord
100
AcDbLayerTableRecord
  2
M_U_00C1RGENES
 70
     4
 62
     7
  6
CONTINUOUS
  0
LAYER
  5
51
330
2
100
AcDbSymbolTableRecord
100
AcDbLayerTableRecord
  2
DIBUJOS
 70
     4
 62
     7
  6
CONTINUOUS
  0
LAYER
  5
2CC
330
2
100
AcDbSymbolTableRecord
100
AcDbLayerTableRecord
  2
COTAS_LINEA
 70
     4
 62
     7
  6
CONTINUOUS
  0
LAYER
  5
2DD
330
2
100
AcDbSymbolTableRecord
100
AcDbLayerTableRecord
  2
COTAS_N_U_00DAMERO
 70
     4
 62
     7
  6
CONTINUOUS
  0
ENDTAB
  0
TABLE
  2
STYLE
  5
3
330
0
100
AcDbSymbolTable
 70
     1
  0
STYLE
  5
11
330
3
100
AcDbSymbolTableRecord
100
AcDbTextStyleTableRecord
  2
STANDARD
 70
     0
 40
0.0
 41
1.0
 50
0.0
 71
     0
 42
0.2
  3
txt
  4

  0
ENDTAB
  0
TABLE
  2
VIEW
  5
6
330
0
100
AcDbSymbolTable
 70
     0
  0
ENDTAB
  0
TABLE
  2
UCS
  5
7
330
0
100
AcDbSymbolTable
 70
     0
  0
ENDTAB
  0
TABLE
  2
APPID
  5
9
330
0
100
AcDbSymbolTable
 70
     1
  0
APPID
  5
12
330
9
100
AcDbSymbolTableRecord
100
AcDbRegAppTableRecord
  2
ACAD
 70
     0
  0
ENDTAB
  0
TABLE
  2
DIMSTYLE
  5
A
330
0
100
AcDbSymbolTable
 70
     1
  0
DIMSTYLE
105
27
330
A
100
AcDbSymbolTableRecord
100
AcDbDimStyleTableRecord
  2
STANDARD
 70
     0
  3

  4

  5

  6

  7

 40
1.0
 41
0.18
 42
0.0625
 43
0.38
 44
0.18
 45
0.0
 46
0.0
 47
0.0
 48
0.0
140
0.18
141
0.09
142
0.0
143
25.4
144
1.0
145
0.0
146
1.0
147
0.09
 71
     0
 72
     0
 73
     1
 74
     1
 75
     0
 76
     0
 77
     0
 78
     0
170
     0
171
     2
172
     0
173
     0
174
     0
175
     0
176
     0
177
     0
178
     0
270
     2
271
     4
272
     4
273
     2
274
     2
340
11
275
     0
280
     0
281
     0
282
     0
283
     1
284
     0
285
     0
286
     0
287
     3
288
     0
  0
ENDTAB
  0
TABLE
  2
BLOCK_RECORD
  5
1
330
0
100
AcDbSymbolTable
 70
     3
  0
BLOCK_RECORD
  5
1F
330
1
100
AcDbSymbolTableRecord
100
AcDbBlockTableRecord
  2
*MODEL_SPACE
  0
BLOCK_RECORD
  5
1B
330
1
100
AcDbSymbolTableRecord
100
AcDbBlockTableRecord
  2
*PAPER_SPACE
  0
BLOCK_RECORD
  5
52
330
1
100
AcDbSymbolTableRecord
100
AcDbBlockTableRecord
  2
BLOCK_2
  0
BLOCK_RECORD
  5
159
330
1
100
AcDbSymbolTableRecord
100
AcDbBlockTableRecord
  2
BLOCK_3
  0
ENDTAB
  0
ENDSEC
  0
SECTION
  2
BLOCKS
  0
BLOCK
  5
20
330
1F
100
AcDbEntity
  8
0
100
AcDbBlockBegin
  2
*MODEL_SPACE
 70
     0
 10
0.0
 20
0.0
 30
0.0
  3
*MODEL_SPACE
  1

  0
ENDBLK
  5
21
330
1F
100
AcDbEntity
  8
0
100
AcDbBlockEnd
  0
BLOCK
  5
1C
330
1B
100
AcDbEntity
 67
     1
  8
0
100
AcDbBlockBegin
  2
*PAPER_SPACE
 70
     0
 10
0.0
 20
0.0
 30
0.0
  3
*PAPER_SPACE
  1

  0
ENDBLK
  5
1D
330
1B
100
AcDbEntity
 67
     1
  8
0
100
AcDbBlockEnd
  0
BLOCK
  5
54
330
52
100
AcDbEntity
  8
0
100
AcDbBlockBegin
  2
BLOCK_2
 70
     0
 10
0.0
 20
0.0
 30
0.0
  3
BLOCK_2
  1

  0
POLYLINE
  5
56
330
52
100
AcDbEntity
  8
DIBUJOS
 62
     7
100
AcDb2dPolyline
 66
     1
 10
0.0
 20
0.0
 30
0.0
  0
VERTEX
  5
57
330
56
100
AcDbEntity
  8
DIBUJOS
 62
     7
100
AcDbVertex
100
AcDb2dVertex
 10
58.88189651637383
 20
48.60614013611275
 30
0.0
  0
VERTEX
  5
58
330
56
100
AcDbEntity
  8
DIBUJOS
 62
     7
100
AcDbVertex
100
AcDb2dVertex
 10
58.87629945991721
 20
48.61173493295839
 30
0.0
  0
SEQEND
  5
59
330
56
100
AcDbEntity
  8
DIBUJOS
 62
     7
  0
POLYLINE
  5
5A
330
52
100
AcDbEntity
  8
DIBUJOS
 62
     7
100
AcDb2dPolyline
 66
     1
 10
0.0
 20
0.0
 30
0.0
  0
VERTEX
  5
5B
330
5A
100
AcDbEntity
  8
DIBUJOS
 62
     7
100
AcDbVertex
100
AcDb2dVertex
 10
59.93412204050244
 20
48.60054232645258
 30
0.0
  0
VERTEX
  5
5C
330
5A
100
AcDbEntity
  8
DIBUJOS
 62
     7
100
AcDbVertex
100
AcDb2dVertex
 10
59.92852498404582
 20
48.60614013611275
 30
0.0
  0
VERTEX
  5
5D
330
5A
100
AcDbEntity
  8
DIBUJOS
 62
     7
100
AcDbVertex
100
AcDb2dVertex
 10
58.88189651637383
 20
48.60614013611275
 30
0.0
  0
SEQEND
  5
5E
330
5A
100
AcDbEntity
  8
DIBUJOS
 62
     7
  0
POLYLINE
  5
5F
330
52
100
AcDbEntity
  8
DIBUJOS
 62
     7
100
AcDb2dPolyline
 66
     1
 10
0.0
 20
0.0
 30
0.0
  0
VERTEX
  5
60
330
5F
100
AcDbEntity
  8
DIBUJOS
 62
     7
100
AcDbVertex
100
AcDb2dVertex
 10
59.93971909695906
 20
48.60054232645258
 30
0.0
  0
VERTEX
  5
61
330
5F
100
AcDbEntity
  8
DIBUJOS
 62
     7
100
AcDbVertex
100
AcDb2dVertex
 10
59.93412204050244
 20
48.60054232645258
 30
0.0
  0
SEQEND
  5
62
330
5F
100
AcDbEntity
  8
DIBUJOS
 62
     7
  0
POLYLINE
  5
63
330
52
100
AcDbEntity
  8
DIBUJOS
 62
     7
100
AcDb2dPolyline
 66
     1
 10
0.0
 20
0.0
 30
0.0
  0
VERTEX
  5
64
330
63
100
AcDbEntity
  8
DIBUJOS
 62
     7
100
AcDbVertex
100
AcDb2dVertex
 10
59.94531615341536
 20
48.60054232645258
 30
0.0
  0
VERTEX
  5
65
330
63
100
AcDbEntity
  8
DIBUJOS
 62
     7
100
AcDbVertex
100
AcDb2dVertex
 10
59.93971909695906
 20
48.60054232645258
 30
0.0
  0
SEQEND
  5
66
330
63
100
AcDbEntity
  8
DIBUJOS
 62
     7
  0
POLYLINE
  5
67
330
52
100
AcDbEntity
  8
DIBUJOS
 62
     7
100
AcDb2dPolyline
 66
     1
 10
0.0
 20
0.0
 30
0.0
  0
VERTEX
  5
68
330
67
100
AcDbEntity
  8
DIBUJOS
 62
     7
100
AcDbVertex
100
AcDb2dVertex
 10
60.28672981843193
 20
48.60054232645258
 30
0.0
  0
VERTEX
  5
69
330
67
100
AcDbEntity
  8
DIBUJOS
 62
     7
100
AcDbVertex
100
AcDb2dVertex
 10
60.28113276197499
 20
48.60614013611275
 30
0.0
  0
VERTEX
  5
6A
330
67
100
AcDbEntity
  8
DIBUJOS
 62
     7
100
AcDbVertex
100
AcDb2dVertex
 10
59.9509132098723
 20
48.60614013611275
 30
0.0
  0
VERTEX
  5
6B
330
67
100
AcDbEntity
  8
DIBUJOS
 62
     7
100
AcDbVertex
100
AcDb2dVertex
 10
59.94531615341536
 20
48.60054232645258
 30
0.0
  0
SEQEND
  5
6C
330
67
100
AcDbEntity
  8
DIBUJOS
 62
     7
  0
POLYLINE
  5
6D
330
52
100
AcDbEntity
  8
DIBUJOS
 62
     7
100
AcDb2dPolyline
 66
     1
 10
0.0
 20
0.0
 30
0.0
  0
VERTEX
  5
6E
330
6D
100
AcDbEntity
  8
DIBUJOS
 62
     7
100
AcDbVertex
100
AcDb2dVertex
 10
60.29232687488823
 20
48.60054232645258
 30
0.0
  0
VERTEX
  5
6F
330
6D
100
AcDbEntity
  8
DIBUJOS
 62
     7
100
AcDbVertex
100
AcDb2dVertex
 10
60.28672981843193
 20
48.60054232645258
 30
0.0
  0
SEQEND
  5
70
330
6D
100
AcDbEntity
  8
DIBUJOS
 62
     7
  0
POLYLINE
  5
71
330
52
100
AcDbEntity
  8
DIBUJOS
 62
     7
100
AcDb2dPolyline
 66
     1
 10
0.0
 20
0.0
 30
0.0
  0
VERTEX
  5
72
330
71
100
AcDbEntity
  8
DIBUJOS
 62
     7
100
AcDbVertex
100
AcDb2dVertex
 10
63.25870880017714
 20
48.60054232645258
 30
0.0
  0
VERTEX
  5
73
330
71
100
AcDbEntity
  8
DIBUJOS
 62
     7
100
AcDbVertex
100
AcDb2dVertex
 10
63.25311099051697
 20
48.60614013611275
 30
0.0
  0
VERTEX
  5
74
330
71
100
AcDbEntity
  8
DIBUJOS
 62
     7
100
AcDbVertex
100
AcDb2dVertex
 10
60.29792317814129
 20
48.60614013611275
 30
0.0
  0
VERTEX
  5
75
330
71
100
AcDbEntity
  8
DIBUJOS
 62
     7
100
AcDbVertex
100
AcDb2dVertex
 10
60.29232687488823
 20
48.60054232645258
 30
0.0
  0
SEQEND
  5
76
330
71
100
AcDbEntity
  8
DIBUJOS
 62
     7
  0
POLYLINE
  5
77
330
52
100
AcDbEntity
  8
DIBUJOS
 62
     7
100
AcDb2dPolyline
 66
     1
 10
0.0
 20
0.0
 30
0.0
  0
VERTEX
  5
78
330
77
100
AcDbEntity
  8
DIBUJOS
 62
     7
100
AcDbVertex
100
AcDb2dVertex
 10
63.2643051034302
 20
48.60054232645258
 30
0.0
  0
VERTEX
  5
79
330
77
100
AcDbEntity
  8
DIBUJOS
 62
     7
100
AcDbVertex
100
AcDb2dVertex
 10
63.25870880017714
 20
48.60054232645258
 30
0.0
  0
SEQEND
  5
7A
330
77
100
AcDbEntity
  8
DIBUJOS
 62
     7
  0
POLYLINE
  5
7B
330
52
100
AcDbEntity
  8
DIBUJOS
 62
     7
100
AcDb2dPolyline
 66
     1
 10
0.0
 20
0.0
 30
0.0
  0
VERTEX
  5
7C
330
7B
100
AcDbEntity
  8
DIBUJOS
 62
     7
100
AcDbVertex
100
AcDb2dVertex
 10
63.5833305426203
 20
48.60054232645258
 30
0.0
  0
VERTEX
  5
7D
330
7B
100
AcDbEntity
  8
DIBUJOS
 62
     7
100
AcDbVertex
100
AcDb2dVertex
 10
63.57773423936788
 20
48.60614013611275
 30
0.0
  0
VERTEX
  5
7E
330
7B
100
AcDbEntity
  8
DIBUJOS
 62
     7
100
AcDbVertex
100
AcDb2dVertex
 10
63.26990140668327
 20
48.60614013611275
 30
0.0
  0
VERTEX
  5
7F
330
7B
100
AcDbEntity
  8
DIBUJOS
 62
     7
100
AcDbVertex
100
AcDb2dVertex
 10
63.2643051034302
 20
48.60054232645258
 30
0.0
  0
SEQEND
  5
80
330
7B
100
AcDbEntity
  8
DIBUJOS
 62
     7
  0
POLYLINE
  5
81
330
52
100
AcDbEntity
  8
DIBUJOS
 62
     7
100
AcDb2dPolyline
 66
     1
 10
0.0
 20
0.0
 30
0.0
  0
VERTEX
  5
82
330
81
100
AcDbEntity
  8
DIBUJOS
 62
     7
100
AcDbVertex
100
AcDb2dVertex
 10
63.58892835228112
 20
48.60054232645258
 30
0.0
  0
VERTEX
  5
83
330
81
100
AcDbEntity
  8
DIBUJOS
 62
     7
100
AcDbVertex
100
AcDb2dVertex
 10
63.5833305426203
 20
48.60054232645258
 30
0.0
  0
SEQEND
  5
84
330
81
100
AcDbEntity
  8
DIBUJOS
 62
     7
  0
POLYLINE
  5
85
330
52
100
AcDbEntity
  8
DIBUJOS
 62
     7
100
AcDb2dPolyline
 66
     1
 10
0.0
 20
0.0
 30
0.0
  0
VERTEX
  5
86
330
85
100
AcDbEntity
  8
DIBUJOS
 62
     7
100
AcDbVertex
100
AcDb2dVertex
 10
66.5497132211131
 20
48.60054232645258
 30
0.0
  0
VERTEX
  5
87
330
85
100
AcDbEntity
  8
DIBUJOS
 62
     7
100
AcDbVertex
100
AcDb2dVertex
 10
66.54411541145292
 20
48.60614013611275
 30
0.0
  0
VERTEX
  5
88
330
85
100
AcDbEntity
  8
DIBUJOS
 62
     7
100
AcDbVertex
100
AcDb2dVertex
 10
63.59452465553354
 20
48.60614013611275
 30
0.0
  0
VERTEX
  5
89
330
85
100
AcDbEntity
  8
DIBUJOS
 62
     7
100
AcDbVertex
100
AcDb2dVertex
 10
63.58892835228112
 20
48.60054232645258
 30
0.0
  0
SEQEND
  5
8A
330
85
100
AcDbEntity
  8
DIBUJOS
 62
     7
  0
POLYLINE
  5
8B
330
52
100
AcDbEntity
  8
DIBUJOS
 62
     7
100
AcDb2dPolyline
 66
     1
 10
0.0
 20
0.0
 30
0.0
  0
VERTEX
  5
8C
330
8B
100
AcDbEntity
  8
DIBUJOS
 62
     7
100
AcDbVertex
100
AcDb2dVertex
 10
66.55530952436615
 20
48.60054232645258
 30
0.0
  0
VERTEX
  5
8D
330
8B
100
AcDbEntity
  8
DIBUJOS
 62
     7
100
AcDbVertex
100
AcDb2dVertex
 10
66.5497132211131
 20
48.60054232645258
 30
0.0
  0
SEQEND
  5
8E
330
8B
100
AcDbEntity
  8
DIBUJOS
 62
     7
  0
POLYLINE
  5
8F
330
52
100
AcDbEntity
  8
DIBUJOS
 62
     7
100
AcDb2dPolyline
 66
     1
 10
0.0
 20
0.0
 30
0.0
  0
VERTEX
  5
90
330
8F
100
AcDbEntity
  8
DIBUJOS
 62
     7
100
AcDbVertex
100
AcDb2dVertex
 10
66.56090582761858
 20
48.60054232645258
 30
0.0
  0
VERTEX
  5
91
330
8F
100
AcDbEntity
  8
DIBUJOS
 62
     7
100
AcDbVertex
100
AcDb2dVertex
 10
66.55530952436615
 20
48.60054232645258
 30
0.0
  0
SEQEND
  5
92
330
8F
100
AcDbEntity
  8
DIBUJOS
 62
     7
  0
POLYLINE
  5
93
330
52
100
AcDbEntity
  8
DIBUJOS
 62
     7
100
AcDb2dPolyline
 66
     1
 10
0.0
 20
0.0
 30
0.0
  0
VERTEX
  5
94
330
93
100
AcDbEntity
  8
DIBUJOS
 62
     7
100
AcDbVertex
100
AcDb2dVertex
 10
66.90231949263516
 20
48.60054232645258
 30
0.0
  0
VERTEX
  5
95
330
93
100
AcDbEntity
  8
DIBUJOS
 62
     7
100
AcDbVertex
100
AcDb2dVertex
 10
66.89672318938273
 20
48.60614013611275
 30
0.0
  0
VERTEX
  5
96
330
93
100
AcDbEntity
  8
DIBUJOS
 62
     7
100
AcDbVertex
100
AcDb2dVertex
 10
66.56650363727874
 20
48.60614013611275
 30
0.0
  0
VERTEX
  5
97
330
93
100
AcDbEntity
  8
DIBUJOS
 62
     7
100
AcDbVertex
100
AcDb2dVertex
 10
66.56090582761858
 20
48.60054232645258
 30
0.0
  0
SEQEND
  5
98
330
93
100
AcDbEntity
  8
DIBUJOS
 62
     7
  0
POLYLINE
  5
99
330
52
100
AcDbEntity
  8
DIBUJOS
 62
     7
100
AcDb2dPolyline
 66
     1
 10
0.0
 20
0.0
 30
0.0
  0
VERTEX
  5
9A
330
99
100
AcDbEntity
  8
DIBUJOS
 62
     7
100
AcDbVertex
100
AcDb2dVertex
 10
66.90791730229564
 20
48.60054232645258
 30
0.0
  0
VERTEX
  5
9B
330
99
100
AcDbEntity
  8
DIBUJOS
 62
     7
100
AcDbVertex
100
AcDb2dVertex
 10
66.90231949263516
 20
48.60054232645258
 30
0.0
  0
SEQEND
  5
9C
330
99
100
AcDbEntity
  8
DIBUJOS
 62
     7
  0
POLYLINE
  5
9D
330
52
100
AcDbEntity
  8
DIBUJOS
 62
     7
100
AcDb2dPolyline
 66
     1
 10
0.0
 20
0.0
 30
0.0
  0
VERTEX
  5
9E
330
9D
100
AcDbEntity
  8
DIBUJOS
 62
     7
100
AcDbVertex
100
AcDb2dVertex
 10
66.90791730229564
 20
48.60054232645258
 30
0.0
  0
VERTEX
  5
9F
330
9D
100
AcDbEntity
  8
DIBUJOS
 62
     7
100
AcDbVertex
100
AcDb2dVertex
 10
67.99372516516364
 20
48.61173493295839
 30
0.0
  0
VERTEX
  5
A0
330
9D
100
AcDbEntity
  8
DIBUJOS
 62
     7
100
AcDbVertex
100
AcDb2dVertex
 10
67.99372516516364
 20
49.10986467235091
 30
0.0
  0
VERTEX
  5
A1
330
9D
100
AcDbEntity
  8
DIBUJOS
 62
     7
100
AcDbVertex
100
AcDb2dVertex
 10
67.98253105225041
 20
49.12105727885672
 30
0.0
  0
VERTEX
  5
A2
330
9D
100
AcDbEntity
  8
DIBUJOS
 62
     7
100
AcDbVertex
100
AcDb2dVertex
 10
58.88749281962657
 20
49.12105727885672
 30
0.0
  0
VERTEX
  5
A3
330
9D
100
AcDbEntity
  8
DIBUJOS
 62
     7
100
AcDbVertex
100
AcDb2dVertex
 10
58.87629945991721
 20
49.10986467235091
 30
0.0
  0
VERTEX
  5
A4
330
9D
100
AcDbEntity
  8
DIBUJOS
 62
     7
100
AcDbVertex
100
AcDb2dVertex
 10
58.87629945991721
 20
48.61173493295839
 30
0.0
  0
SEQEND
  5
A5
330
9D
100
AcDbEntity
  8
DIBUJOS
 62
     7
  0
POLYLINE
  5
A6
330
52
100
AcDbEntity
  8
DIBUJOS
 62
     7
100
AcDb2dPolyline
 66
     1
 10
0.0
 20
0.0
 30
0.0
  0
VERTEX
  5
A7
330
A6
100
AcDbEntity
  8
DIBUJOS
 62
     7
100
AcDbVertex
100
AcDb2dVertex
 10
59.93971909695906
 20
48.59494451679241
 30
0.0
  0
VERTEX
  5
A8
330
A6
100
AcDbEntity
  8
DIBUJOS
 62
     7
100
AcDbVertex
100
AcDb2dVertex
 10
59.93971909695906
 20
48.60054232645258
 30
0.0
  0
SEQEND
  5
A9
330
A6
100
AcDbEntity
  8
DIBUJOS
 62
     7
  0
POLYLINE
  5
AA
330
52
100
AcDbEntity
  8
DIBUJOS
 62
     7
100
AcDb2dPolyline
 66
     1
 10
0.0
 20
0.0
 30
0.0
  0
VERTEX
  5
AB
330
AA
100
AcDbEntity
  8
DIBUJOS
 62
     7
100
AcDbVertex
100
AcDb2dVertex
 10
60.29232687488823
 20
48.59494451679241
 30
0.0
  0
VERTEX
  5
AC
330
AA
100
AcDbEntity
  8
DIBUJOS
 62
     7
100
AcDbVertex
100
AcDb2dVertex
 10
60.29232687488823
 20
48.60054232645258
 30
0.0
  0
SEQEND
  5
AD
330
AA
100
AcDbEntity
  8
DIBUJOS
 62
     7
  0
POLYLINE
  5
AE
330
52
100
AcDbEntity
  8
DIBUJOS
 62
     7
100
AcDb2dPolyline
 66
     1
 10
0.0
 20
0.0
 30
0.0
  0
VERTEX
  5
AF
330
AE
100
AcDbEntity
  8
DIBUJOS
 62
     7
100
AcDbVertex
100
AcDb2dVertex
 10
63.2643051034302
 20
48.59494451679241
 30
0.0
  0
VERTEX
  5
B0
330
AE
100
AcDbEntity
  8
DIBUJOS
 62
     7
100
AcDbVertex
100
AcDb2dVertex
 10
63.2643051034302
 20
48.60054232645258
 30
0.0
  0
SEQEND
  5
B1
330
AE
100
AcDbEntity
  8
DIBUJOS
 62
     7
  0
POLYLINE
  5
B2
330
52
100
AcDbEntity
  8
DIBUJOS
 62
     7
100
AcDb2dPolyline
 66
     1
 10
0.0
 20
0.0
 30
0.0
  0
VERTEX
  5
B3
330
B2
100
AcDbEntity
  8
DIBUJOS
 62
     7
100
AcDbVertex
100
AcDb2dVertex
 10
63.58892835228112
 20
48.59494451679241
 30
0.0
  0
VERTEX
  5
B4
330
B2
100
AcDbEntity
  8
DIBUJOS
 62
     7
100
AcDbVertex
100
AcDb2dVertex
 10
63.58892835228112
 20
48.60054232645258
 30
0.0
  0
SEQEND
  5
B5
330
B2
100
AcDbEntity
  8
DIBUJOS
 62
     7
  0
POLYLINE
  5
B6
330
52
100
AcDbEntity
  8
DIBUJOS
 62
     7
100
AcDb2dPolyline
 66
     1
 10
0.0
 20
0.0
 30
0.0
  0
VERTEX
  5
B7
330
B6
100
AcDbEntity
  8
DIBUJOS
 62
     7
100
AcDbVertex
100
AcDb2dVertex
 10
66.55530952436615
 20
48.59494451679241
 30
0.0
  0
VERTEX
  5
B8
330
B6
100
AcDbEntity
  8
DIBUJOS
 62
     7
100
AcDbVertex
100
AcDb2dVertex
 10
66.55530952436615
 20
48.60054232645258
 30
0.0
  0
SEQEND
  5
B9
330
B6
100
AcDbEntity
  8
DIBUJOS
 62
     7
  0
POLYLINE
  5
BA
330
52
100
AcDbEntity
  8
DIBUJOS
 62
     7
100
AcDb2dPolyline
 66
     1
 10
0.0
 20
0.0
 30
0.0
  0
VERTEX
  5
BB
330
BA
100
AcDbEntity
  8
DIBUJOS
 62
     7
100
AcDbVertex
100
AcDb2dVertex
 10
66.90791730229564
 20
48.59494451679241
 30
0.0
  0
VERTEX
  5
BC
330
BA
100
AcDbEntity
  8
DIBUJOS
 62
     7
100
AcDbVertex
100
AcDb2dVertex
 10
66.90791730229564
 20
48.60054232645258
 30
0.0
  0
SEQEND
  5
BD
330
BA
100
AcDbEntity
  8
DIBUJOS
 62
     7
  0
POLYLINE
  5
BE
330
52
100
AcDbEntity
  8
DIBUJOS
 62
     7
100
AcDb2dPolyline
 66
     1
 10
0.0
 20
0.0
 30
0.0
  0
VERTEX
  5
BF
330
BE
100
AcDbEntity
  8
DIBUJOS
 62
     7
100
AcDbVertex
100
AcDb2dVertex
 10
63.25870880017714
 20
44.97931684700619
 30
0.0
  0
VERTEX
  5
C0
330
BE
100
AcDbEntity
  8
DIBUJOS
 62
     7
100
AcDbVertex
100
AcDb2dVertex
 10
63.2643051034302
 20
48.59494451679241
 30
0.0
  0
SEQEND
  5
C1
330
BE
100
AcDbEntity
  8
DIBUJOS
 62
     7
  0
POLYLINE
  5
C2
330
52
100
AcDbEntity
  8
DIBUJOS
 62
     7
100
AcDb2dPolyline
 66
     1
 10
0.0
 20
0.0
 30
0.0
  0
VERTEX
  5
C3
330
C2
100
AcDbEntity
  8
DIBUJOS
 62
     7
100
AcDbVertex
100
AcDb2dVertex
 10
63.58892835228112
 20
44.97931684700619
 30
0.0
  0
VERTEX
  5
C4
330
C2
100
AcDbEntity
  8
DIBUJOS
 62
     7
100
AcDbVertex
100
AcDb2dVertex
 10
63.58892835228112
 20
48.59494451679241
 30
0.0
  0
SEQEND
  5
C5
330
C2
100
AcDbEntity
  8
DIBUJOS
 62
     7
  0
POLYLINE
  5
C6
330
52
100
AcDbEntity
  8
DIBUJOS
 62
     7
100
AcDb2dPolyline
 66
     1
 10
0.0
 20
0.0
 30
0.0
  0
VERTEX
  5
C7
330
C6
100
AcDbEntity
  8
DIBUJOS
 62
     7
100
AcDbVertex
100
AcDb2dVertex
 10
63.25870880017714
 20
44.97372205016055
 30
0.0
  0
VERTEX
  5
C8
330
C6
100
AcDbEntity
  8
DIBUJOS
 62
     7
100
AcDbVertex
100
AcDb2dVertex
 10
63.25311099051697
 20
44.97372205016055
 30
0.0
  0
SEQEND
  5
C9
330
C6
100
AcDbEntity
  8
DIBUJOS
 62
     7
  0
POLYLINE
  5
CA
330
52
100
AcDbEntity
  8
DIBUJOS
 62
     7
100
AcDb2dPolyline
 66
     1
 10
0.0
 20
0.0
 30
0.0
  0
VERTEX
  5
CB
330
CA
100
AcDbEntity
  8
DIBUJOS
 62
     7
100
AcDbVertex
100
AcDb2dVertex
 10
63.25870880017714
 20
44.97372205016055
 30
0.0
  0
VERTEX
  5
CC
330
CA
100
AcDbEntity
  8
DIBUJOS
 62
     7
100
AcDbVertex
100
AcDb2dVertex
 10
63.25870880017714
 20
44.97931684700619
 30
0.0
  0
SEQEND
  5
CD
330
CA
100
AcDbEntity
  8
DIBUJOS
 62
     7
  0
POLYLINE
  5
CE
330
52
100
AcDbEntity
  8
DIBUJOS
 62
     7
100
AcDb2dPolyline
 66
     1
 10
0.0
 20
0.0
 30
0.0
  0
VERTEX
  5
CF
330
CE
100
AcDbEntity
  8
DIBUJOS
 62
     7
100
AcDbVertex
100
AcDb2dVertex
 10
63.58892835228112
 20
44.97372205016055
 30
0.0
  0
VERTEX
  5
D0
330
CE
100
AcDbEntity
  8
DIBUJOS
 62
     7
100
AcDbVertex
100
AcDb2dVertex
 10
63.58892835228112
 20
44.97931684700619
 30
0.0
  0
SEQEND
  5
D1
330
CE
100
AcDbEntity
  8
DIBUJOS
 62
     7
  0
POLYLINE
  5
D2
330
52
100
AcDbEntity
  8
DIBUJOS
 62
     7
100
AcDb2dPolyline
 66
     1
 10
0.0
 20
0.0
 30
0.0
  0
VERTEX
  5
D3
330
D2
100
AcDbEntity
  8
DIBUJOS
 62
     7
100
AcDbVertex
100
AcDb2dVertex
 10
63.59452465553354
 20
44.97372205016055
 30
0.0
  0
VERTEX
  5
D4
330
D2
100
AcDbEntity
  8
DIBUJOS
 62
     7
100
AcDbVertex
100
AcDb2dVertex
 10
63.58892835228112
 20
44.97372205016055
 30
0.0
  0
SEQEND
  5
D5
330
D2
100
AcDbEntity
  8
DIBUJOS
 62
     7
  0
POLYLINE
  5
D6
330
52
100
AcDbEntity
  8
DIBUJOS
 62
     7
100
AcDb2dPolyline
 66
     1
 10
0.0
 20
0.0
 30
0.0
  0
VERTEX
  5
D7
330
D6
100
AcDbEntity
  8
DIBUJOS
 62
     7
100
AcDbVertex
100
AcDb2dVertex
 10
63.25870880017714
 20
44.96812424050038
 30
0.0
  0
VERTEX
  5
D8
330
D6
100
AcDbEntity
  8
DIBUJOS
 62
     7
100
AcDbVertex
100
AcDb2dVertex
 10
63.25870880017714
 20
44.97372205016055
 30
0.0
  0
SEQEND
  5
D9
330
D6
100
AcDbEntity
  8
DIBUJOS
 62
     7
  0
POLYLINE
  5
DA
330
52
100
AcDbEntity
  8
DIBUJOS
 62
     7
100
AcDb2dPolyline
 66
     1
 10
0.0
 20
0.0
 30
0.0
  0
VERTEX
  5
DB
330
DA
100
AcDbEntity
  8
DIBUJOS
 62
     7
100
AcDbVertex
100
AcDb2dVertex
 10
63.58892835228112
 20
44.96812424050038
 30
0.0
  0
VERTEX
  5
DC
330
DA
100
AcDbEntity
  8
DIBUJOS
 62
     7
100
AcDbVertex
100
AcDb2dVertex
 10
63.58892835228112
 20
44.97372205016055
 30
0.0
  0
SEQEND
  5
DD
330
DA
100
AcDbEntity
  8
DIBUJOS
 62
     7
  0
POLYLINE
  5
DE
330
52
100
AcDbEntity
  8
DIBUJOS
 62
     7
100
AcDb2dPolyline
 66
     1
 10
0.0
 20
0.0
 30
0.0
  0
VERTEX
  5
DF
330
DE
100
AcDbEntity
  8
DIBUJOS
 62
     7
100
AcDbVertex
100
AcDb2dVertex
 10
61.07030265827581
 20
44.96252643084021
 30
0.0
  0
VERTEX
  5
E0
330
DE
100
AcDbEntity
  8
DIBUJOS
 62
     7
100
AcDbVertex
100
AcDb2dVertex
 10
61.06134706666354
 20
44.97483980440393
 30
0.0
  0
VERTEX
  5
E1
330
DE
100
AcDbEntity
  8
DIBUJOS
 62
     7
100
AcDbVertex
100
AcDb2dVertex
 10
60.29447953097142
 20
48.57298712346451
 30
0.0
  0
VERTEX
  5
E2
330
DE
100
AcDbEntity
  8
DIBUJOS
 62
     7
100
AcDbVertex
100
AcDb2dVertex
 10
60.29232687488823
 20
48.59494451679241
 30
0.0
  0
SEQEND
  5
E3
330
DE
100
AcDbEntity
  8
DIBUJOS
 62
     7
  0
POLYLINE
  5
E4
330
52
100
AcDbEntity
  8
DIBUJOS
 62
     7
100
AcDb2dPolyline
 66
     1
 10
0.0
 20
0.0
 30
0.0
  0
VERTEX
  5
E5
330
E4
100
AcDbEntity
  8
DIBUJOS
 62
     7
100
AcDbVertex
100
AcDb2dVertex
 10
61.07030265827581
 20
44.96252643084021
 30
0.0
  0
VERTEX
  5
E6
330
E4
100
AcDbEntity
  8
DIBUJOS
 62
     7
100
AcDbVertex
100
AcDb2dVertex
 10
61.08710060647827
 20
44.97092917095984
 30
0.0
  0
VERTEX
  5
E7
330
E4
100
AcDbEntity
  8
DIBUJOS
 62
     7
100
AcDbVertex
100
AcDb2dVertex
 10
63.25311099051697
 20
44.97372205016055
 30
0.0
  0
SEQEND
  5
E8
330
E4
100
AcDbEntity
  8
DIBUJOS
 62
     7
  0
POLYLINE
  5
E9
330
52
100
AcDbEntity
  8
DIBUJOS
 62
     7
100
AcDb2dPolyline
 66
     1
 10
0.0
 20
0.0
 30
0.0
  0
VERTEX
  5
EA
330
E9
100
AcDbEntity
  8
DIBUJOS
 62
     7
100
AcDbVertex
100
AcDb2dVertex
 10
65.7717366845226
 20
44.96252643084021
 30
0.0
  0
VERTEX
  5
EB
330
E9
100
AcDbEntity
  8
DIBUJOS
 62
     7
100
AcDbVertex
100
AcDb2dVertex
 10
65.76054257160936
 20
44.97372205016055
 30
0.0
  0
VERTEX
  5
EC
330
E9
100
AcDbEntity
  8
DIBUJOS
 62
     7
100
AcDbVertex
100
AcDb2dVertex
 10
63.59452465553354
 20
44.97372205016055
 30
0.0
  0
SEQEND
  5
ED
330
E9
100
AcDbEntity
  8
DIBUJOS
 62
     7
  0
POLYLINE
  5
EE
330
52
100
AcDbEntity
  8
DIBUJOS
 62
     7
100
AcDb2dPolyline
 66
     1
 10
0.0
 20
0.0
 30
0.0
  0
VERTEX
  5
EF
330
EE
100
AcDbEntity
  8
DIBUJOS
 62
     7
100
AcDbVertex
100
AcDb2dVertex
 10
65.77733449418277
 20
44.96252643084021
 30
0.0
  0
VERTEX
  5
F0
330
EE
100
AcDbEntity
  8
DIBUJOS
 62
     7
100
AcDbVertex
100
AcDb2dVertex
 10
65.7717366845226
 20
44.96252643084021
 30
0.0
  0
SEQEND
  5
F1
330
EE
100
AcDbEntity
  8
DIBUJOS
 62
     7
  0
POLYLINE
  5
F2
330
52
100
AcDbEntity
  8
DIBUJOS
 62
     7
100
AcDb2dPolyline
 66
     1
 10
0.0
 20
0.0
 30
0.0
  0
VERTEX
  5
F3
330
F2
100
AcDbEntity
  8
DIBUJOS
 62
     7
100
AcDbVertex
100
AcDb2dVertex
 10
65.77733449418277
 20
44.96252643084021
 30
0.0
  0
VERTEX
  5
F4
330
F2
100
AcDbEntity
  8
DIBUJOS
 62
     7
100
AcDbVertex
100
AcDb2dVertex
 10
65.78723610960158
 20
44.97458371515705
 30
0.0
  0
VERTEX
  5
F5
330
F2
100
AcDbEntity
  8
DIBUJOS
 62
     7
100
AcDbVertex
100
AcDb2dVertex
 10
66.55315686828297
 20
48.57298712346451
 30
0.0
  0
VERTEX
  5
F6
330
F2
100
AcDbEntity
  8
DIBUJOS
 62
     7
100
AcDbVertex
100
AcDb2dVertex
 10
66.55530952436615
 20
48.59494451679241
 30
0.0
  0
SEQEND
  5
F7
330
F2
100
AcDbEntity
  8
DIBUJOS
 62
     7
  0
POLYLINE
  5
F8
330
52
100
AcDbEntity
  8
DIBUJOS
 62
     7
100
AcDb2dPolyline
 66
     1
 10
0.0
 20
0.0
 30
0.0
  0
VERTEX
  5
F9
330
F8
100
AcDbEntity
  8
DIBUJOS
 62
     7
100
AcDbVertex
100
AcDb2dVertex
 10
65.77733449418277
 20
44.95693163399457
 30
0.0
  0
VERTEX
  5
FA
330
F8
100
AcDbEntity
  8
DIBUJOS
 62
     7
100
AcDbVertex
100
AcDb2dVertex
 10
65.77733449418277
 20
44.96252643084021
 30
0.0
  0
SEQEND
  5
FB
330
F8
100
AcDbEntity
  8
DIBUJOS
 62
     7
  0
POLYLINE
  5
FC
330
52
100
AcDbEntity
  8
DIBUJOS
 62
     7
100
AcDb2dPolyline
 66
     1
 10
0.0
 20
0.0
 30
0.0
  0
VERTEX
  5
FD
330
FC
100
AcDbEntity
  8
DIBUJOS
 62
     7
100
AcDbVertex
100
AcDb2dVertex
 10
61.17104666167879
 20
44.4811901204282
 30
0.0
  0
VERTEX
  5
FE
330
FC
100
AcDbEntity
  8
DIBUJOS
 62
     7
100
AcDbVertex
100
AcDb2dVertex
 10
61.07030265827581
 20
44.96252643084021
 30
0.0
  0
SEQEND
  5
FF
330
FC
100
AcDbEntity
  8
DIBUJOS
 62
     7
  0
POLYLINE
  5
100
330
52
100
AcDbEntity
  8
DIBUJOS
 62
     7
100
AcDb2dPolyline
 66
     1
 10
0.0
 20
0.0
 30
0.0
  0
VERTEX
  5
101
330
100
100
AcDbEntity
  8
DIBUJOS
 62
     7
100
AcDbVertex
100
AcDb2dVertex
 10
65.67658898437172
 20
44.4811901204282
 30
0.0
  0
VERTEX
  5
102
330
100
100
AcDbEntity
  8
DIBUJOS
 62
     7
100
AcDbVertex
100
AcDb2dVertex
 10
65.77733449418277
 20
44.95693163399457
 30
0.0
  0
SEQEND
  5
103
330
100
100
AcDbEntity
  8
DIBUJOS
 62
     7
  0
POLYLINE
  5
104
330
52
100
AcDbEntity
  8
DIBUJOS
 62
     7
100
AcDb2dPolyline
 66
     1
 10
0.0
 20
0.0
 30
0.0
  0
VERTEX
  5
105
330
104
100
AcDbEntity
  8
DIBUJOS
 62
     7
100
AcDbVertex
100
AcDb2dVertex
 10
61.17104666167879
 20
44.47559231076836
 30
0.0
  0
VERTEX
  5
106
330
104
100
AcDbEntity
  8
DIBUJOS
 62
     7
100
AcDbVertex
100
AcDb2dVertex
 10
61.16545035842604
 20
44.47559231076836
 30
0.0
  0
SEQEND
  5
107
330
104
100
AcDbEntity
  8
DIBUJOS
 62
     7
  0
POLYLINE
  5
108
330
52
100
AcDbEntity
  8
DIBUJOS
 62
     7
100
AcDb2dPolyline
 66
     1
 10
0.0
 20
0.0
 30
0.0
  0
VERTEX
  5
109
330
108
100
AcDbEntity
  8
DIBUJOS
 62
     7
100
AcDbVertex
100
AcDb2dVertex
 10
61.17104666167879
 20
44.47559231076836
 30
0.0
  0
VERTEX
  5
10A
330
108
100
AcDbEntity
  8
DIBUJOS
 62
     7
100
AcDbVertex
100
AcDb2dVertex
 10
61.17104666167879
 20
44.4811901204282
 30
0.0
  0
SEQEND
  5
10B
330
108
100
AcDbEntity
  8
DIBUJOS
 62
     7
  0
POLYLINE
  5
10C
330
52
100
AcDbEntity
  8
DIBUJOS
 62
     7
100
AcDb2dPolyline
 66
     1
 10
0.0
 20
0.0
 30
0.0
  0
VERTEX
  5
10D
330
10C
100
AcDbEntity
  8
DIBUJOS
 62
     7
100
AcDbVertex
100
AcDb2dVertex
 10
61.17664447133896
 20
44.47559231076836
 30
0.0
  0
VERTEX
  5
10E
330
10C
100
AcDbEntity
  8
DIBUJOS
 62
     7
100
AcDbVertex
100
AcDb2dVertex
 10
61.17104666167879
 20
44.47559231076836
 30
0.0
  0
SEQEND
  5
10F
330
10C
100
AcDbEntity
  8
DIBUJOS
 62
     7
  0
POLYLINE
  5
110
330
52
100
AcDbEntity
  8
DIBUJOS
 62
     7
100
AcDb2dPolyline
 66
     1
 10
0.0
 20
0.0
 30
0.0
  0
VERTEX
  5
111
330
110
100
AcDbEntity
  8
DIBUJOS
 62
     7
100
AcDbVertex
100
AcDb2dVertex
 10
63.25870880017714
 20
44.47559231076836
 30
0.0
  0
VERTEX
  5
112
330
110
100
AcDbEntity
  8
DIBUJOS
 62
     7
100
AcDbVertex
100
AcDb2dVertex
 10
63.25870880017714
 20
44.96812424050038
 30
0.0
  0
SEQEND
  5
113
330
110
100
AcDbEntity
  8
DIBUJOS
 62
     7
  0
POLYLINE
  5
114
330
52
100
AcDbEntity
  8
DIBUJOS
 62
     7
100
AcDb2dPolyline
 66
     1
 10
0.0
 20
0.0
 30
0.0
  0
VERTEX
  5
115
330
114
100
AcDbEntity
  8
DIBUJOS
 62
     7
100
AcDbVertex
100
AcDb2dVertex
 10
63.58892835228112
 20
44.47559231076836
 30
0.0
  0
VERTEX
  5
116
330
114
100
AcDbEntity
  8
DIBUJOS
 62
     7
100
AcDbVertex
100
AcDb2dVertex
 10
63.58892835228112
 20
44.96812424050038
 30
0.0
  0
SEQEND
  5
117
330
114
100
AcDbEntity
  8
DIBUJOS
 62
     7
  0
POLYLINE
  5
118
330
52
100
AcDbEntity
  8
DIBUJOS
 62
     7
100
AcDb2dPolyline
 66
     1
 10
0.0
 20
0.0
 30
0.0
  0
VERTEX
  5
119
330
118
100
AcDbEntity
  8
DIBUJOS
 62
     7
100
AcDbVertex
100
AcDb2dVertex
 10
65.67658898437172
 20
44.47559231076836
 30
0.0
  0
VERTEX
  5
11A
330
118
100
AcDbEntity
  8
DIBUJOS
 62
     7
100
AcDbVertex
100
AcDb2dVertex
 10
65.67658898437172
 20
44.4811901204282
 30
0.0
  0
SEQEND
  5
11B
330
118
100
AcDbEntity
  8
DIBUJOS
 62
     7
  0
POLYLINE
  5
11C
330
52
100
AcDbEntity
  8
DIBUJOS
 62
     7
100
AcDb2dPolyline
 66
     1
 10
0.0
 20
0.0
 30
0.0
  0
VERTEX
  5
11D
330
11C
100
AcDbEntity
  8
DIBUJOS
 62
     7
100
AcDbVertex
100
AcDb2dVertex
 10
65.68218528762479
 20
44.47559231076836
 30
0.0
  0
VERTEX
  5
11E
330
11C
100
AcDbEntity
  8
DIBUJOS
 62
     7
100
AcDbVertex
100
AcDb2dVertex
 10
65.67658898437172
 20
44.47559231076836
 30
0.0
  0
SEQEND
  5
11F
330
11C
100
AcDbEntity
  8
DIBUJOS
 62
     7
  0
POLYLINE
  5
120
330
52
100
AcDbEntity
  8
DIBUJOS
 62
     7
100
AcDb2dPolyline
 66
     1
 10
0.0
 20
0.0
 30
0.0
  0
VERTEX
  5
121
330
120
100
AcDbEntity
  8
DIBUJOS
 62
     7
100
AcDbVertex
100
AcDb2dVertex
 10
63.25870880017714
 20
44.46999751392239
 30
0.0
  0
VERTEX
  5
122
330
120
100
AcDbEntity
  8
DIBUJOS
 62
     7
100
AcDbVertex
100
AcDb2dVertex
 10
63.25311099051697
 20
44.46999751392239
 30
0.0
  0
SEQEND
  5
123
330
120
100
AcDbEntity
  8
DIBUJOS
 62
     7
  0
POLYLINE
  5
124
330
52
100
AcDbEntity
  8
DIBUJOS
 62
     7
100
AcDb2dPolyline
 66
     1
 10
0.0
 20
0.0
 30
0.0
  0
VERTEX
  5
125
330
124
100
AcDbEntity
  8
DIBUJOS
 62
     7
100
AcDbVertex
100
AcDb2dVertex
 10
63.25870880017714
 20
44.46999751392239
 30
0.0
  0
VERTEX
  5
126
330
124
100
AcDbEntity
  8
DIBUJOS
 62
     7
100
AcDbVertex
100
AcDb2dVertex
 10
63.25870880017714
 20
44.47559231076836
 30
0.0
  0
SEQEND
  5
127
330
124
100
AcDbEntity
  8
DIBUJOS
 62
     7
  0
POLYLINE
  5
128
330
52
100
AcDbEntity
  8
DIBUJOS
 62
     7
100
AcDb2dPolyline
 66
     1
 10
0.0
 20
0.0
 30
0.0
  0
VERTEX
  5
129
330
128
100
AcDbEntity
  8
DIBUJOS
 62
     7
100
AcDbVertex
100
AcDb2dVertex
 10
63.2643051034302
 20
44.46999751392239
 30
0.0
  0
VERTEX
  5
12A
330
128
100
AcDbEntity
  8
DIBUJOS
 62
     7
100
AcDbVertex
100
AcDb2dVertex
 10
63.25870880017714
 20
44.46999751392239
 30
0.0
  0
SEQEND
  5
12B
330
128
100
AcDbEntity
  8
DIBUJOS
 62
     7
  0
POLYLINE
  5
12C
330
52
100
AcDbEntity
  8
DIBUJOS
 62
     7
100
AcDb2dPolyline
 66
     1
 10
0.0
 20
0.0
 30
0.0
  0
VERTEX
  5
12D
330
12C
100
AcDbEntity
  8
DIBUJOS
 62
     7
100
AcDbVertex
100
AcDb2dVertex
 10
63.58892835228112
 20
44.46999751392239
 30
0.0
  0
VERTEX
  5
12E
330
12C
100
AcDbEntity
  8
DIBUJOS
 62
     7
100
AcDbVertex
100
AcDb2dVertex
 10
63.5833305426203
 20
44.46999751392239
 30
0.0
  0
SEQEND
  5
12F
330
12C
100
AcDbEntity
  8
DIBUJOS
 62
     7
  0
POLYLINE
  5
130
330
52
100
AcDbEntity
  8
DIBUJOS
 62
     7
100
AcDb2dPolyline
 66
     1
 10
0.0
 20
0.0
 30
0.0
  0
VERTEX
  5
131
330
130
100
AcDbEntity
  8
DIBUJOS
 62
     7
100
AcDbVertex
100
AcDb2dVertex
 10
63.58892835228112
 20
44.46999751392239
 30
0.0
  0
VERTEX
  5
132
330
130
100
AcDbEntity
  8
DIBUJOS
 62
     7
100
AcDbVertex
100
AcDb2dVertex
 10
63.58892835228112
 20
44.47559231076836
 30
0.0
  0
SEQEND
  5
133
330
130
100
AcDbEntity
  8
DIBUJOS
 62
     7
  0
POLYLINE
  5
134
330
52
100
AcDbEntity
  8
DIBUJOS
 62
     7
100
AcDb2dPolyline
 66
     1
 10
0.0
 20
0.0
 30
0.0
  0
VERTEX
  5
135
330
134
100
AcDbEntity
  8
DIBUJOS
 62
     7
100
AcDbVertex
100
AcDb2dVertex
 10
63.59452465553354
 20
44.46999751392239
 30
0.0
  0
VERTEX
  5
136
330
134
100
AcDbEntity
  8
DIBUJOS
 62
     7
100
AcDbVertex
100
AcDb2dVertex
 10
63.58892835228112
 20
44.46999751392239
 30
0.0
  0
SEQEND
  5
137
330
134
100
AcDbEntity
  8
DIBUJOS
 62
     7
  0
POLYLINE
  5
138
330
52
100
AcDbEntity
  8
DIBUJOS
 62
     7
100
AcDb2dPolyline
 66
     1
 10
0.0
 20
0.0
 30
0.0
  0
VERTEX
  5
139
330
138
100
AcDbEntity
  8
DIBUJOS
 62
     7
100
AcDbVertex
100
AcDb2dVertex
 10
59.93971909695906
 20
48.59494451679241
 30
0.0
  0
VERTEX
  5
13A
330
138
100
AcDbEntity
  8
DIBUJOS
 62
     7
100
AcDbVertex
100
AcDb2dVertex
 10
59.94864380722056
 20
48.54979146330596
 30
0.0
  0
VERTEX
  5
13B
330
138
100
AcDbEntity
  8
DIBUJOS
 62
     7
100
AcDbVertex
100
AcDb2dVertex
 10
60.61694937053559
 20
44.47559231076836
 30
0.0
  0
VERTEX
  5
13C
330
138
100
AcDbEntity
  8
DIBUJOS
 62
     7
100
AcDbVertex
100
AcDb2dVertex
 10
60.6281434834485
 20
44.46439970426222
 30
0.0
  0
VERTEX
  5
13D
330
138
100
AcDbEntity
  8
DIBUJOS
 62
     7
100
AcDbVertex
100
AcDb2dVertex
 10
61.1542562455128
 20
44.46439970426222
 30
0.0
  0
VERTEX
  5
13E
330
138
100
AcDbEntity
  8
DIBUJOS
 62
     7
100
AcDbVertex
100
AcDb2dVertex
 10
61.16545035842604
 20
44.47559231076836
 30
0.0
  0
SEQEND
  5
13F
330
138
100
AcDbEntity
  8
DIBUJOS
 62
     7
  0
POLYLINE
  5
140
330
52
100
AcDbEntity
  8
DIBUJOS
 62
     7
100
AcDb2dPolyline
 66
     1
 10
0.0
 20
0.0
 30
0.0
  0
VERTEX
  5
141
330
140
100
AcDbEntity
  8
DIBUJOS
 62
     7
100
AcDbVertex
100
AcDb2dVertex
 10
61.17664447133896
 20
44.47559231076836
 30
0.0
  0
VERTEX
  5
142
330
140
100
AcDbEntity
  8
DIBUJOS
 62
     7
100
AcDbVertex
100
AcDb2dVertex
 10
61.18783858425219
 20
44.46439970426222
 30
0.0
  0
VERTEX
  5
143
330
140
100
AcDbEntity
  8
DIBUJOS
 62
     7
100
AcDbVertex
100
AcDb2dVertex
 10
63.25311099051697
 20
44.46999751392239
 30
0.0
  0
SEQEND
  5
144
330
140
100
AcDbEntity
  8
DIBUJOS
 62
     7
  0
POLYLINE
  5
145
330
52
100
AcDbEntity
  8
DIBUJOS
 62
     7
100
AcDb2dPolyline
 66
     1
 10
0.0
 20
0.0
 30
0.0
  0
VERTEX
  5
146
330
145
100
AcDbEntity
  8
DIBUJOS
 62
     7
100
AcDbVertex
100
AcDb2dVertex
 10
63.2643051034302
 20
44.46999751392239
 30
0.0
  0
VERTEX
  5
147
330
145
100
AcDbEntity
  8
DIBUJOS
 62
     7
100
AcDbVertex
100
AcDb2dVertex
 10
63.26990140668327
 20
44.46439970426222
 30
0.0
  0
VERTEX
  5
148
330
145
100
AcDbEntity
  8
DIBUJOS
 62
     7
100
AcDbVertex
100
AcDb2dVertex
 10
63.57213642970771
 20
44.46439970426222
 30
0.0
  0
VERTEX
  5
149
330
145
100
AcDbEntity
  8
DIBUJOS
 62
     7
100
AcDbVertex
100
AcDb2dVertex
 10
63.5833305426203
 20
44.46999751392239
 30
0.0
  0
SEQEND
  5
14A
330
145
100
AcDbEntity
  8
DIBUJOS
 62
     7
  0
POLYLINE
  5
14B
330
52
100
AcDbEntity
  8
DIBUJOS
 62
     7
100
AcDb2dPolyline
 66
     1
 10
0.0
 20
0.0
 30
0.0
  0
VERTEX
  5
14C
330
14B
100
AcDbEntity
  8
DIBUJOS
 62
     7
100
AcDbVertex
100
AcDb2dVertex
 10
63.59452465553354
 20
44.46999751392239
 30
0.0
  0
VERTEX
  5
14D
330
14B
100
AcDbEntity
  8
DIBUJOS
 62
     7
100
AcDbVertex
100
AcDb2dVertex
 10
63.59956208166491
 20
44.4688767468648
 30
0.0
  0
VERTEX
  5
14E
330
14B
100
AcDbEntity
  8
DIBUJOS
 62
     7
100
AcDbVertex
100
AcDb2dVertex
 10
65.66595525498792
 20
44.4688767468648
 30
0.0
  0
VERTEX
  5
14F
330
14B
100
AcDbEntity
  8
DIBUJOS
 62
     7
100
AcDbVertex
100
AcDb2dVertex
 10
65.67658898437172
 20
44.47559231076836
 30
0.0
  0
SEQEND
  5
150
330
14B
100
AcDbEntity
  8
DIBUJOS
 62
     7
  0
POLYLINE
  5
151
330
52
100
AcDbEntity
  8
DIBUJOS
 62
     7
100
AcDb2dPolyline
 66
     1
 10
0.0
 20
0.0
 30
0.0
  0
VERTEX
  5
152
330
151
100
AcDbEntity
  8
DIBUJOS
 62
     7
100
AcDbVertex
100
AcDb2dVertex
 10
65.68218528762479
 20
44.47559231076836
 30
0.0
  0
VERTEX
  5
153
330
151
100
AcDbEntity
  8
DIBUJOS
 62
     7
100
AcDbVertex
100
AcDb2dVertex
 10
65.69337940053802
 20
44.46439970426222
 30
0.0
  0
VERTEX
  5
154
330
151
100
AcDbEntity
  8
DIBUJOS
 62
     7
100
AcDbVertex
100
AcDb2dVertex
 10
66.21389585934958
 20
44.46439970426222
 30
0.0
  0
VERTEX
  5
155
330
151
100
AcDbEntity
  8
DIBUJOS
 62
     7
100
AcDbVertex
100
AcDb2dVertex
 10
66.22508997226218
 20
44.46999751392239
 30
0.0
  0
VERTEX
  5
156
330
151
100
AcDbEntity
  8
DIBUJOS
 62
     7
100
AcDbVertex
100
AcDb2dVertex
 10
66.89899183883027
 20
48.54979146330596
 30
0.0
  0
VERTEX
  5
157
330
151
100
AcDbEntity
  8
DIBUJOS
 62
     7
100
AcDbVertex
100
AcDb2dVertex
 10
66.90791730229564
 20
48.59494451679241
 30
0.0
  0
SEQEND
  5
158
330
151
100
AcDbEntity
  8
DIBUJOS
 62
     7
  0
ENDBLK
  5
55
330
52
100
AcDbEntity
  8
0
100
AcDbBlockEnd
  0
BLOCK
  5
15B
330
159
100
AcDbEntity
  8
0
100
AcDbBlockBegin
  2
BLOCK_3
 70
     0
 10
0.0
 20
0.0
 30
0.0
  3
BLOCK_3
  1

  0
POLYLINE
  5
15D
330
159
100
AcDbEntity
  8
DIBUJOS
 62
     7
100
AcDb2dPolyline
 66
     1
 10
0.0
 20
0.0
 30
0.0
  0
VERTEX
  5
15E
330
15D
100
AcDbEntity
  8
DIBUJOS
 62
     7
100
AcDbVertex
100
AcDb2dVertex
 10
76.14287667390715
 20
48.60054232645258
 30
0.0
  0
VERTEX
  5
15F
330
15D
100
AcDbEntity
  8
DIBUJOS
 62
     7
100
AcDbVertex
100
AcDb2dVertex
 10
76.13728187706184
 20
48.60054232645258
 30
0.0
  0
SEQEND
  5
160
330
15D
100
AcDbEntity
  8
DIBUJOS
 62
     7
  0
POLYLINE
  5
161
330
159
100
AcDbEntity
  8
DIBUJOS
 62
     7
100
AcDb2dPolyline
 66
     1
 10
0.0
 20
0.0
 30
0.0
  0
VERTEX
  5
162
330
161
100
AcDbEntity
  8
DIBUJOS
 62
     7
100
AcDbVertex
100
AcDb2dVertex
 10
76.14847448356733
 20
48.60054232645258
 30
0.0
  0
VERTEX
  5
163
330
161
100
AcDbEntity
  8
DIBUJOS
 62
     7
100
AcDbVertex
100
AcDb2dVertex
 10
76.14287667390715
 20
48.60054232645258
 30
0.0
  0
SEQEND
  5
164
330
161
100
AcDbEntity
  8
DIBUJOS
 62
     7
  0
POLYLINE
  5
165
330
159
100
AcDbEntity
  8
DIBUJOS
 62
     7
100
AcDb2dPolyline
 66
     1
 10
0.0
 20
0.0
 30
0.0
  0
VERTEX
  5
166
330
165
100
AcDbEntity
  8
DIBUJOS
 62
     7
100
AcDbVertex
100
AcDb2dVertex
 10
76.48429184533083
 20
48.60054232645258
 30
0.0
  0
VERTEX
  5
167
330
165
100
AcDbEntity
  8
DIBUJOS
 62
     7
100
AcDbVertex
100
AcDb2dVertex
 10
76.14847448356733
 20
48.60054232645258
 30
0.0
  0
SEQEND
  5
168
330
165
100
AcDbEntity
  8
DIBUJOS
 62
     7
  0
POLYLINE
  5
169
330
159
100
AcDbEntity
  8
DIBUJOS
 62
     7
100
AcDb2dPolyline
 66
     1
 10
0.0
 20
0.0
 30
0.0
  0
VERTEX
  5
16A
330
169
100
AcDbEntity
  8
DIBUJOS
 62
     7
100
AcDbVertex
100
AcDb2dVertex
 10
76.489889654991
 20
48.60054232645258
 30
0.0
  0
VERTEX
  5
16B
330
169
100
AcDbEntity
  8
DIBUJOS
 62
     7
100
AcDbVertex
100
AcDb2dVertex
 10
76.48429184533083
 20
48.60054232645258
 30
0.0
  0
SEQEND
  5
16C
330
169
100
AcDbEntity
  8
DIBUJOS
 62
     7
  0
POLYLINE
  5
16D
330
159
100
AcDbEntity
  8
DIBUJOS
 62
     7
100
AcDb2dPolyline
 66
     1
 10
0.0
 20
0.0
 30
0.0
  0
VERTEX
  5
16E
330
16D
100
AcDbEntity
  8
DIBUJOS
 62
     7
100
AcDbVertex
100
AcDb2dVertex
 10
76.49548445183697
 20
48.60054232645258
 30
0.0
  0
VERTEX
  5
16F
330
16D
100
AcDbEntity
  8
DIBUJOS
 62
     7
100
AcDbVertex
100
AcDb2dVertex
 10
76.489889654991
 20
48.60054232645258
 30
0.0
  0
SEQEND
  5
170
330
16D
100
AcDbEntity
  8
DIBUJOS
 62
     7
  0
POLYLINE
  5
171
330
159
100
AcDbEntity
  8
DIBUJOS
 62
     7
100
AcDb2dPolyline
 66
     1
 10
0.0
 20
0.0
 30
0.0
  0
VERTEX
  5
172
330
171
100
AcDbEntity
  8
DIBUJOS
 62
     7
100
AcDbVertex
100
AcDb2dVertex
 10
79.45627082707637
 20
48.60054232645258
 30
0.0
  0
VERTEX
  5
173
330
171
100
AcDbEntity
  8
DIBUJOS
 62
     7
100
AcDbVertex
100
AcDb2dVertex
 10
76.49548445183697
 20
48.60054232645258
 30
0.0
  0
SEQEND
  5
174
330
171
100
AcDbEntity
  8
DIBUJOS
 62
     7
  0
POLYLINE
  5
175
330
159
100
AcDbEntity
  8
DIBUJOS
 62
     7
100
AcDb2dPolyline
 66
     1
 10
0.0
 20
0.0
 30
0.0
  0
VERTEX
  5
176
330
175
100
AcDbEntity
  8
DIBUJOS
 62
     7
100
AcDbVertex
100
AcDb2dVertex
 10
79.46186863673654
 20
48.60054232645258
 30
0.0
  0
VERTEX
  5
177
330
175
100
AcDbEntity
  8
DIBUJOS
 62
     7
100
AcDbVertex
100
AcDb2dVertex
 10
79.45627082707637
 20
48.60054232645258
 30
0.0
  0
SEQEND
  5
178
330
175
100
AcDbEntity
  8
DIBUJOS
 62
     7
  0
POLYLINE
  5
179
330
159
100
AcDbEntity
  8
DIBUJOS
 62
     7
100
AcDb2dPolyline
 66
     1
 10
0.0
 20
0.0
 30
0.0
  0
VERTEX
  5
17A
330
179
100
AcDbEntity
  8
DIBUJOS
 62
     7
100
AcDbVertex
100
AcDb2dVertex
 10
79.4674634335825
 20
48.60054232645258
 30
0.0
  0
VERTEX
  5
17B
330
179
100
AcDbEntity
  8
DIBUJOS
 62
     7
100
AcDbVertex
100
AcDb2dVertex
 10
79.46186863673654
 20
48.60054232645258
 30
0.0
  0
SEQEND
  5
17C
330
179
100
AcDbEntity
  8
DIBUJOS
 62
     7
  0
POLYLINE
  5
17D
330
159
100
AcDbEntity
  8
DIBUJOS
 62
     7
100
AcDb2dPolyline
 66
     1
 10
0.0
 20
0.0
 30
0.0
  0
VERTEX
  5
17E
330
17D
100
AcDbEntity
  8
DIBUJOS
 62
     7
100
AcDbVertex
100
AcDb2dVertex
 10
79.78089256951954
 20
48.60054232645258
 30
0.0
  0
VERTEX
  5
17F
330
17D
100
AcDbEntity
  8
DIBUJOS
 62
     7
100
AcDbVertex
100
AcDb2dVertex
 10
79.4674634335825
 20
48.60054232645258
 30
0.0
  0
SEQEND
  5
180
330
17D
100
AcDbEntity
  8
DIBUJOS
 62
     7
  0
POLYLINE
  5
181
330
159
100
AcDbEntity
  8
DIBUJOS
 62
     7
100
AcDb2dPolyline
 66
     1
 10
0.0
 20
0.0
 30
0.0
  0
VERTEX
  5
182
330
181
100
AcDbEntity
  8
DIBUJOS
 62
     7
100
AcDbVertex
100
AcDb2dVertex
 10
79.7864903791797
 20
48.60054232645258
 30
0.0
  0
VERTEX
  5
183
330
181
100
AcDbEntity
  8
DIBUJOS
 62
     7
100
AcDbVertex
100
AcDb2dVertex
 10
79.78089256951954
 20
48.60054232645258
 30
0.0
  0
SEQEND
  5
184
330
181
100
AcDbEntity
  8
DIBUJOS
 62
     7
  0
POLYLINE
  5
185
330
159
100
AcDbEntity
  8
DIBUJOS
 62
     7
100
AcDb2dPolyline
 66
     1
 10
0.0
 20
0.0
 30
0.0
  0
VERTEX
  5
186
330
185
100
AcDbEntity
  8
DIBUJOS
 62
     7
100
AcDbVertex
100
AcDb2dVertex
 10
79.79208818883987
 20
48.60054232645258
 30
0.0
  0
VERTEX
  5
187
330
185
100
AcDbEntity
  8
DIBUJOS
 62
     7
100
AcDbVertex
100
AcDb2dVertex
 10
79.7864903791797
 20
48.60054232645258
 30
0.0
  0
SEQEND
  5
188
330
185
100
AcDbEntity
  8
DIBUJOS
 62
     7
  0
POLYLINE
  5
189
330
159
100
AcDbEntity
  8
DIBUJOS
 62
     7
100
AcDb2dPolyline
 66
     1
 10
0.0
 20
0.0
 30
0.0
  0
VERTEX
  5
18A
330
189
100
AcDbEntity
  8
DIBUJOS
 62
     7
100
AcDbVertex
100
AcDb2dVertex
 10
82.75287155126506
 20
48.60054232645258
 30
0.0
  0
VERTEX
  5
18B
330
189
100
AcDbEntity
  8
DIBUJOS
 62
     7
100
AcDbVertex
100
AcDb2dVertex
 10
79.79208818883987
 20
48.60054232645258
 30
0.0
  0
SEQEND
  5
18C
330
189
100
AcDbEntity
  8
DIBUJOS
 62
     7
  0
POLYLINE
  5
18D
330
159
100
AcDbEntity
  8
DIBUJOS
 62
     7
100
AcDb2dPolyline
 66
     1
 10
0.0
 20
0.0
 30
0.0
  0
VERTEX
  5
18E
330
18D
100
AcDbEntity
  8
DIBUJOS
 62
     7
100
AcDbVertex
100
AcDb2dVertex
 10
82.75846936092523
 20
48.60054232645258
 30
0.0
  0
VERTEX
  5
18F
330
18D
100
AcDbEntity
  8
DIBUJOS
 62
     7
100
AcDbVertex
100
AcDb2dVertex
 10
82.75287155126506
 20
48.60054232645258
 30
0.0
  0
SEQEND
  5
190
330
18D
100
AcDbEntity
  8
DIBUJOS
 62
     7
  0
POLYLINE
  5
191
330
159
100
AcDbEntity
  8
DIBUJOS
 62
     7
100
AcDb2dPolyline
 66
     1
 10
0.0
 20
0.0
 30
0.0
  0
VERTEX
  5
192
330
191
100
AcDbEntity
  8
DIBUJOS
 62
     7
100
AcDbVertex
100
AcDb2dVertex
 10
82.76406415777055
 20
48.60054232645258
 30
0.0
  0
VERTEX
  5
193
330
191
100
AcDbEntity
  8
DIBUJOS
 62
     7
100
AcDbVertex
100
AcDb2dVertex
 10
82.75846936092523
 20
48.60054232645258
 30
0.0
  0
SEQEND
  5
194
330
191
100
AcDbEntity
  8
DIBUJOS
 62
     7
  0
POLYLINE
  5
195
330
159
100
AcDbEntity
  8
DIBUJOS
 62
     7
100
AcDb2dPolyline
 66
     1
 10
0.0
 20
0.0
 30
0.0
  0
VERTEX
  5
196
330
195
100
AcDbEntity
  8
DIBUJOS
 62
     7
100
AcDbVertex
100
AcDb2dVertex
 10
83.0998815195347
 20
48.60054232645258
 30
0.0
  0
VERTEX
  5
197
330
195
100
AcDbEntity
  8
DIBUJOS
 62
     7
100
AcDbVertex
100
AcDb2dVertex
 10
82.76406415777055
 20
48.60054232645258
 30
0.0
  0
SEQEND
  5
198
330
195
100
AcDbEntity
  8
DIBUJOS
 62
     7
  0
POLYLINE
  5
199
330
159
100
AcDbEntity
  8
DIBUJOS
 62
     7
100
AcDb2dPolyline
 66
     1
 10
0.0
 20
0.0
 30
0.0
  0
VERTEX
  5
19A
330
199
100
AcDbEntity
  8
DIBUJOS
 62
     7
100
AcDbVertex
100
AcDb2dVertex
 10
83.10547932919486
 20
48.60054232645258
 30
0.0
  0
VERTEX
  5
19B
330
199
100
AcDbEntity
  8
DIBUJOS
 62
     7
100
AcDbVertex
100
AcDb2dVertex
 10
83.0998815195347
 20
48.60054232645258
 30
0.0
  0
SEQEND
  5
19C
330
199
100
AcDbEntity
  8
DIBUJOS
 62
     7
  0
POLYLINE
  5
19D
330
159
100
AcDbEntity
  8
DIBUJOS
 62
     7
100
AcDb2dPolyline
 66
     1
 10
0.0
 20
0.0
 30
0.0
  0
VERTEX
  5
19E
330
19D
100
AcDbEntity
  8
DIBUJOS
 62
     7
100
AcDbVertex
100
AcDb2dVertex
 10
83.11107713885504
 20
48.60054232645258
 30
0.0
  0
VERTEX
  5
19F
330
19D
100
AcDbEntity
  8
DIBUJOS
 62
     7
100
AcDbVertex
100
AcDb2dVertex
 10
83.10547932919486
 20
48.60054232645258
 30
0.0
  0
SEQEND
  5
1A0
330
19D
100
AcDbEntity
  8
DIBUJOS
 62
     7
  0
POLYLINE
  5
1A1
330
159
100
AcDbEntity
  8
DIBUJOS
 62
     7
100
AcDb2dPolyline
 66
     1
 10
0.0
 20
0.0
 30
0.0
  0
VERTEX
  5
1A2
330
1A1
100
AcDbEntity
  8
DIBUJOS
 62
     7
100
AcDbVertex
100
AcDb2dVertex
 10
83.11107713885504
 20
48.60054232645258
 30
0.0
  0
VERTEX
  5
1A3
330
1A1
100
AcDbEntity
  8
DIBUJOS
 62
     7
100
AcDbVertex
100
AcDb2dVertex
 10
84.14091443715718
 20
48.60054232645258
 30
0.0
  0
VERTEX
  5
1A4
330
1A1
100
AcDbEntity
  8
DIBUJOS
 62
     7
100
AcDbVertex
100
AcDb2dVertex
 10
84.1521070436633
 20
48.61173493295839
 30
0.0
  0
VERTEX
  5
1A5
330
1A1
100
AcDbEntity
  8
DIBUJOS
 62
     7
100
AcDbVertex
100
AcDb2dVertex
 10
84.1521070436633
 20
49.11546248201108
 30
0.0
  0
VERTEX
  5
1A6
330
1A1
100
AcDbEntity
  8
DIBUJOS
 62
     7
100
AcDbVertex
100
AcDb2dVertex
 10
84.14091443715718
 20
49.12665508851689
 30
0.0
  0
VERTEX
  5
1A7
330
1A1
100
AcDbEntity
  8
DIBUJOS
 62
     7
100
AcDbVertex
100
AcDb2dVertex
 10
75.15221801759715
 20
49.12665508851689
 30
0.0
  0
VERTEX
  5
1A8
330
1A1
100
AcDbEntity
  8
DIBUJOS
 62
     7
100
AcDbVertex
100
AcDb2dVertex
 10
75.14102541109166
 20
49.11546248201108
 30
0.0
  0
VERTEX
  5
1A9
330
1A1
100
AcDbEntity
  8
DIBUJOS
 62
     7
100
AcDbVertex
100
AcDb2dVertex
 10
75.14102541109166
 20
48.61173493295839
 30
0.0
  0
VERTEX
  5
1AA
330
1A1
100
AcDbEntity
  8
DIBUJOS
 62
     7
100
AcDbVertex
100
AcDb2dVertex
 10
75.15783089133093
 20
48.60332616720938
 30
0.0
  0
VERTEX
  5
1AB
330
1A1
100
AcDbEntity
  8
DIBUJOS
 62
     7
100
AcDbVertex
100
AcDb2dVertex
 10
76.13728187706184
 20
48.60054232645258
 30
0.0
  0
SEQEND
  5
1AC
330
1A1
100
AcDbEntity
  8
DIBUJOS
 62
     7
  0
POLYLINE
  5
1AD
330
159
100
AcDbEntity
  8
DIBUJOS
 62
     7
100
AcDb2dPolyline
 66
     1
 10
0.0
 20
0.0
 30
0.0
  0
VERTEX
  5
1AE
330
1AD
100
AcDbEntity
  8
DIBUJOS
 62
     7
100
AcDbVertex
100
AcDb2dVertex
 10
76.14287667390715
 20
48.59494451679241
 30
0.0
  0
VERTEX
  5
1AF
330
1AD
100
AcDbEntity
  8
DIBUJOS
 62
     7
100
AcDbVertex
100
AcDb2dVertex
 10
76.14287667390715
 20
48.60054232645258
 30
0.0
  0
SEQEND
  5
1B0
330
1AD
100
AcDbEntity
  8
DIBUJOS
 62
     7
  0
POLYLINE
  5
1B1
330
159
100
AcDbEntity
  8
DIBUJOS
 62
     7
100
AcDb2dPolyline
 66
     1
 10
0.0
 20
0.0
 30
0.0
  0
VERTEX
  5
1B2
330
1B1
100
AcDbEntity
  8
DIBUJOS
 62
     7
100
AcDbVertex
100
AcDb2dVertex
 10
76.489889654991
 20
48.59494451679241
 30
0.0
  0
VERTEX
  5
1B3
330
1B1
100
AcDbEntity
  8
DIBUJOS
 62
     7
100
AcDbVertex
100
AcDb2dVertex
 10
76.489889654991
 20
48.60054232645258
 30
0.0
  0
SEQEND
  5
1B4
330
1B1
100
AcDbEntity
  8
DIBUJOS
 62
     7
  0
POLYLINE
  5
1B5
330
159
100
AcDbEntity
  8
DIBUJOS
 62
     7
100
AcDb2dPolyline
 66
     1
 10
0.0
 20
0.0
 30
0.0
  0
VERTEX
  5
1B6
330
1B5
100
AcDbEntity
  8
DIBUJOS
 62
     7
100
AcDbVertex
100
AcDb2dVertex
 10
79.46186863673654
 20
48.59494451679241
 30
0.0
  0
VERTEX
  5
1B7
330
1B5
100
AcDbEntity
  8
DIBUJOS
 62
     7
100
AcDbVertex
100
AcDb2dVertex
 10
79.46186863673654
 20
48.60054232645258
 30
0.0
  0
SEQEND
  5
1B8
330
1B5
100
AcDbEntity
  8
DIBUJOS
 62
     7
  0
POLYLINE
  5
1B9
330
159
100
AcDbEntity
  8
DIBUJOS
 62
     7
100
AcDb2dPolyline
 66
     1
 10
0.0
 20
0.0
 30
0.0
  0
VERTEX
  5
1BA
330
1B9
100
AcDbEntity
  8
DIBUJOS
 62
     7
100
AcDbVertex
100
AcDb2dVertex
 10
79.7864903791797
 20
48.59494451679241
 30
0.0
  0
VERTEX
  5
1BB
330
1B9
100
AcDbEntity
  8
DIBUJOS
 62
     7
100
AcDbVertex
100
AcDb2dVertex
 10
79.7864903791797
 20
48.60054232645258
 30
0.0
  0
SEQEND
  5
1BC
330
1B9
100
AcDbEntity
  8
DIBUJOS
 62
     7
  0
POLYLINE
  5
1BD
330
159
100
AcDbEntity
  8
DIBUJOS
 62
     7
100
AcDb2dPolyline
 66
     1
 10
0.0
 20
0.0
 30
0.0
  0
VERTEX
  5
1BE
330
1BD
100
AcDbEntity
  8
DIBUJOS
 62
     7
100
AcDbVertex
100
AcDb2dVertex
 10
82.75846936092523
 20
48.59494451679241
 30
0.0
  0
VERTEX
  5
1BF
330
1BD
100
AcDbEntity
  8
DIBUJOS
 62
     7
100
AcDbVertex
100
AcDb2dVertex
 10
82.75846936092523
 20
48.60054232645258
 30
0.0
  0
SEQEND
  5
1C0
330
1BD
100
AcDbEntity
  8
DIBUJOS
 62
     7
  0
POLYLINE
  5
1C1
330
159
100
AcDbEntity
  8
DIBUJOS
 62
     7
100
AcDb2dPolyline
 66
     1
 10
0.0
 20
0.0
 30
0.0
  0
VERTEX
  5
1C2
330
1C1
100
AcDbEntity
  8
DIBUJOS
 62
     7
100
AcDbVertex
100
AcDb2dVertex
 10
83.10547932919486
 20
48.59494451679241
 30
0.0
  0
VERTEX
  5
1C3
330
1C1
100
AcDbEntity
  8
DIBUJOS
 62
     7
100
AcDbVertex
100
AcDb2dVertex
 10
83.10547932919486
 20
48.60054232645258
 30
0.0
  0
SEQEND
  5
1C4
330
1C1
100
AcDbEntity
  8
DIBUJOS
 62
     7
  0
POLYLINE
  5
1C5
330
159
100
AcDbEntity
  8
DIBUJOS
 62
     7
100
AcDb2dPolyline
 66
     1
 10
0.0
 20
0.0
 30
0.0
  0
VERTEX
  5
1C6
330
1C5
100
AcDbEntity
  8
DIBUJOS
 62
     7
100
AcDbVertex
100
AcDb2dVertex
 10
79.46186863673654
 20
44.97931684700619
 30
0.0
  0
VERTEX
  5
1C7
330
1C5
100
AcDbEntity
  8
DIBUJOS
 62
     7
100
AcDbVertex
100
AcDb2dVertex
 10
79.46186863673654
 20
48.59494451679241
 30
0.0
  0
SEQEND
  5
1C8
330
1C5
100
AcDbEntity
  8
DIBUJOS
 62
     7
  0
POLYLINE
  5
1C9
330
159
100
AcDbEntity
  8
DIBUJOS
 62
     7
100
AcDb2dPolyline
 66
     1
 10
0.0
 20
0.0
 30
0.0
  0
VERTEX
  5
1CA
330
1C9
100
AcDbEntity
  8
DIBUJOS
 62
     7
100
AcDbVertex
100
AcDb2dVertex
 10
79.7864903791797
 20
44.97931684700619
 30
0.0
  0
VERTEX
  5
1CB
330
1C9
100
AcDbEntity
  8
DIBUJOS
 62
     7
100
AcDbVertex
100
AcDb2dVertex
 10
79.7864903791797
 20
48.59494451679241
 30
0.0
  0
SEQEND
  5
1CC
330
1C9
100
AcDbEntity
  8
DIBUJOS
 62
     7
  0
POLYLINE
  5
1CD
330
159
100
AcDbEntity
  8
DIBUJOS
 62
     7
100
AcDb2dPolyline
 66
     1
 10
0.0
 20
0.0
 30
0.0
  0
VERTEX
  5
1CE
330
1CD
100
AcDbEntity
  8
DIBUJOS
 62
     7
100
AcDbVertex
100
AcDb2dVertex
 10
79.46186863673654
 20
44.97372205016055
 30
0.0
  0
VERTEX
  5
1CF
330
1CD
100
AcDbEntity
  8
DIBUJOS
 62
     7
100
AcDbVertex
100
AcDb2dVertex
 10
79.45627082707637
 20
44.97372205016055
 30
0.0
  0
SEQEND
  5
1D0
330
1CD
100
AcDbEntity
  8
DIBUJOS
 62
     7
  0
POLYLINE
  5
1D1
330
159
100
AcDbEntity
  8
DIBUJOS
 62
     7
100
AcDb2dPolyline
 66
     1
 10
0.0
 20
0.0
 30
0.0
  0
VERTEX
  5
1D2
330
1D1
100
AcDbEntity
  8
DIBUJOS
 62
     7
100
AcDbVertex
100
AcDb2dVertex
 10
79.46186863673654
 20
44.97372205016055
 30
0.0
  0
VERTEX
  5
1D3
330
1D1
100
AcDbEntity
  8
DIBUJOS
 62
     7
100
AcDbVertex
100
AcDb2dVertex
 10
79.46186863673654
 20
44.97931684700619
 30
0.0
  0
SEQEND
  5
1D4
330
1D1
100
AcDbEntity
  8
DIBUJOS
 62
     7
  0
POLYLINE
  5
1D5
330
159
100
AcDbEntity
  8
DIBUJOS
 62
     7
100
AcDb2dPolyline
 66
     1
 10
0.0
 20
0.0
 30
0.0
  0
VERTEX
  5
1D6
330
1D5
100
AcDbEntity
  8
DIBUJOS
 62
     7
100
AcDbVertex
100
AcDb2dVertex
 10
79.7864903791797
 20
44.97372205016055
 30
0.0
  0
VERTEX
  5
1D7
330
1D5
100
AcDbEntity
  8
DIBUJOS
 62
     7
100
AcDbVertex
100
AcDb2dVertex
 10
79.7864903791797
 20
44.97931684700619
 30
0.0
  0
SEQEND
  5
1D8
330
1D5
100
AcDbEntity
  8
DIBUJOS
 62
     7
  0
POLYLINE
  5
1D9
330
159
100
AcDbEntity
  8
DIBUJOS
 62
     7
100
AcDb2dPolyline
 66
     1
 10
0.0
 20
0.0
 30
0.0
  0
VERTEX
  5
1DA
330
1D9
100
AcDbEntity
  8
DIBUJOS
 62
     7
100
AcDbVertex
100
AcDb2dVertex
 10
79.79208818883987
 20
44.97372205016055
 30
0.0
  0
VERTEX
  5
1DB
330
1D9
100
AcDbEntity
  8
DIBUJOS
 62
     7
100
AcDbVertex
100
AcDb2dVertex
 10
79.7864903791797
 20
44.97372205016055
 30
0.0
  0
SEQEND
  5
1DC
330
1D9
100
AcDbEntity
  8
DIBUJOS
 62
     7
  0
POLYLINE
  5
1DD
330
159
100
AcDbEntity
  8
DIBUJOS
 62
     7
100
AcDb2dPolyline
 66
     1
 10
0.0
 20
0.0
 30
0.0
  0
VERTEX
  5
1DE
330
1DD
100
AcDbEntity
  8
DIBUJOS
 62
     7
100
AcDbVertex
100
AcDb2dVertex
 10
79.46186863673654
 20
44.96812424050038
 30
0.0
  0
VERTEX
  5
1DF
330
1DD
100
AcDbEntity
  8
DIBUJOS
 62
     7
100
AcDbVertex
100
AcDb2dVertex
 10
79.46186863673654
 20
44.97372205016055
 30
0.0
  0
SEQEND
  5
1E0
330
1DD
100
AcDbEntity
  8
DIBUJOS
 62
     7
  0
POLYLINE
  5
1E1
330
159
100
AcDbEntity
  8
DIBUJOS
 62
     7
100
AcDb2dPolyline
 66
     1
 10
0.0
 20
0.0
 30
0.0
  0
VERTEX
  5
1E2
330
1E1
100
AcDbEntity
  8
DIBUJOS
 62
     7
100
AcDbVertex
100
AcDb2dVertex
 10
79.7864903791797
 20
44.96812424050038
 30
0.0
  0
VERTEX
  5
1E3
330
1E1
100
AcDbEntity
  8
DIBUJOS
 62
     7
100
AcDbVertex
100
AcDb2dVertex
 10
79.7864903791797
 20
44.97372205016055
 30
0.0
  0
SEQEND
  5
1E4
330
1E1
100
AcDbEntity
  8
DIBUJOS
 62
     7
  0
POLYLINE
  5
1E5
330
159
100
AcDbEntity
  8
DIBUJOS
 62
     7
100
AcDb2dPolyline
 66
     1
 10
0.0
 20
0.0
 30
0.0
  0
VERTEX
  5
1E6
330
1E5
100
AcDbEntity
  8
DIBUJOS
 62
     7
100
AcDbVertex
100
AcDb2dVertex
 10
77.26786468517471
 20
44.96252643084021
 30
0.0
  0
VERTEX
  5
1E7
330
1E5
100
AcDbEntity
  8
DIBUJOS
 62
     7
100
AcDbVertex
100
AcDb2dVertex
 10
77.26338764257213
 20
44.96868462402917
 30
0.0
  0
VERTEX
  5
1E8
330
1E5
100
AcDbEntity
  8
DIBUJOS
 62
     7
100
AcDbVertex
100
AcDb2dVertex
 10
76.49100740923438
 20
48.58990709066168
 30
0.0
  0
VERTEX
  5
1E9
330
1E5
100
AcDbEntity
  8
DIBUJOS
 62
     7
100
AcDbVertex
100
AcDb2dVertex
 10
76.489889654991
 20
48.59494451679241
 30
0.0
  0
SEQEND
  5
1EA
330
1E5
100
AcDbEntity
  8
DIBUJOS
 62
     7
  0
POLYLINE
  5
1EB
330
159
100
AcDbEntity
  8
DIBUJOS
 62
     7
100
AcDb2dPolyline
 66
     1
 10
0.0
 20
0.0
 30
0.0
  0
VERTEX
  5
1EC
330
1EB
100
AcDbEntity
  8
DIBUJOS
 62
     7
100
AcDbVertex
100
AcDb2dVertex
 10
77.27346249483489
 20
44.96252643084021
 30
0.0
  0
VERTEX
  5
1ED
330
1EB
100
AcDbEntity
  8
DIBUJOS
 62
     7
100
AcDbVertex
100
AcDb2dVertex
 10
77.26786468517471
 20
44.96252643084021
 30
0.0
  0
SEQEND
  5
1EE
330
1EB
100
AcDbEntity
  8
DIBUJOS
 62
     7
  0
POLYLINE
  5
1EF
330
159
100
AcDbEntity
  8
DIBUJOS
 62
     7
100
AcDb2dPolyline
 66
     1
 10
0.0
 20
0.0
 30
0.0
  0
VERTEX
  5
1F0
330
1EF
100
AcDbEntity
  8
DIBUJOS
 62
     7
100
AcDbVertex
100
AcDb2dVertex
 10
77.27346249483489
 20
44.96252643084021
 30
0.0
  0
VERTEX
  5
1F1
330
1EF
100
AcDbEntity
  8
DIBUJOS
 62
     7
100
AcDbVertex
100
AcDb2dVertex
 10
77.28465510134102
 20
44.97372205016055
 30
0.0
  0
VERTEX
  5
1F2
330
1EF
100
AcDbEntity
  8
DIBUJOS
 62
     7
100
AcDbVertex
100
AcDb2dVertex
 10
79.45627082707637
 20
44.97372205016055
 30
0.0
  0
SEQEND
  5
1F3
330
1EF
100
AcDbEntity
  8
DIBUJOS
 62
     7
  0
POLYLINE
  5
1F4
330
159
100
AcDbEntity
  8
DIBUJOS
 62
     7
100
AcDb2dPolyline
 66
     1
 10
0.0
 20
0.0
 30
0.0
  0
VERTEX
  5
1F5
330
1F4
100
AcDbEntity
  8
DIBUJOS
 62
     7
100
AcDbVertex
100
AcDb2dVertex
 10
81.974896521082
 20
44.96252643084021
 30
0.0
  0
VERTEX
  5
1F6
330
1F4
100
AcDbEntity
  8
DIBUJOS
 62
     7
100
AcDbVertex
100
AcDb2dVertex
 10
81.96370090176165
 20
44.97372205016055
 30
0.0
  0
VERTEX
  5
1F7
330
1F4
100
AcDbEntity
  8
DIBUJOS
 62
     7
100
AcDbVertex
100
AcDb2dVertex
 10
79.79208818883987
 20
44.97372205016055
 30
0.0
  0
SEQEND
  5
1F8
330
1F4
100
AcDbEntity
  8
DIBUJOS
 62
     7
  0
POLYLINE
  5
1F9
330
159
100
AcDbEntity
  8
DIBUJOS
 62
     7
100
AcDb2dPolyline
 66
     1
 10
0.0
 20
0.0
 30
0.0
  0
VERTEX
  5
1FA
330
1F9
100
AcDbEntity
  8
DIBUJOS
 62
     7
100
AcDbVertex
100
AcDb2dVertex
 10
81.98049433074216
 20
44.96252643084021
 30
0.0
  0
VERTEX
  5
1FB
330
1F9
100
AcDbEntity
  8
DIBUJOS
 62
     7
100
AcDbVertex
100
AcDb2dVertex
 10
81.974896521082
 20
44.96252643084021
 30
0.0
  0
SEQEND
  5
1FC
330
1F9
100
AcDbEntity
  8
DIBUJOS
 62
     7
  0
POLYLINE
  5
1FD
330
159
100
AcDbEntity
  8
DIBUJOS
 62
     7
100
AcDb2dPolyline
 66
     1
 10
0.0
 20
0.0
 30
0.0
  0
VERTEX
  5
1FE
330
1FD
100
AcDbEntity
  8
DIBUJOS
 62
     7
100
AcDbVertex
100
AcDb2dVertex
 10
81.98049433074216
 20
44.96252643084021
 30
0.0
  0
VERTEX
  5
1FF
330
1FD
100
AcDbEntity
  8
DIBUJOS
 62
     7
100
AcDbVertex
100
AcDb2dVertex
 10
81.98497137334411
 20
44.96868462402917
 30
0.0
  0
VERTEX
  5
200
330
1FD
100
AcDbEntity
  8
DIBUJOS
 62
     7
100
AcDbVertex
100
AcDb2dVertex
 10
82.7567882103382
 20
48.58431229381539
 30
0.0
  0
VERTEX
  5
201
330
1FD
100
AcDbEntity
  8
DIBUJOS
 62
     7
100
AcDbVertex
100
AcDb2dVertex
 10
82.75846936092523
 20
48.59494451679241
 30
0.0
  0
SEQEND
  5
202
330
1FD
100
AcDbEntity
  8
DIBUJOS
 62
     7
  0
POLYLINE
  5
203
330
159
100
AcDbEntity
  8
DIBUJOS
 62
     7
100
AcDb2dPolyline
 66
     1
 10
0.0
 20
0.0
 30
0.0
  0
VERTEX
  5
204
330
203
100
AcDbEntity
  8
DIBUJOS
 62
     7
100
AcDbVertex
100
AcDb2dVertex
 10
77.27346249483489
 20
44.95693163399457
 30
0.0
  0
VERTEX
  5
205
330
203
100
AcDbEntity
  8
DIBUJOS
 62
     7
100
AcDbVertex
100
AcDb2dVertex
 10
77.27346249483489
 20
44.96252643084021
 30
0.0
  0
SEQEND
  5
206
330
203
100
AcDbEntity
  8
DIBUJOS
 62
     7
  0
POLYLINE
  5
207
330
159
100
AcDbEntity
  8
DIBUJOS
 62
     7
100
AcDb2dPolyline
 66
     1
 10
0.0
 20
0.0
 30
0.0
  0
VERTEX
  5
208
330
207
100
AcDbEntity
  8
DIBUJOS
 62
     7
100
AcDbVertex
100
AcDb2dVertex
 10
81.98049433074216
 20
44.95693163399457
 30
0.0
  0
VERTEX
  5
209
330
207
100
AcDbEntity
  8
DIBUJOS
 62
     7
100
AcDbVertex
100
AcDb2dVertex
 10
81.98049433074216
 20
44.96252643084021
 30
0.0
  0
SEQEND
  5
20A
330
207
100
AcDbEntity
  8
DIBUJOS
 62
     7
  0
POLYLINE
  5
20B
330
159
100
AcDbEntity
  8
DIBUJOS
 62
     7
100
AcDb2dPolyline
 66
     1
 10
0.0
 20
0.0
 30
0.0
  0
VERTEX
  5
20C
330
20B
100
AcDbEntity
  8
DIBUJOS
 62
     7
100
AcDbVertex
100
AcDb2dVertex
 10
77.36861019498544
 20
44.4811901204282
 30
0.0
  0
VERTEX
  5
20D
330
20B
100
AcDbEntity
  8
DIBUJOS
 62
     7
100
AcDbVertex
100
AcDb2dVertex
 10
77.27346249483489
 20
44.95693163399457
 30
0.0
  0
SEQEND
  5
20E
330
20B
100
AcDbEntity
  8
DIBUJOS
 62
     7
  0
POLYLINE
  5
20F
330
159
100
AcDbEntity
  8
DIBUJOS
 62
     7
100
AcDb2dPolyline
 66
     1
 10
0.0
 20
0.0
 30
0.0
  0
VERTEX
  5
210
330
20F
100
AcDbEntity
  8
DIBUJOS
 62
     7
100
AcDbVertex
100
AcDb2dVertex
 10
81.87974882093144
 20
44.4811901204282
 30
0.0
  0
VERTEX
  5
211
330
20F
100
AcDbEntity
  8
DIBUJOS
 62
     7
100
AcDbVertex
100
AcDb2dVertex
 10
81.98049433074216
 20
44.95693163399457
 30
0.0
  0
SEQEND
  5
212
330
20F
100
AcDbEntity
  8
DIBUJOS
 62
     7
  0
POLYLINE
  5
213
330
159
100
AcDbEntity
  8
DIBUJOS
 62
     7
100
AcDb2dPolyline
 66
     1
 10
0.0
 20
0.0
 30
0.0
  0
VERTEX
  5
214
330
213
100
AcDbEntity
  8
DIBUJOS
 62
     7
100
AcDbVertex
100
AcDb2dVertex
 10
77.36861019498544
 20
44.47559231076836
 30
0.0
  0
VERTEX
  5
215
330
213
100
AcDbEntity
  8
DIBUJOS
 62
     7
100
AcDbVertex
100
AcDb2dVertex
 10
77.36861019498544
 20
44.4811901204282
 30
0.0
  0
SEQEND
  5
216
330
213
100
AcDbEntity
  8
DIBUJOS
 62
     7
  0
POLYLINE
  5
217
330
159
100
AcDbEntity
  8
DIBUJOS
 62
     7
100
AcDb2dPolyline
 66
     1
 10
0.0
 20
0.0
 30
0.0
  0
VERTEX
  5
218
330
217
100
AcDbEntity
  8
DIBUJOS
 62
     7
100
AcDbVertex
100
AcDb2dVertex
 10
77.37420499183077
 20
44.47559231076836
 30
0.0
  0
VERTEX
  5
219
330
217
100
AcDbEntity
  8
DIBUJOS
 62
     7
100
AcDbVertex
100
AcDb2dVertex
 10
77.36861019498544
 20
44.47559231076836
 30
0.0
  0
SEQEND
  5
21A
330
217
100
AcDbEntity
  8
DIBUJOS
 62
     7
  0
POLYLINE
  5
21B
330
159
100
AcDbEntity
  8
DIBUJOS
 62
     7
100
AcDb2dPolyline
 66
     1
 10
0.0
 20
0.0
 30
0.0
  0
VERTEX
  5
21C
330
21B
100
AcDbEntity
  8
DIBUJOS
 62
     7
100
AcDbVertex
100
AcDb2dVertex
 10
79.46186863673654
 20
44.47559231076836
 30
0.0
  0
VERTEX
  5
21D
330
21B
100
AcDbEntity
  8
DIBUJOS
 62
     7
100
AcDbVertex
100
AcDb2dVertex
 10
79.46186863673654
 20
44.96812424050038
 30
0.0
  0
SEQEND
  5
21E
330
21B
100
AcDbEntity
  8
DIBUJOS
 62
     7
  0
POLYLINE
  5
21F
330
159
100
AcDbEntity
  8
DIBUJOS
 62
     7
100
AcDb2dPolyline
 66
     1
 10
0.0
 20
0.0
 30
0.0
  0
VERTEX
  5
220
330
21F
100
AcDbEntity
  8
DIBUJOS
 62
     7
100
AcDbVertex
100
AcDb2dVertex
 10
79.7864903791797
 20
44.47559231076836
 30
0.0
  0
VERTEX
  5
221
330
21F
100
AcDbEntity
  8
DIBUJOS
 62
     7
100
AcDbVertex
100
AcDb2dVertex
 10
79.7864903791797
 20
44.96812424050038
 30
0.0
  0
SEQEND
  5
222
330
21F
100
AcDbEntity
  8
DIBUJOS
 62
     7
  0
POLYLINE
  5
223
330
159
100
AcDbEntity
  8
DIBUJOS
 62
     7
100
AcDb2dPolyline
 66
     1
 10
0.0
 20
0.0
 30
0.0
  0
VERTEX
  5
224
330
223
100
AcDbEntity
  8
DIBUJOS
 62
     7
100
AcDbVertex
100
AcDb2dVertex
 10
79.46186863673654
 20
44.46999751392239
 30
0.0
  0
VERTEX
  5
225
330
223
100
AcDbEntity
  8
DIBUJOS
 62
     7
100
AcDbVertex
100
AcDb2dVertex
 10
79.45627082707637
 20
44.46999751392239
 30
0.0
  0
SEQEND
  5
226
330
223
100
AcDbEntity
  8
DIBUJOS
 62
     7
  0
POLYLINE
  5
227
330
159
100
AcDbEntity
  8
DIBUJOS
 62
     7
100
AcDb2dPolyline
 66
     1
 10
0.0
 20
0.0
 30
0.0
  0
VERTEX
  5
228
330
227
100
AcDbEntity
  8
DIBUJOS
 62
     7
100
AcDbVertex
100
AcDb2dVertex
 10
79.46186863673654
 20
44.46999751392239
 30
0.0
  0
VERTEX
  5
229
330
227
100
AcDbEntity
  8
DIBUJOS
 62
     7
100
AcDbVertex
100
AcDb2dVertex
 10
79.46186863673654
 20
44.47559231076836
 30
0.0
  0
SEQEND
  5
22A
330
227
100
AcDbEntity
  8
DIBUJOS
 62
     7
  0
POLYLINE
  5
22B
330
159
100
AcDbEntity
  8
DIBUJOS
 62
     7
100
AcDb2dPolyline
 66
     1
 10
0.0
 20
0.0
 30
0.0
  0
VERTEX
  5
22C
330
22B
100
AcDbEntity
  8
DIBUJOS
 62
     7
100
AcDbVertex
100
AcDb2dVertex
 10
79.4674634335825
 20
44.46999751392239
 30
0.0
  0
VERTEX
  5
22D
330
22B
100
AcDbEntity
  8
DIBUJOS
 62
     7
100
AcDbVertex
100
AcDb2dVertex
 10
79.46186863673654
 20
44.46999751392239
 30
0.0
  0
SEQEND
  5
22E
330
22B
100
AcDbEntity
  8
DIBUJOS
 62
     7
  0
POLYLINE
  5
22F
330
159
100
AcDbEntity
  8
DIBUJOS
 62
     7
100
AcDb2dPolyline
 66
     1
 10
0.0
 20
0.0
 30
0.0
  0
VERTEX
  5
230
330
22F
100
AcDbEntity
  8
DIBUJOS
 62
     7
100
AcDbVertex
100
AcDb2dVertex
 10
79.7864903791797
 20
44.46999751392239
 30
0.0
  0
VERTEX
  5
231
330
22F
100
AcDbEntity
  8
DIBUJOS
 62
     7
100
AcDbVertex
100
AcDb2dVertex
 10
79.78089256951954
 20
44.46999751392239
 30
0.0
  0
SEQEND
  5
232
330
22F
100
AcDbEntity
  8
DIBUJOS
 62
     7
  0
POLYLINE
  5
233
330
159
100
AcDbEntity
  8
DIBUJOS
 62
     7
100
AcDb2dPolyline
 66
     1
 10
0.0
 20
0.0
 30
0.0
  0
VERTEX
  5
234
330
233
100
AcDbEntity
  8
DIBUJOS
 62
     7
100
AcDbVertex
100
AcDb2dVertex
 10
79.7864903791797
 20
44.46999751392239
 30
0.0
  0
VERTEX
  5
235
330
233
100
AcDbEntity
  8
DIBUJOS
 62
     7
100
AcDbVertex
100
AcDb2dVertex
 10
79.7864903791797
 20
44.47559231076836
 30
0.0
  0
SEQEND
  5
236
330
233
100
AcDbEntity
  8
DIBUJOS
 62
     7
  0
POLYLINE
  5
237
330
159
100
AcDbEntity
  8
DIBUJOS
 62
     7
100
AcDb2dPolyline
 66
     1
 10
0.0
 20
0.0
 30
0.0
  0
VERTEX
  5
238
330
237
100
AcDbEntity
  8
DIBUJOS
 62
     7
100
AcDbVertex
100
AcDb2dVertex
 10
79.79208818883987
 20
44.46999751392239
 30
0.0
  0
VERTEX
  5
239
330
237
100
AcDbEntity
  8
DIBUJOS
 62
     7
100
AcDbVertex
100
AcDb2dVertex
 10
79.7864903791797
 20
44.46999751392239
 30
0.0
  0
SEQEND
  5
23A
330
237
100
AcDbEntity
  8
DIBUJOS
 62
     7
  0
POLYLINE
  5
23B
330
159
100
AcDbEntity
  8
DIBUJOS
 62
     7
100
AcDb2dPolyline
 66
     1
 10
0.0
 20
0.0
 30
0.0
  0
VERTEX
  5
23C
330
23B
100
AcDbEntity
  8
DIBUJOS
 62
     7
100
AcDbVertex
100
AcDb2dVertex
 10
76.14287667390715
 20
48.59494451679241
 30
0.0
  0
VERTEX
  5
23D
330
23B
100
AcDbEntity
  8
DIBUJOS
 62
     7
100
AcDbVertex
100
AcDb2dVertex
 10
76.15180364377996
 20
48.53859885679983
 30
0.0
  0
VERTEX
  5
23E
330
23B
100
AcDbEntity
  8
DIBUJOS
 62
     7
100
AcDbVertex
100
AcDb2dVertex
 10
76.82010920709499
 20
44.47559231076836
 30
0.0
  0
VERTEX
  5
23F
330
23B
100
AcDbEntity
  8
DIBUJOS
 62
     7
100
AcDbVertex
100
AcDb2dVertex
 10
76.83130181360048
 20
44.46439970426222
 30
0.0
  0
VERTEX
  5
240
330
23B
100
AcDbEntity
  8
DIBUJOS
 62
     7
100
AcDbVertex
100
AcDb2dVertex
 10
77.35181977881913
 20
44.46439970426222
 30
0.0
  0
VERTEX
  5
241
330
23B
100
AcDbEntity
  8
DIBUJOS
 62
     7
100
AcDbVertex
100
AcDb2dVertex
 10
77.36245200179583
 20
44.47111526816578
 30
0.0
  0
VERTEX
  5
242
330
23B
100
AcDbEntity
  8
DIBUJOS
 62
     7
100
AcDbVertex
100
AcDb2dVertex
 10
77.36861019498544
 20
44.47559231076836
 30
0.0
  0
SEQEND
  5
243
330
23B
100
AcDbEntity
  8
DIBUJOS
 62
     7
  0
POLYLINE
  5
244
330
159
100
AcDbEntity
  8
DIBUJOS
 62
     7
100
AcDb2dPolyline
 66
     1
 10
0.0
 20
0.0
 30
0.0
  0
VERTEX
  5
245
330
244
100
AcDbEntity
  8
DIBUJOS
 62
     7
100
AcDbVertex
100
AcDb2dVertex
 10
77.37420499183077
 20
44.47559231076836
 30
0.0
  0
VERTEX
  5
246
330
244
100
AcDbEntity
  8
DIBUJOS
 62
     7
100
AcDbVertex
100
AcDb2dVertex
 10
77.3848402276223
 20
44.4688767468648
 30
0.0
  0
VERTEX
  5
247
330
244
100
AcDbEntity
  8
DIBUJOS
 62
     7
100
AcDbVertex
100
AcDb2dVertex
 10
79.44507520775602
 20
44.46439970426222
 30
0.0
  0
VERTEX
  5
248
330
244
100
AcDbEntity
  8
DIBUJOS
 62
     7
100
AcDbVertex
100
AcDb2dVertex
 10
79.45627082707637
 20
44.46999751392239
 30
0.0
  0
SEQEND
  5
249
330
244
100
AcDbEntity
  8
DIBUJOS
 62
     7
  0
POLYLINE
  5
24A
330
159
100
AcDbEntity
  8
DIBUJOS
 62
     7
100
AcDb2dPolyline
 66
     1
 10
0.0
 20
0.0
 30
0.0
  0
VERTEX
  5
24B
330
24A
100
AcDbEntity
  8
DIBUJOS
 62
     7
100
AcDbVertex
100
AcDb2dVertex
 10
79.4674634335825
 20
44.46999751392239
 30
0.0
  0
VERTEX
  5
24C
330
24A
100
AcDbEntity
  8
DIBUJOS
 62
     7
100
AcDbVertex
100
AcDb2dVertex
 10
79.47306124324267
 20
44.46439970426222
 30
0.0
  0
VERTEX
  5
24D
330
24A
100
AcDbEntity
  8
DIBUJOS
 62
     7
100
AcDbVertex
100
AcDb2dVertex
 10
79.77529475985936
 20
44.46439970426222
 30
0.0
  0
VERTEX
  5
24E
330
24A
100
AcDbEntity
  8
DIBUJOS
 62
     7
100
AcDbVertex
100
AcDb2dVertex
 10
79.78089256951954
 20
44.46999751392239
 30
0.0
  0
SEQEND
  5
24F
330
24A
100
AcDbEntity
  8
DIBUJOS
 62
     7
  0
POLYLINE
  5
250
330
159
100
AcDbEntity
  8
DIBUJOS
 62
     7
100
AcDb2dPolyline
 66
     1
 10
0.0
 20
0.0
 30
0.0
  0
VERTEX
  5
251
330
250
100
AcDbEntity
  8
DIBUJOS
 62
     7
100
AcDbVertex
100
AcDb2dVertex
 10
79.79208818883987
 20
44.46999751392239
 30
0.0
  0
VERTEX
  5
252
330
250
100
AcDbEntity
  8
DIBUJOS
 62
     7
100
AcDbVertex
100
AcDb2dVertex
 10
79.79768298568584
 20
44.46439970426222
 30
0.0
  0
VERTEX
  5
253
330
250
100
AcDbEntity
  8
DIBUJOS
 62
     7
100
AcDbVertex
100
AcDb2dVertex
 10
80.02156223113312
 20
44.46439970426222
 30
0.0
  0
VERTEX
  5
254
330
250
100
AcDbEntity
  8
DIBUJOS
 62
     7
100
AcDbVertex
100
AcDb2dVertex
 10
81.86351577547973
 20
44.4688767468648
 30
0.0
  0
VERTEX
  5
255
330
250
100
AcDbEntity
  8
DIBUJOS
 62
     7
100
AcDbVertex
100
AcDb2dVertex
 10
81.87974882093144
 20
44.4811901204282
 30
0.0
  0
SEQEND
  5
256
330
250
100
AcDbEntity
  8
DIBUJOS
 62
     7
  0
POLYLINE
  5
257
330
159
100
AcDbEntity
  8
DIBUJOS
 62
     7
100
AcDb2dPolyline
 66
     1
 10
0.0
 20
0.0
 30
0.0
  0
VERTEX
  5
258
330
257
100
AcDbEntity
  8
DIBUJOS
 62
     7
100
AcDbVertex
100
AcDb2dVertex
 10
81.87974882093144
 20
44.4811901204282
 30
0.0
  0
VERTEX
  5
259
330
257
100
AcDbEntity
  8
DIBUJOS
 62
     7
100
AcDbVertex
100
AcDb2dVertex
 10
81.8965392370971
 20
44.46439970426222
 30
0.0
  0
VERTEX
  5
25A
330
257
100
AcDbEntity
  8
DIBUJOS
 62
     7
100
AcDbVertex
100
AcDb2dVertex
 10
82.41705418950156
 20
44.46439970426222
 30
0.0
  0
VERTEX
  5
25B
330
257
100
AcDbEntity
  8
DIBUJOS
 62
     7
100
AcDbVertex
100
AcDb2dVertex
 10
82.43384460566722
 20
44.4811901204282
 30
0.0
  0
VERTEX
  5
25C
330
257
100
AcDbEntity
  8
DIBUJOS
 62
     7
100
AcDbVertex
100
AcDb2dVertex
 10
83.09761287008651
 20
48.53935507328298
 30
0.0
  0
VERTEX
  5
25D
330
257
100
AcDbEntity
  8
DIBUJOS
 62
     7
100
AcDbVertex
100
AcDb2dVertex
 10
83.10547932919486
 20
48.59494451679241
 30
0.0
  0
SEQEND
  5
25E
330
257
100
AcDbEntity
  8
DIBUJOS
 62
     7
  0
ENDBLK
  5
15C
330
159
100
AcDbEntity
  8
0
100
AcDbBlockEnd
  0
ENDSEC
  0
SECTION
  2
ENTITIES
  0
MTEXT
  5
41
330
1F
100
AcDbEntity
  8
REFERENCIAS
 62
   255
100
AcDbMText
 10
55.85996514089477
 20
54.85563098807646
 30
0.0
 40
1.49859999962535
 41
0.0
 71
     7
 72
     1
  1
\fMyriad Pro|b0|i0|c0|p34;\W1;TOKEL_1044-R_1044-C__AUXILIARY_TABLE
  0
MTEXT
  5
43
330
1F
100
AcDbEntity
  8
M_U_00C1RGENES
 62
   255
100
AcDbMText
 10
90.14127864703391
 20
23.7555119243149
 30
0.0
 40
1.748366666229575
 41
0.0
 71
     7
 72
     1
  1
\fMyriad Pro|b0|i0|c0|p34;\W1;400
  0
MTEXT
  5
44
330
1F
100
AcDbEntity
  8
M_U_00C1RGENES
 62
   255
100
AcDbMText
 10
84.21176331851954
 20
20.50332059082737
 30
0.0
 40
1.748366666229575
 41
0.0
 71
     7
 72
     1
  1
\fMyriad Pro|b0|i0|c0|p34;\W1;400
  0
POLYLINE
  5
45
330
1F
100
AcDbEntity
  8
M_U_00C1RGENES
 62
   255
100
AcDb2dPolyline
 66
     1
 10
0.0
 20
0.0
 30
0.0
  0
VERTEX
  5
46
330
45
100
AcDbEntity
  8
M_U_00C1RGENES
 62
   255
100
AcDbVertex
100
AcDb2dVertex
 10
84.41666477502157
 20
24.76314475783758
 30
0.0
  0
VERTEX
  5
47
330
45
100
AcDbEntity
  8
M_U_00C1RGENES
 62
   255
100
AcDbVertex
100
AcDb2dVertex
 10
94.99999810570907
 20
19.74726776251925
 30
0.0
  0
SEQEND
  5
48
330
45
100
AcDbEntity
  8
M_U_00C1RGENES
 62
   255
  0
POLYLINE
  5
49
330
1F
100
AcDbEntity
  8
M_U_00C1RGENES
 62
   254
100
AcDb2dPolyline
 66
     1
 10
0.0
 20
0.0
 30
0.0
  0
VERTEX
  5
4A
330
49
100
AcDbEntity
  8
M_U_00C1RGENES
 62
   254
100
AcDbVertex
100
AcDb2dVertex
 10
54.99999767595828
 20
20.88258920325216
 30
0.0
  0
VERTEX
  5
4B
330
49
100
AcDbEntity
  8
M_U_00C1RGENES
 62
   254
100
AcDbVertex
100
AcDb2dVertex
 10
54.99999767595828
 20
19.74726776251925
 30
0.0
  0
SEQEND
  5
4C
330
49
100
AcDbEntity
  8
M_U_00C1RGENES
 62
   254
  0
POLYLINE
  5
4D
330
1F
100
AcDbEntity
  8
M_U_00C1RGENES
 62
   255
100
AcDb2dPolyline
 66
     1
 10
0.0
 20
0.0
 30
0.0
  0
VERTEX
  5
4E
330
4D
100
AcDbEntity
  8
M_U_00C1RGENES
 62
   255
100
AcDbVertex
100
AcDb2dVertex
 10
94.99999797321169
 20
59.74726768656564
 30
0.0
  0
VERTEX
  5
4F
330
4D
100
AcDbEntity
  8
M_U_00C1RGENES
 62
   255
100
AcDbVertex
100
AcDb2dVertex
 10
93.86467653247878
 20
59.74726768651462
 30
0.0
  0
SEQEND
  5
50
330
4D
100
AcDbEntity
  8
M_U_00C1RGENES
 62
   255
  0
INSERT
  5
53
330
1F
100
AcDbEntity
  8
DIBUJOS
100
AcDbBlockReference
  2
BLOCK_2
 10
0.0
 20
0.0
 30
0.0
  0
INSERT
  5
15A
330
1F
100
AcDbEntity
  8
DIBUJOS
100
AcDbBlockReference
  2
BLOCK_3
 10
0.0
 20
0.0
 30
0.0
  0
POLYLINE
  5
25F
330
1F
100
AcDbEntity
  8
DIBUJOS
 62
     7
100
AcDb2dPolyline
 66
     1
 10
0.0
 20
0.0
 30
0.0
  0
VERTEX
  5
260
330
25F
100
AcDbEntity
  8
DIBUJOS
 62
     7
100
AcDbVertex
100
AcDb2dVertex
 10
84.14091443715718
 20
26.65491629922778
 30
0.0
  0
VERTEX
  5
261
330
25F
100
AcDbEntity
  8
DIBUJOS
 62
     7
100
AcDbVertex
100
AcDb2dVertex
 10
84.1521070436633
 20
26.66611041214102
 30
0.0
  0
VERTEX
  5
262
330
25F
100
AcDbEntity
  8
DIBUJOS
 62
     7
100
AcDbVertex
100
AcDb2dVertex
 10
84.1521070436633
 20
35.65480607849717
 30
0.0
  0
VERTEX
  5
263
330
25F
100
AcDbEntity
  8
DIBUJOS
 62
     7
100
AcDbVertex
100
AcDb2dVertex
 10
84.14091443715718
 20
35.66600019141041
 30
0.0
  0
VERTEX
  5
264
330
25F
100
AcDbEntity
  8
DIBUJOS
 62
     7
100
AcDbVertex
100
AcDb2dVertex
 10
75.15221801759715
 20
35.66600019141041
 30
0.0
  0
VERTEX
  5
265
330
25F
100
AcDbEntity
  8
DIBUJOS
 62
     7
100
AcDbVertex
100
AcDb2dVertex
 10
75.14102541109166
 20
35.65480607849717
 30
0.0
  0
VERTEX
  5
266
330
25F
100
AcDbEntity
  8
DIBUJOS
 62
     7
100
AcDbVertex
100
AcDb2dVertex
 10
75.14102541109166
 20
26.66611041214102
 30
0.0
  0
VERTEX
  5
267
330
25F
100
AcDbEntity
  8
DIBUJOS
 62
     7
100
AcDbVertex
100
AcDb2dVertex
 10
75.15221801759715
 20
26.65491629922778
 30
0.0
  0
VERTEX
  5
268
330
25F
100
AcDbEntity
  8
DIBUJOS
 62
     7
100
AcDbVertex
100
AcDb2dVertex
 10
84.14091443715718
 20
26.65491629922778
 30
0.0
  0
SEQEND
  5
269
330
25F
100
AcDbEntity
  8
DIBUJOS
 62
     7
  0
POLYLINE
  5
26A
330
1F
100
AcDbEntity
  8
DIBUJOS
 62
     7
100
AcDb2dPolyline
 66
     1
 10
0.0
 20
0.0
 30
0.0
  0
VERTEX
  5
26B
330
26A
100
AcDbEntity
  8
DIBUJOS
 62
     7
100
AcDbVertex
100
AcDb2dVertex
 10
63.44340789722519
 20
26.54297742970705
 30
0.0
  0
VERTEX
  5
26C
330
26A
100
AcDbEntity
  8
DIBUJOS
 62
     7
100
AcDbVertex
100
AcDb2dVertex
 10
64.03088868133985
 20
26.58472449620733
 30
0.0
  0
VERTEX
  5
26D
330
26A
100
AcDbEntity
  8
DIBUJOS
 62
     7
100
AcDbVertex
100
AcDb2dVertex
 10
64.37212157747567
 20
26.65158864542226
 30
0.0
  0
VERTEX
  5
26E
330
26A
100
AcDbEntity
  8
DIBUJOS
 62
     7
100
AcDbVertex
100
AcDb2dVertex
 10
64.56796356958739
 20
26.69065054084616
 30
0.0
  0
VERTEX
  5
26F
330
26A
100
AcDbEntity
  8
DIBUJOS
 62
     7
100
AcDbVertex
100
AcDb2dVertex
 10
64.71895077686487
 20
26.73495247418744
 30
0.0
  0
VERTEX
  5
270
330
26A
100
AcDbEntity
  8
DIBUJOS
 62
     7
100
AcDbVertex
100
AcDb2dVertex
 10
65.13424468326312
 20
26.87711514729192
 30
0.0
  0
VERTEX
  5
271
330
26A
100
AcDbEntity
  8
DIBUJOS
 62
     7
100
AcDbVertex
100
AcDb2dVertex
 10
65.47006204502728
 20
27.03438934558536
 30
0.0
  0
VERTEX
  5
272
330
26A
100
AcDbEntity
  8
DIBUJOS
 62
     7
100
AcDbVertex
100
AcDb2dVertex
 10
65.69393978406681
 20
27.14632821510545
 30
0.0
  0
VERTEX
  5
273
330
26A
100
AcDbEntity
  8
DIBUJOS
 62
     7
100
AcDbVertex
100
AcDb2dVertex
 10
66.04125103380352
 20
27.37563128016573
 30
0.0
  0
VERTEX
  5
274
330
26A
100
AcDbEntity
  8
DIBUJOS
 62
     7
100
AcDbVertex
100
AcDb2dVertex
 10
66.1587869597799
 20
27.45398856414998
 30
0.0
  0
VERTEX
  5
275
330
26A
100
AcDbEntity
  8
DIBUJOS
 62
     7
100
AcDbVertex
100
AcDb2dVertex
 10
66.25745814668939
 20
27.5294271839214
 30
0.0
  0
VERTEX
  5
276
330
26A
100
AcDbEntity
  8
DIBUJOS
 62
     7
100
AcDbVertex
100
AcDb2dVertex
 10
66.61808905009015
 20
27.84567932720636
 30
0.0
  0
VERTEX
  5
277
330
26A
100
AcDbEntity
  8
DIBUJOS
 62
     7
100
AcDbVertex
100
AcDb2dVertex
 10
66.69102326766496
 20
27.91861279157763
 30
0.0
  0
VERTEX
  5
278
330
26A
100
AcDbEntity
  8
DIBUJOS
 62
     7
100
AcDbVertex
100
AcDb2dVertex
 10
67.00727541094993
 20
28.27924444818162
 30
0.0
  0
VERTEX
  5
279
330
26A
100
AcDbEntity
  8
DIBUJOS
 62
     7
100
AcDbVertex
100
AcDb2dVertex
 10
67.08567638074663
 20
28.37978358018697
 30
0.0
  0
VERTEX
  5
27A
330
26A
100
AcDbEntity
  8
DIBUJOS
 62
     7
100
AcDbVertex
100
AcDb2dVertex
 10
67.16666837116125
 20
28.50104786432023
 30
0.0
  0
VERTEX
  5
27B
330
26A
100
AcDbEntity
  8
DIBUJOS
 62
     7
100
AcDbVertex
100
AcDb2dVertex
 10
67.39373216171734
 20
28.84947912791129
 30
0.0
  0
VERTEX
  5
27C
330
26A
100
AcDbEntity
  8
DIBUJOS
 62
     7
100
AcDbVertex
100
AcDb2dVertex
 10
67.50007397478049
 20
29.06216275403824
 30
0.0
  0
VERTEX
  5
27D
330
26A
100
AcDbEntity
  8
DIBUJOS
 62
     7
100
AcDbVertex
100
AcDb2dVertex
 10
67.65428640016435
 20
29.38573227095701
 30
0.0
  0
VERTEX
  5
27E
330
26A
100
AcDbEntity
  8
DIBUJOS
 62
     7
100
AcDbVertex
100
AcDb2dVertex
 10
67.7939137897221
 20
29.7942428251224
 30
0.0
  0
VERTEX
  5
27F
330
26A
100
AcDbEntity
  8
DIBUJOS
 62
     7
100
AcDbVertex
100
AcDb2dVertex
 10
67.84605054761742
 20
29.96314272203087
 30
0.0
  0
VERTEX
  5
280
330
26A
100
AcDbEntity
  8
DIBUJOS
 62
     7
100
AcDbVertex
100
AcDb2dVertex
 10
67.8783418952698
 20
30.1245934346637
 30
0.0
  0
VERTEX
  5
281
330
26A
100
AcDbEntity
  8
DIBUJOS
 62
     7
100
AcDbVertex
100
AcDb2dVertex
 10
67.95205191262302
 20
30.50026732172088
 30
0.0
  0
VERTEX
  5
282
330
26A
100
AcDbEntity
  8
DIBUJOS
 62
     7
100
AcDbVertex
100
AcDb2dVertex
 10
67.98552729644163
 20
30.97593200851273
 30
0.0
  0
VERTEX
  5
283
330
26A
100
AcDbEntity
  8
DIBUJOS
 62
     7
100
AcDbVertex
100
AcDb2dVertex
 10
67.99372516516364
 20
31.14366745255118
 30
0.0
  0
VERTEX
  5
284
330
26A
100
AcDbEntity
  8
DIBUJOS
 62
     7
100
AcDbVertex
100
AcDb2dVertex
 10
67.95754276736274
 20
31.65841286485862
 30
0.0
  0
VERTEX
  5
285
330
26A
100
AcDbEntity
  8
DIBUJOS
 62
     7
100
AcDbVertex
100
AcDb2dVertex
 10
67.87963288635649
 20
32.07792621820483
 30
0.0
  0
VERTEX
  5
286
330
26A
100
AcDbEntity
  8
DIBUJOS
 62
     7
100
AcDbVertex
100
AcDb2dVertex
 10
67.84605054761742
 20
32.24583489908658
 30
0.0
  0
VERTEX
  5
287
330
26A
100
AcDbEntity
  8
DIBUJOS
 62
     7
100
AcDbVertex
100
AcDb2dVertex
 10
67.80734642393631
 20
32.37443538694534
 30
0.0
  0
VERTEX
  5
288
330
26A
100
AcDbEntity
  8
DIBUJOS
 62
     7
100
AcDbVertex
100
AcDb2dVertex
 10
67.66182596888038
 20
32.80540044885941
 30
0.0
  0
VERTEX
  5
289
330
26A
100
AcDbEntity
  8
DIBUJOS
 62
     7
100
AcDbVertex
100
AcDb2dVertex
 10
67.49447616512064
 20
33.15800822678922
 30
0.0
  0
VERTEX
  5
28A
330
26A
100
AcDbEntity
  8
DIBUJOS
 62
     7
100
AcDbVertex
100
AcDb2dVertex
 10
67.39037437976523
 20
33.36621481031359
 30
0.0
  0
VERTEX
  5
28B
330
26A
100
AcDbEntity
  8
DIBUJOS
 62
     7
100
AcDbVertex
100
AcDb2dVertex
 10
67.1498779549956
 20
33.7303179826237
 30
0.0
  0
VERTEX
  5
28C
330
26A
100
AcDbEntity
  8
DIBUJOS
 62
     7
100
AcDbVertex
100
AcDb2dVertex
 10
67.07152067101134
 20
33.84785390860009
 30
0.0
  0
VERTEX
  5
28D
330
26A
100
AcDbEntity
  8
DIBUJOS
 62
     7
100
AcDbVertex
100
AcDb2dVertex
 10
67.00167609488201
 20
33.93530838648623
 30
0.0
  0
VERTEX
  5
28E
330
26A
100
AcDbEntity
  8
DIBUJOS
 62
     7
100
AcDbVertex
100
AcDb2dVertex
 10
66.6854254580048
 20
34.29596188599613
 30
0.0
  0
VERTEX
  5
28F
330
26A
100
AcDbEntity
  8
DIBUJOS
 62
     7
100
AcDbVertex
100
AcDb2dVertex
 10
66.62925454126359
 20
34.35209966177655
 30
0.0
  0
VERTEX
  5
290
330
26A
100
AcDbEntity
  8
DIBUJOS
 62
     7
100
AcDbVertex
100
AcDb2dVertex
 10
66.40295600563458
 20
34.55081738549222
 30
0.0
  0
VERTEX
  5
291
330
26A
100
AcDbEntity
  8
DIBUJOS
 62
     7
100
AcDbVertex
100
AcDb2dVertex
 10
66.18117518560638
 20
34.73819788759794
 30
0.0
  0
VERTEX
  5
292
330
26A
100
AcDbEntity
  8
DIBUJOS
 62
     7
100
AcDbVertex
100
AcDb2dVertex
 10
66.0913225072415
 20
34.7995930249797
 30
0.0
  0
VERTEX
  5
293
330
26A
100
AcDbEntity
  8
DIBUJOS
 62
     7
100
AcDbVertex
100
AcDb2dVertex
 10
65.6816264105031
 20
35.0660071879641
 30
0.0
  0
VERTEX
  5
294
330
26A
100
AcDbEntity
  8
DIBUJOS
 62
     7
100
AcDbVertex
100
AcDb2dVertex
 10
65.49804657410617
 20
35.15779710616257
 30
0.0
  0
VERTEX
  5
295
330
26A
100
AcDbEntity
  8
DIBUJOS
 62
     7
100
AcDbVertex
100
AcDb2dVertex
 10
65.13872172586571
 20
35.32850469187409
 30
0.0
  0
VERTEX
  5
296
330
26A
100
AcDbEntity
  8
DIBUJOS
 62
     7
100
AcDbVertex
100
AcDb2dVertex
 10
64.71447373426261
 20
35.47178511922194
 30
0.0
  0
VERTEX
  5
297
330
26A
100
AcDbEntity
  8
DIBUJOS
 62
     7
100
AcDbVertex
100
AcDb2dVertex
 10
64.57915617609288
 20
35.51272927061112
 30
0.0
  0
VERTEX
  5
298
330
26A
100
AcDbEntity
  8
DIBUJOS
 62
     7
100
AcDbVertex
100
AcDb2dVertex
 10
64.4177069698678
 20
35.5450191118564
 30
0.0
  0
VERTEX
  5
299
330
26A
100
AcDbEntity
  8
DIBUJOS
 62
     7
100
AcDbVertex
100
AcDb2dVertex
 10
64.00293879962916
 20
35.62420793269058
 30
0.0
  0
VERTEX
  5
29A
330
26A
100
AcDbEntity
  8
DIBUJOS
 62
     7
100
AcDbVertex
100
AcDb2dVertex
 10
63.49395388897418
 20
35.65740613755901
 30
0.0
  0
VERTEX
  5
29B
330
26A
100
AcDbEntity
  8
DIBUJOS
 62
     7
100
AcDbVertex
100
AcDb2dVertex
 10
63.37608052775445
 20
35.65741969522487
 30
0.0
  0
VERTEX
  5
29C
330
26A
100
AcDbEntity
  8
DIBUJOS
 62
     7
100
AcDbVertex
100
AcDb2dVertex
 10
62.87269192035221
 20
35.62422149035645
 30
0.0
  0
VERTEX
  5
29D
330
26A
100
AcDbEntity
  8
DIBUJOS
 62
     7
100
AcDbVertex
100
AcDb2dVertex
 10
62.4251413136698
 20
35.54059780632566
 30
0.0
  0
VERTEX
  5
29E
330
26A
100
AcDbEntity
  8
DIBUJOS
 62
     7
100
AcDbVertex
100
AcDb2dVertex
 10
62.28440822112775
 20
35.51143827952444
 30
0.0
  0
VERTEX
  5
29F
330
26A
100
AcDbEntity
  8
DIBUJOS
 62
     7
100
AcDbVertex
100
AcDb2dVertex
 10
62.15555013761404
 20
35.47178511922194
 30
0.0
  0
VERTEX
  5
2A0
330
26A
100
AcDbEntity
  8
DIBUJOS
 62
     7
100
AcDbVertex
100
AcDb2dVertex
 10
61.72458507570062
 20
35.32626466416601
 30
0.0
  0
VERTEX
  5
2A1
330
26A
100
AcDbEntity
  8
DIBUJOS
 62
     7
100
AcDbVertex
100
AcDb2dVertex
 10
61.39436552359728
 20
35.16899121907517
 30
0.0
  0
VERTEX
  5
2A2
330
26A
100
AcDbEntity
  8
DIBUJOS
 62
     7
100
AcDbVertex
100
AcDb2dVertex
 10
61.1704877845571
 20
35.05705159635184
 30
0.0
  0
VERTEX
  5
2A3
330
26A
100
AcDbEntity
  8
DIBUJOS
 62
     7
100
AcDbVertex
100
AcDb2dVertex
 10
60.87541723482227
 20
34.8642932200572
 30
0.0
  0
VERTEX
  5
2A4
330
26A
100
AcDbEntity
  8
DIBUJOS
 62
     7
100
AcDbVertex
100
AcDb2dVertex
 10
60.73907531966471
 20
34.77183144418689
 30
0.0
  0
VERTEX
  5
2A5
330
26A
100
AcDbEntity
  8
DIBUJOS
 62
     7
100
AcDbVertex
100
AcDb2dVertex
 10
60.65174436718004
 20
34.71313277593576
 30
0.0
  0
VERTEX
  5
2A6
330
26A
100
AcDbEntity
  8
DIBUJOS
 62
     7
100
AcDbVertex
100
AcDb2dVertex
 10
60.29111346377992
 20
34.3968791262437
 30
0.0
  0
VERTEX
  5
2A7
330
26A
100
AcDbEntity
  8
DIBUJOS
 62
     7
100
AcDbVertex
100
AcDb2dVertex
 10
60.18459766066831
 20
34.29596188599613
 30
0.0
  0
VERTEX
  5
2A8
330
26A
100
AcDbEntity
  8
DIBUJOS
 62
     7
100
AcDbVertex
100
AcDb2dVertex
 10
59.90752717219097
 20
33.98008333173079
 30
0.0
  0
VERTEX
  5
2A9
330
26A
100
AcDbEntity
  8
DIBUJOS
 62
     7
100
AcDbVertex
100
AcDb2dVertex
 10
59.79850395406952
 20
33.84785390860009
 30
0.0
  0
VERTEX
  5
2AA
330
26A
100
AcDbEntity
  8
DIBUJOS
 62
     7
100
AcDbVertex
100
AcDb2dVertex
 10
59.7227294054625
 20
33.7341924622915
 30
0.0
  0
VERTEX
  5
2AB
330
26A
100
AcDbEntity
  8
DIBUJOS
 62
     7
100
AcDbVertex
100
AcDb2dVertex
 10
59.474053188859
 20
33.35502069740036
 30
0.0
  0
VERTEX
  5
2AC
330
26A
100
AcDbEntity
  8
DIBUJOS
 62
     7
100
AcDbVertex
100
AcDb2dVertex
 10
59.37554695355311
 20
33.15800822678922
 30
0.0
  0
VERTEX
  5
2AD
330
26A
100
AcDbEntity
  8
DIBUJOS
 62
     7
100
AcDbVertex
100
AcDb2dVertex
 10
59.21043717750112
 20
32.8065197095099
 30
0.0
  0
VERTEX
  5
2AE
330
26A
100
AcDbEntity
  8
DIBUJOS
 62
     7
100
AcDbVertex
100
AcDb2dVertex
 10
59.07051302569858
 20
32.3979428734223
 30
0.0
  0
VERTEX
  5
2AF
330
26A
100
AcDbEntity
  8
DIBUJOS
 62
     7
100
AcDbVertex
100
AcDb2dVertex
 10
59.02397257105601
 20
32.24023859583416
 30
0.0
  0
VERTEX
  5
2B0
330
26A
100
AcDbEntity
  8
DIBUJOS
 62
     7
100
AcDbVertex
100
AcDb2dVertex
 10
58.99168272981073
 20
32.07878788320134
 30
0.0
  0
VERTEX
  5
2B1
330
26A
100
AcDbEntity
  8
DIBUJOS
 62
     7
100
AcDbVertex
100
AcDb2dVertex
 10
58.9180254367145
 20
31.70874645317286
 30
0.0
  0
VERTEX
  5
2B2
330
26A
100
AcDbEntity
  8
DIBUJOS
 62
     7
100
AcDbVertex
100
AcDb2dVertex
 10
58.88448151136237
 20
31.21064533552014
 30
0.0
  0
VERTEX
  5
2B3
330
26A
100
AcDbEntity
  8
DIBUJOS
 62
     7
100
AcDbVertex
100
AcDb2dVertex
 10
58.87629945991721
 20
31.07650428148015
 30
0.0
  0
VERTEX
  5
2B4
330
26A
100
AcDbEntity
  8
DIBUJOS
 62
     7
100
AcDbVertex
100
AcDb2dVertex
 10
58.91804577321362
 20
30.50021610387099
 30
0.0
  0
VERTEX
  5
2B5
330
26A
100
AcDbEntity
  8
DIBUJOS
 62
     7
100
AcDbVertex
100
AcDb2dVertex
 10
58.98479392906388
 20
30.16463223524459
 30
0.0
  0
VERTEX
  5
2B6
330
26A
100
AcDbEntity
  8
DIBUJOS
 62
     7
100
AcDbVertex
100
AcDb2dVertex
 10
59.02397257105601
 20
29.96873902528394
 30
0.0
  0
VERTEX
  5
2B7
330
26A
100
AcDbEntity
  8
DIBUJOS
 62
     7
100
AcDbVertex
100
AcDb2dVertex
 10
59.06827450439761
 20
29.81775031159871
 30
0.0
  0
VERTEX
  5
2B8
330
26A
100
AcDbEntity
  8
DIBUJOS
 62
     7
100
AcDbVertex
100
AcDb2dVertex
 10
59.21379495945322
 20
29.39238305934481
 30
0.0
  0
VERTEX
  5
2B9
330
26A
100
AcDbEntity
  8
DIBUJOS
 62
     7
100
AcDbVertex
100
AcDb2dVertex
 10
59.35875578418358
 20
29.08455097986407
 30
0.0
  0
VERTEX
  5
2BA
330
26A
100
AcDbEntity
  8
DIBUJOS
 62
     7
100
AcDbVertex
100
AcDb2dVertex
 10
59.47629171015996
 20
28.84947912791129
 30
0.0
  0
VERTEX
  5
2BB
330
26A
100
AcDbEntity
  8
DIBUJOS
 62
     7
100
AcDbVertex
100
AcDb2dVertex
 10
59.66116329084777
 20
28.56433655572345
 30
0.0
  0
VERTEX
  5
2BC
330
26A
100
AcDbEntity
  8
DIBUJOS
 62
     7
100
AcDbVertex
100
AcDb2dVertex
 10
59.73693708625091
 20
28.45067510941487
 30
0.0
  0
VERTEX
  5
2BD
330
26A
100
AcDbEntity
  8
DIBUJOS
 62
     7
100
AcDbVertex
100
AcDb2dVertex
 10
59.82356981893492
 20
28.32402014663069
 30
0.0
  0
VERTEX
  5
2BE
330
26A
100
AcDbEntity
  8
DIBUJOS
 62
     7
100
AcDbVertex
100
AcDb2dVertex
 10
60.09782031288047
 20
28.01059101069301
 30
0.0
  0
VERTEX
  5
2BF
330
26A
100
AcDbEntity
  8
DIBUJOS
 62
     7
100
AcDbVertex
100
AcDb2dVertex
 10
60.24755117643948
 20
27.84706597515861
 30
0.0
  0
VERTEX
  5
2C0
330
26A
100
AcDbEntity
  8
DIBUJOS
 62
     7
100
AcDbVertex
100
AcDb2dVertex
 10
60.61816278164453
 20
27.52383012746446
 30
0.0
  0
VERTEX
  5
2C1
330
26A
100
AcDbEntity
  8
DIBUJOS
 62
     7
100
AcDbVertex
100
AcDb2dVertex
 10
60.70705964455445
 20
27.45639956909103
 30
0.0
  0
VERTEX
  5
2C2
330
26A
100
AcDbEntity
  8
DIBUJOS
 62
     7
100
AcDbVertex
100
AcDb2dVertex
 10
60.83436914132653
 20
27.37003422370943
 30
0.0
  0
VERTEX
  5
2C3
330
26A
100
AcDbEntity
  8
DIBUJOS
 62
     7
100
AcDbVertex
100
AcDb2dVertex
 10
61.18280115812082
 20
27.14297043315399
 30
0.0
  0
VERTEX
  5
2C4
330
26A
100
AcDbEntity
  8
DIBUJOS
 62
     7
100
AcDbVertex
100
AcDb2dVertex
 10
61.39996182685002
 20
27.03438934558536
 30
0.0
  0
VERTEX
  5
2C5
330
26A
100
AcDbEntity
  8
DIBUJOS
 62
     7
100
AcDbVertex
100
AcDb2dVertex
 10
61.72570433635111
 20
26.8804736824466
 30
0.0
  0
VERTEX
  5
2C6
330
26A
100
AcDbEntity
  8
DIBUJOS
 62
     7
100
AcDbVertex
100
AcDb2dVertex
 10
62.16114644086743
 20
26.73159469223599
 30
0.0
  0
VERTEX
  5
2C7
330
26A
100
AcDbEntity
  8
DIBUJOS
 62
     7
100
AcDbVertex
100
AcDb2dVertex
 10
62.30206030228991
 20
26.69065054084616
 30
0.0
  0
VERTEX
  5
2C8
330
26A
100
AcDbEntity
  8
DIBUJOS
 62
     7
100
AcDbVertex
100
AcDb2dVertex
 10
62.52513060699737
 20
26.64705059332265
 30
0.0
  0
VERTEX
  5
2C9
330
26A
100
AcDbEntity
  8
DIBUJOS
 62
     7
100
AcDbVertex
100
AcDb2dVertex
 10
62.83913519053745
 20
26.58472449620733
 30
0.0
  0
VERTEX
  5
2CA
330
26A
100
AcDbEntity
  8
DIBUJOS
 62
     7
100
AcDbVertex
100
AcDb2dVertex
 10
63.44340789722519
 20
26.54297742970705
 30
0.0
  0
SEQEND
  5
2CB
330
26A
100
AcDbEntity
  8
DIBUJOS
 62
     7
  0
POLYLINE
  5
2CD
330
1F
100
AcDbEntity
  8
COTAS_LINEA
 62
     7
100
AcDb2dPolyline
 66
     1
 10
0.0
 20
0.0
 30
0.0
  0
VERTEX
  5
2CE
330
2CD
100
AcDbEntity
  8
COTAS_LINEA
 62
     7
100
AcDbVertex
100
AcDb2dVertex
 10
69.8200054384436
 20
49.12106254849308
 30
0.0
  0
VERTEX
  5
2CF
330
2CD
100
AcDbEntity
  8
COTAS_LINEA
 62
     7
100
AcDbVertex
100
AcDb2dVertex
 10
69.82000543930732
 20
44.39130677163646
 30
0.0
  0
SEQEND
  5
2D0
330
2CD
100
AcDbEntity
  8
COTAS_LINEA
 62
     7
  0
POLYLINE
  5
2D1
330
1F
100
AcDbEntity
  8
COTAS_LINEA
 62
     7
100
AcDb2dPolyline
 66
     1
 10
0.0
 20
0.0
 30
0.0
  0
VERTEX
  5
2D2
330
2D1
100
AcDbEntity
  8
COTAS_LINEA
 62
     7
100
AcDbVertex
100
AcDb2dVertex
 10
59.36083199145234
 20
40.07230686707011
 30
0.0
  0
VERTEX
  5
2D3
330
2D1
100
AcDbEntity
  8
COTAS_LINEA
 62
     7
100
AcDbVertex
100
AcDb2dVertex
 10
67.22503195452428
 20
40.07230686707011
 30
0.0
  0
SEQEND
  5
2D4
330
2D1
100
AcDbEntity
  8
COTAS_LINEA
 62
     7
  0
POLYLINE
  5
2D5
330
1F
100
AcDbEntity
  8
COTAS_LINEA
 62
     7
100
AcDb2dPolyline
 66
     1
 10
0.0
 20
0.0
 30
0.0
  0
VERTEX
  5
2D6
330
2D5
100
AcDbEntity
  8
COTAS_LINEA
 62
     7
100
AcDbVertex
100
AcDb2dVertex
 10
86.04778321216443
 20
49.12106254849308
 30
0.0
  0
VERTEX
  5
2D7
330
2D5
100
AcDbEntity
  8
COTAS_LINEA
 62
     7
100
AcDbVertex
100
AcDb2dVertex
 10
86.04778321302815
 20
44.39130677163646
 30
0.0
  0
SEQEND
  5
2D8
330
2D5
100
AcDbEntity
  8
COTAS_LINEA
 62
     7
  0
POLYLINE
  5
2D9
330
1F
100
AcDbEntity
  8
COTAS_LINEA
 62
     7
100
AcDb2dPolyline
 66
     1
 10
0.0
 20
0.0
 30
0.0
  0
VERTEX
  5
2DA
330
2D9
100
AcDbEntity
  8
COTAS_LINEA
 62
     7
100
AcDbVertex
100
AcDb2dVertex
 10
75.5886097651735
 20
40.07230686707011
 30
0.0
  0
VERTEX
  5
2DB
330
2D9
100
AcDbEntity
  8
COTAS_LINEA
 62
     7
100
AcDbVertex
100
AcDb2dVertex
 10
83.45280972824544
 20
40.07230686707011
 30
0.0
  0
SEQEND
  5
2DC
330
2D9
100
AcDbEntity
  8
COTAS_LINEA
 62
     7
  0
MTEXT
  5
2DE
330
1F
100
AcDbEntity
  8
COTAS_N_U_00DAMERO
 62
     7
100
AcDbMText
 10
70.59514183822687
 20
45.841737820503
 30
0.0
 40
1.998533025814148
 41
0.0
 71
     7
 72
     1
  1
\fMyriad Pro|b0|i0|c0|p34;\W1;46
  0
MTEXT
  5
2DF
330
1F
100
AcDbEntity
  8
COTAS_N_U_00DAMERO
 62
     7
100
AcDbMText
 10
61.78730306140322
 20
40.62727897476071
 30
0.0
 40
1.998533025814148
 41
0.0
 71
     7
 72
     1
  1
\fMyriad Pro|b0|i0|c0|p34;\W1;90
  0
MTEXT
  5
2E0
330
1F
100
AcDbEntity
  8
COTAS_N_U_00DAMERO
 62
     7
100
AcDbMText
 10
86.8229196119477
 20
45.841737820503
 30
0.0
 40
1.998533025814148
 41
0.0
 71
     7
 72
     1
  1
\fMyriad Pro|b0|i0|c0|p34;\W1;46
  0
MTEXT
  5
2E1
330
1F
100
AcDbEntity
  8
COTAS_N_U_00DAMERO
 62
     7
100
AcDbMText
 10
78.01508083512405
 20
40.62727897476071
 30
0.0
 40
1.998533025814148
 41
0.0
 71
     7
 72
     1
  1
\fMyriad Pro|b0|i0|c0|p34;\W1;90
  0
ENDSEC
  0
SECTION
  2
OBJECTS
  0
DICTIONARY
  5
C
330
0
100
AcDbDictionary
  3
ACAD_GROUP
350
D
  3
ACAD_LAYOUT
350
1A
  3
ACAD_MATERIAL
350
3B
  3
ACAD_MLEADERSTYLE
350
304
  3
ACAD_MLINESTYLE
350
17
  3
ACAD_PLOTSETTINGS
350
19
  3
ACAD_VISUALSTYLE
350
2A
  3
ACDBHEADERROUNDTRIPXREC
350
2E2
  3
ACDBVARIABLEDICTIONARY
350
302
  0
DICTIONARY
  5
D
102
{ACAD_REACTORS
330
C
102
}
330
C
100
AcDbDictionary
  0
DICTIONARY
  5
1A
102
{ACAD_REACTORS
330
C
102
}
330
C
100
AcDbDictionary
  0
DICTIONARY
  5
3B
102
{ACAD_REACTORS
330
C
102
}
330
C
100
AcDbDictionary
  3
BYBLOCK
350
3D
  3
BYLAYER
350
3C
  3
GLOBAL
350
3E
  0
DICTIONARY
  5
304
102
{ACAD_REACTORS
330
C
102
}
330
C
100
AcDbDictionary
  0
DICTIONARY
  5
17
102
{ACAD_REACTORS
330
C
102
}
330
C
100
AcDbDictionary
  3
STANDARD
350
18
  0
DICTIONARY
  5
19
102
{ACAD_REACTORS
330
C
102
}
330
C
100
AcDbDictionary
  0
DICTIONARY
  5
2A
102
{ACAD_REACTORS
330
C
102
}
330
C
100
AcDbDictionary
  3
2DWIREFRAME
350
2F
  3
3D_HIDDEN
350
31
  3
3DWIREFRAME
350
30
  3
BASIC
350
32
  3
BRIGHTEN
350
36
  3
COLORCHANGE
350
3A
  3
CONCEPTUAL
350
34
  3
DIM
350
35
  3
FACEPATTERN
350
39
  3
FLAT
350
2B
  3
FLATWITHEDGES
350
2C
  3
GOURAUD
350
2D
  3
GOURAUDWITHEDGES
350
2E
  3
LINEPATTERN
350
38
  3
REALISTIC
350
33
  3
THICKEN
350
37
  0
DICTIONARY
  5
2E2
102
{ACAD_REACTORS
330
C
102
}
330
C
100
AcDbDictionary
  3
CEPSNTYPE
350
2EB
  3
DIMSTYLEDATA
350
301
  3
FINGERPRINTGUID
350
2EC
  3
HYPERLINKBASE
350
2E5
  3
INSUNITS
350
2EA
  3
LAYOUTDICT
350
2E7
  3
LWETCUNION
350
2E9
  3
PLOTSETDICT
350
2E8
  3
PSVPSCALE
350
2EE
  3
PUCSBASE
350
2F1
  3
PUCSORGBACK
350
2F7
  3
PUCSORGBOTTOM
350
2F3
  3
PUCSORGFRONT
350
2F6
  3
PUCSORGLEFT
350
2F4
  3
PUCSORGRIGHT
350
2F5
  3
PUCSORGTOP
350
2F2
  3
PUCSORTHOREF
350
2EF
  3
PUCSORTHOVIEW
350
2F0
  3
STYLESHEET
350
2E6
  3
TSTACKALIGN
350
2E3
  3
TSTACKSIZE
350
2E4
  3
UCSBASE
350
2FA
  3
UCSORGBACK
350
300
  3
UCSORGBOTTOM
350
2FC
  3
UCSORGFRONT
350
2FF
  3
UCSORGLEFT
350
2FD
  3
UCSORGRIGHT
350
2FE
  3
UCSORGTOP
350
2FB
  3
UCSORTHOREF
350
2F8
  3
UCSORTHOVIEW
350
2F9
  3
VERSIONGUID
350
2ED
  0
DICTIONARY
  5
302
102
{ACAD_REACTORS
330
C
102
}
330
C
100
AcDbDictionary
  3
DIMASSOC
350
305
  3
HIDETEXT
350
306
  0
MATERIAL
  5
3D
102
{ACAD_REACTORS
330
3B
102
}
102
{ACAD_XDICTIONARY
360
309
102
}
330
3B
100
AcDbMaterial
  1
ByBlock
  0
MATERIAL
  5
3C
102
{ACAD_REACTORS
330
3B
102
}
102
{ACAD_XDICTIONARY
360
307
102
}
330
3B
100
AcDbMaterial
  1
ByLayer
  0
MATERIAL
  5
3E
102
{ACAD_REACTORS
330
3B
102
}
102
{ACAD_XDICTIONARY
360
30B
102
}
330
3B
100
AcDbMaterial
  1
Global
  0
MLINESTYLE
  5
18
102
{ACAD_REACTORS
330
17
102
}
330
17
100
AcDbMlineStyle
  2
Standard
 70
     0
  3

 62
   256
 51
90.0
 52
90.0
 71
     2
 49
0.5
 62
   256
  6
BYLAYER
 49
-0.5
 62
   256
  6
BYLAYER
  0
ACAD_PROXY_OBJECT
  5
2F
102
{ACAD_REACTORS
330
2A
102
}
330
2A
100
AcDbProxyObject
 90
      499
 91
      501
 93
      436
310
42CC9915DA5C99599C985B595049028333333333333E3BF0000000000000FB0107901411070040501600405405064090741402480A0340
1001
ACAD
1000
AcDbSavedByObjectVersion
1070
     0
  0
ACAD_PROXY_OBJECT
  5
31
102
{ACAD_REACTORS
330
2A
102
}
330
2A
100
AcDbProxyObject
 90
      499
 91
      501
 93
      500
310
424CD108121A5919195B90640502408333333333333E3BF0000000000000FB01079024090700405020000000000001110200405405064090740C02480A0340
1001
ACAD
1000
AcDbSavedByObjectVersion
1070
     0
  0
ACAD_PROXY_OBJECT
  5
30
102
{ACAD_REACTORS
330
2A
102
}
330
2A
100
AcDbProxyObject
 90
      499
 91
      501
 93
      436
310
42CCD915DA5C99599C985B595059028333333333333E3BF0000000000000FB0107901411070040501600405405064090741402480A0340
1001
ACAD
1000
AcDbSavedByObjectVersion
1070
     0
  0
ACAD_PROXY_OBJECT
  5
32
102
{ACAD_REACTORS
330
2A
102
}
330
2A
100
AcDbProxyObject
 90
      499
 91
      501
 93
      388
310
4150985CDA58D07406404333333333333E3BF0000000000000FB0107A41107004050150841D405064090741402480A0350
1001
ACAD
1000
AcDbSavedByObjectVersion
1070
     0
  0
ACAD_PROXY_OBJECT
  5
36
102
{ACAD_REACTORS
330
2A
102
}
330
2A
100
AcDbProxyObject
 90
      499
 91
      501
 93
      428
310
42109C9A59DA1D195B90C409028333333333333E3BF0000000000000FB010790141107004050150841D405064090741402480A029950
1001
ACAD
1000
AcDbSavedByObjectVersion
1070
     0
  0
ACAD_PROXY_OBJECT
  5
3A
102
{ACAD_REACTORS
330
2A
102
}
330
2A
100
AcDbProxyObject
 90
      499
 91
      501
 93
      452
310
42D0DBDB1BDC90DA185B99D95104090240C333333333333E3BF0000000000000FB0108901411070040501508421405064090741402480A0350
1001
ACAD
1000
AcDbSavedByObjectVersion
1070
     0
  0
ACAD_PROXY_OBJECT
  5
34
102
{ACAD_REACTORS
330
2A
102
}
330
2A
100
AcDbProxyObject
 90
      499
 91
      501
 93
      500
310
4290DBDB98D95C1D1D585B10940D028333333333333E3BF0000000000000FB0107902409070040501000000000000111010841D405064090740C02480A0340
1001
ACAD
1000
AcDbSavedByObjectVersion
1070
     0
  0
ACAD_PROXY_OBJECT
  5
35
102
{ACAD_REACTORS
330
2A
102
}
330
2A
100
AcDbProxyObject
 90
      499
 91
      501
 93
      412
310
40D11A5B50B409028333333333333E3BF0000000000000FB010790141107004050150841D405064090741402480A02677FFFFFD0
1001
ACAD
1000
AcDbSavedByObjectVersion
1070
     0
  0
ACAD_PROXY_OBJECT
  5
39
102
{ACAD_REACTORS
330
2A
102
}
330
2A
100
AcDbProxyObject
 90
      499
 91
      501
 93
      444
310
42D19858D95C185D1D195C9B90F409028333333333333E3BF0000000000000FB010790141107004050150841D405064090741402480A0350
1001
ACAD
1000
AcDbSavedByObjectVersion
1070
     0
  0
ACAD_PROXY_OBJECT
  5
2B
102
{ACAD_REACTORS
330
2A
102
}
330
2A
100
AcDbProxyObject
 90
      499
 91
      501
 93
      388
310
41119B185D240901404333333333333E3BF0000000000000F9010740A41107004050150841D405064090741402480A1B50
1001
ACAD
1000
AcDbSavedByObjectVersion
1070
     0
  0
ACAD_PROXY_OBJECT
  5
2C
102
{ACAD_REACTORS
330
2A
102
}
330
2A
100
AcDbProxyObject
 90
      499
 91
      501
 93
      476
310
43519B185D15DA5D1A115919D95CD0140901404333333333333E3BF0000000000000F9010740901411070040501600405405064090741402480A1B50
1001
ACAD
1000
AcDbSavedByObjectVersion
1070
     0
  0
ACAD_PROXY_OBJECT
  5
2D
102
{ACAD_REACTORS
330
2A
102
}
330
2A
100
AcDbProxyObject
 90
      499
 91
      501
 93
      412
310
41D1DBDD5C985D5910240902404333333333333E3BF0000000000000F9010740A411070040501641D405064090741402480A1B50
1001
ACAD
1000
AcDbSavedByObjectVersion
1070
     0
  0
ACAD_PROXY_OBJECT
  5
2E
102
{ACAD_REACTORS
330
2A
102
}
330
2A
100
AcDbProxyObject
 90
      499
 91
      501
 93
      500
310
4411DBDD5C985D5915DA5D1A115919D95CD0340902404333333333333E3BF0000000000000F9010740901411070040501600405405064090741402480A1B50
1001
ACAD
1000
AcDbSavedByObjectVersion
1070
     0
  0
ACAD_PROXY_OBJECT
  5
38
102
{ACAD_REACTORS
330
2A
102
}
330
2A
100
AcDbProxyObject
 90
      499
 91
      501
 93
      444
310
42D31A5B995C185D1D195C9B90E409028333333333333E3BF0000000000000FB010790141107004050750841D405064090741402483A0350
1001
ACAD
1000
AcDbSavedByObjectVersion
1070
     0
  0
ACAD_PROXY_OBJECT
  5
33
102
{ACAD_REACTORS
330
2A
102
}
330
2A
100
AcDbProxyObject
 90
      499
 91
      501
 93
      420
310
425499585B1A5CDD1A58D08409028333333333333E3BF0000000000000FB01079019070040501508421405064090741402480A1B40
1001
ACAD
1000
AcDbSavedByObjectVersion
1070
     0
  0
ACAD_PROXY_OBJECT
  5
37
102
{ACAD_REACTORS
330
2A
102
}
330
2A
100
AcDbProxyObject
 90
      499
 91
      501
 93
      412
310
41D51A1A58DAD95B90D409028333333333333E3BF0000000000000FB010790141107004050150C41D405064090741402480A0350
1001
ACAD
1000
AcDbSavedByObjectVersion
1070
     0
  0
XRECORD
  5
2EB
102
{ACAD_REACTORS
330
2E2
102
}
330
2E2
100
AcDbXrecord
 90
        0
  0
XRECORD
  5
301
102
{ACAD_REACTORS
330
2E2
102
}
330
2E2
100
AcDbXrecord
1000
DSTYLE
1002
{
1070
   340
340
11
1002
}
  0
XRECORD
  5
2EC
102
{ACAD_REACTORS
330
2E2
102
}
330
2E2
100
AcDbXrecord
  1
{3E45CA09-5792-443E-A80E-B6C896090B4C}
  0
XRECORD
  5
2E5
102
{ACAD_REACTORS
330
2E2
102
}
330
2E2
100
AcDbXrecord
  1

  0
XRECORD
  5
2EA
102
{ACAD_REACTORS
330
2E2
102
}
330
2E2
100
AcDbXrecord
 90
        1
  0
XRECORD
  5
2E7
102
{ACAD_REACTORS
330
2E2
102
}
330
2E2
100
AcDbXrecord
340
1A
  0
XRECORD
  5
2E9
102
{ACAD_REACTORS
330
2E2
102
}
330
2E2
100
AcDbXrecord
 90
    10269
  0
XRECORD
  5
2E8
102
{ACAD_REACTORS
330
2E2
102
}
330
2E2
100
AcDbXrecord
340
19
  0
XRECORD
  5
2EE
102
{ACAD_REACTORS
330
2E2
102
}
330
2E2
100
AcDbXrecord
 40
0.0
  0
XRECORD
  5
2F1
102
{ACAD_REACTORS
330
2E2
102
}
330
2E2
100
AcDbXrecord
340
0
  0
XRECORD
  5
2F7
102
{ACAD_REACTORS
330
2E2
102
}
330
2E2
100
AcDbXrecord
 10
0.0
 20
0.0
 30
0.0
  0
XRECORD
  5
2F3
102
{ACAD_REACTORS
330
2E2
102
}
330
2E2
100
AcDbXrecord
 10
0.0
 20
0.0
 30
0.0
  0
XRECORD
  5
2F6
102
{ACAD_REACTORS
330
2E2
102
}
330
2E2
100
AcDbXrecord
 10
0.0
 20
0.0
 30
0.0
  0
XRECORD
  5
2F4
102
{ACAD_REACTORS
330
2E2
102
}
330
2E2
100
AcDbXrecord
 10
0.0
 20
0.0
 30
0.0
  0
XRECORD
  5
2F5
102
{ACAD_REACTORS
330
2E2
102
}
330
2E2
100
AcDbXrecord
 10
0.0
 20
0.0
 30
0.0
  0
XRECORD
  5
2F2
102
{ACAD_REACTORS
330
2E2
102
}
330
2E2
100
AcDbXrecord
 10
0.0
 20
0.0
 30
0.0
  0
XRECORD
  5
2EF
102
{ACAD_REACTORS
330
2E2
102
}
330
2E2
100
AcDbXrecord
340
0
  0
XRECORD
  5
2F0
102
{ACAD_REACTORS
330
2E2
102
}
330
2E2
100
AcDbXrecord
 70
     0
  0
XRECORD
  5
2E6
102
{ACAD_REACTORS
330
2E2
102
}
330
2E2
100
AcDbXrecord
  1

  0
XRECORD
  5
2E3
102
{ACAD_REACTORS
330
2E2
102
}
330
2E2
100
AcDbXrecord
 90
        1
  0
XRECORD
  5
2E4
102
{ACAD_REACTORS
330
2E2
102
}
330
2E2
100
AcDbXrecord
 90
       70
  0
XRECORD
  5
2FA
102
{ACAD_REACTORS
330
2E2
102
}
330
2E2
100
AcDbXrecord
340
0
  0
XRECORD
  5
300
102
{ACAD_REACTORS
330
2E2
102
}
330
2E2
100
AcDbXrecord
 10
0.0
 20
0.0
 30
0.0
  0
XRECORD
  5
2FC
102
{ACAD_REACTORS
330
2E2
102
}
330
2E2
100
AcDbXrecord
 10
0.0
 20
0.0
 30
0.0
  0
XRECORD
  5
2FF
102
{ACAD_REACTORS
330
2E2
102
}
330
2E2
100
AcDbXrecord
 10
0.0
 20
0.0
 30
0.0
  0
XRECORD
  5
2FD
102
{ACAD_REACTORS
330
2E2
102
}
330
2E2
100
AcDbXrecord
 10
0.0
 20
0.0
 30
0.0
  0
XRECORD
  5
2FE
102
{ACAD_REACTORS
330
2E2
102
}
330
2E2
100
AcDbXrecord
 10
0.0
 20
0.0
 30
0.0
  0
XRECORD
  5
2FB
102
{ACAD_REACTORS
330
2E2
102
}
330
2E2
100
AcDbXrecord
 10
0.0
 20
0.0
 30
0.0
  0
XRECORD
  5
2F8
102
{ACAD_REACTORS
330
2E2
102
}
330
2E2
100
AcDbXrecord
340
0
  0
XRECORD
  5
2F9
102
{ACAD_REACTORS
330
2E2
102
}
330
2E2
100
AcDbXrecord
 70
     0
  0
XRECORD
  5
2ED
102
{ACAD_REACTORS
330
2E2
102
}
330
2E2
100
AcDbXrecord
  1
{FAEB1C32-E019-11D5-929B-00C0DF256EC4}
  0
DICTIONARYVAR
  5
305
102
{ACAD_REACTORS
330
302
102
}
330
302
100
DictionaryVariables
280
     0
  1
2
  0
DICTIONARYVAR
  5
306
102
{ACAD_REACTORS
330
302
102
}
330
302
100
DictionaryVariables
280
     0
  1
1
  0
DICTIONARY
  5
309
330
3D
100
AcDbDictionary
280
     1
  3
ACAD_XREC_ROUNDTRIP
360
30A
  0
DICTIONARY
  5
307
330
3C
100
AcDbDictionary
280
     1
  3
ACAD_XREC_ROUNDTRIP
360
308
  0
DICTIONARY
  5
30B
330
3E
100
AcDbDictionary
280
     1
  3
ACAD_XREC_ROUNDTRIP
360
30C
  0
XRECORD
  5
30A
102
{ACAD_REACTORS
330
309
102
}
330
309
100
AcDbXrecord
102
MATERIAL
148
0.0
149
0.0
149
0.0
 93
        0
 94
      127
282
     0
 72
     1
 77
     1
171
     1
175
     1
179
     1
273
     0
  0
XRECORD
  5
308
102
{ACAD_REACTORS
330
307
102
}
330
307
100
AcDbXrecord
102
MATERIAL
148
0.0
149
0.0
149
0.0
 93
        0
 94
      127
282
     0
 72
     1
 77
     1
171
     1
175
     1
179
     1
273
     0
  0
XRECORD
  5
30C
102
{ACAD_REACTORS
330
30B
102
}
330
30B
100
AcDbXrecord
102
MATERIAL
148
0.0
149
0.0
149
0.0
 93
        0
 94
      127
282
     0
 72
     1
 77
     1
171
     1
175
     1
179
     1
273
     0
  0
ENDSEC
  0
EOF
