  0
SECTION
  2
HEADER
  9
$ACADVER
  1
AC1014
  9
$ACADMAINTVER
 70
     9
  9
$DWGCODEPAGE
  3
ANSI_1252
  9
$INSBASE
 10
0.0
 20
0.0
 30
0.0
  9
$EXTMIN
 10
1.000000000000000E+20
 20
1.000000000000000E+20
 30
1.000000000000000E+20
  9
$EXTMAX
 10
-1.000000000000000E+20
 20
-1.000000000000000E+20
 30
-1.000000000000000E+20
  9
$LIMMIN
 10
0.0
 20
0.0
  9
$LIMMAX
 10
12.0
 20
9.0
  9
$ORTHOMODE
 70
     0
  9
$REGENMODE
 70
     1
  9
$FILLMODE
 70
     1
  9
$QTEXTMODE
 70
     0
  9
$MIRRTEXT
 70
     1
  9
$DRAGMODE
 70
     2
  9
$LTSCALE
 40
1.0
  9
$OSMODE
 70
    37
  9
$ATTMODE
 70
     1
  9
$TEXTSIZE
 40
0.2
  9
$TRACEWID
 40
0.05
  9
$TEXTSTYLE
  7
STANDARD
  9
$CLAYER
  8
0
  9
$CELTYPE
  6
BYLAYER
  9
$CECOLOR
 62
   256
  9
$CELTSCALE
 40
1.0
  9
$DELOBJ
 70
     1
  9
$DISPSILH
 70
     0
  9
$DIMSCALE
 40
1.0
  9
$DIMASZ
 40
0.18
  9
$DIMEXO
 40
0.0625
  9
$DIMDLI
 40
0.38
  9
$DIMRND
 40
0.0
  9
$DIMDLE
 40
0.0
  9
$DIMEXE
 40
0.18
  9
$DIMTP
 40
0.0
  9
$DIMTM
 40
0.0
  9
$DIMTXT
 40
0.18
  9
$DIMCEN
 40
0.09
  9
$DIMTSZ
 40
0.0
  9
$DIMTOL
 70
     0
  9
$DIMLIM
 70
     0
  9
$DIMTIH
 70
     1
  9
$DIMTOH
 70
     1
  9
$DIMSE1
 70
     0
  9
$DIMSE2
 70
     0
  9
$DIMTAD
 70
     0
  9
$DIMZIN
 70
     0
  9
$DIMBLK
  1

  9
$DIMASO
 70
     1
  9
$DIMSHO
 70
     1
  9
$DIMPOST
  1

  9
$DIMAPOST
  1

  9
$DIMALT
 70
     0
  9
$DIMALTD
 70
     2
  9
$DIMALTF
 40
25.4
  9
$DIMLFAC
 40
1.0
  9
$DIMTOFL
 70
     0
  9
$DIMTVP
 40
0.0
  9
$DIMTIX
 70
     0
  9
$DIMSOXD
 70
     0
  9
$DIMSAH
 70
     0
  9
$DIMBLK1
  1

  9
$DIMBLK2
  1

  9
$DIMSTYLE
  2
STANDARD
  9
$DIMCLRD
 70
     0
  9
$DIMCLRE
 70
     0
  9
$DIMCLRT
 70
     0
  9
$DIMTFAC
 40
1.0
  9
$DIMGAP
 40
0.09
  9
$DIMJUST
 70
     0
  9
$DIMSD1
 70
     0
  9
$DIMSD2
 70
     0
  9
$DIMTOLJ
 70
     1
  9
$DIMTZIN
 70
     0
  9
$DIMALTZ
 70
     0
  9
$DIMALTTZ
 70
     0
  9
$DIMFIT
 70
     3
  9
$DIMUPT
 70
     0
  9
$DIMUNIT
 70
     2
  9
$DIMDEC
 70
     4
  9
$DIMTDEC
 70
     4
  9
$DIMALTU
 70
     2
  9
$DIMALTTD
 70
     2
  9
$DIMTXSTY
  7
STANDARD
  9
$DIMAUNIT
 70
     0
  9
$LUNITS
 70
     2
  9
$LUPREC
 70
     4
  9
$SKETCHINC
 40
0.1
  9
$FILLETRAD
 40
0.5
  9
$AUNITS
 70
     0
  9
$AUPREC
 70
     0
  9
$MENU
  1
.
  9
$ELEVATION
 40
0.0
  9
$PELEVATION
 40
0.0
  9
$THICKNESS
 40
0.0
  9
$LIMCHECK
 70
     0
  9
$CHAMFERA
 40
0.5
  9
$CHAMFERB
 40
0.5
  9
$CHAMFERC
 40
1.0
  9
$CHAMFERD
 40
0.0
  9
$SKPOLY
 70
     0
  9
$TDCREATE
 40
2460502.675205127
  9
$TDUPDATE
 40
2460502.675205313
  9
$TDINDWG
 40
0.0000000116
  9
$TDUSRTIMER
 40
0.0000000116
  9
$USRTIMER
 70
     1
  9
$ANGBASE
 50
0.0
  9
$ANGDIR
 70
     0
  9
$PDMODE
 70
     0
  9
$PDSIZE
 40
0.0
  9
$PLINEWID
 40
0.0
  9
$COORDS
 70
     1
  9
$SPLFRAME
 70
     0
  9
$SPLINETYPE
 70
     6
  9
$SPLINESEGS
 70
     8
  9
$ATTDIA
 70
     0
  9
$ATTREQ
 70
     1
  9
$HANDLING
 70
     1
  9
$HANDSEED
  5
63D
  9
$SURFTAB1
 70
     6
  9
$SURFTAB2
 70
     6
  9
$SURFTYPE
 70
     6
  9
$SURFU
 70
     6
  9
$SURFV
 70
     6
  9
$UCSNAME
  2

  9
$UCSORG
 10
0.0
 20
0.0
 30
0.0
  9
$UCSXDIR
 10
1.0
 20
0.0
 30
0.0
  9
$UCSYDIR
 10
0.0
 20
1.0
 30
0.0
  9
$PUCSNAME
  2

  9
$PUCSORG
 10
0.0
 20
0.0
 30
0.0
  9
$PUCSXDIR
 10
1.0
 20
0.0
 30
0.0
  9
$PUCSYDIR
 10
0.0
 20
1.0
 30
0.0
  9
$USERI1
 70
     0
  9
$USERI2
 70
     0
  9
$USERI3
 70
     0
  9
$USERI4
 70
     0
  9
$USERI5
 70
     0
  9
$USERR1
 40
0.0
  9
$USERR2
 40
0.0
  9
$USERR3
 40
0.0
  9
$USERR4
 40
0.0
  9
$USERR5
 40
0.0
  9
$WORLDVIEW
 70
     1
  9
$SHADEDGE
 70
     3
  9
$SHADEDIF
 70
    70
  9
$TILEMODE
 70
     1
  9
$MAXACTVP
 70
    64
  9
$PINSBASE
 10
0.0
 20
0.0
 30
0.0
  9
$PLIMCHECK
 70
     0
  9
$PEXTMIN
 10
1.000000000000000E+20
 20
1.000000000000000E+20
 30
1.000000000000000E+20
  9
$PEXTMAX
 10
-1.000000000000000E+20
 20
-1.000000000000000E+20
 30
-1.000000000000000E+20
  9
$PLIMMIN
 10
0.0
 20
0.0
  9
$PLIMMAX
 10
12.0
 20
9.0
  9
$UNITMODE
 70
     0
  9
$VISRETAIN
 70
     1
  9
$PLINEGEN
 70
     0
  9
$PSLTSCALE
 70
     1
  9
$TREEDEPTH
 70
  3020
  9
$PICKSTYLE
 70
     1
  9
$CMLSTYLE
  2
STANDARD
  9
$CMLJUST
 70
     0
  9
$CMLSCALE
 40
1.0
  9
$PROXYGRAPHICS
 70
     1
  9
$MEASUREMENT
 70
     0
  0
ENDSEC
  0
SECTION
  2
CLASSES
  0
CLASS
  1
ACDBDICTIONARYWDFLT
  2
AcDbDictionaryWithDefault
  3
ObjectDBX Classes
 90
        0
280
     0
281
     0
  0
CLASS
  1
VISUALSTYLE
  2
AcDbVisualStyle
  3
ObjectDBX Classes
 90
     4095
280
     0
281
     0
  0
CLASS
  1
MATERIAL
  2
AcDbMaterial
  3
ObjectDBX Classes
 90
     1153
280
     0
281
     0
  0
CLASS
  1
SUN
  2
AcDbSun
  3
SCENEOE
 90
     1024
280
     0
281
     0
  0
CLASS
  1
DICTIONARYVAR
  2
AcDbDictionaryVar
  3
ObjectDBX Classes
 90
        0
280
     0
281
     0
  0
CLASS
  1
XRECORD
  2
AcDbXrecord
  3
AutoCAD 2000
 90
        0
280
     0
281
     0
  0
CLASS
  1
LWPOLYLINE
  2
AcDbPolyline
  3
AutoCAD 2000
 90
        0
280
     0
281
     1
  0
CLASS
  1
HATCH
  2
AcDbHatch
  3
AutoCAD 2000
 90
        0
280
     0
281
     1
  0
CLASS
  1
ACDBPLACEHOLDER
  2
AcDbPlaceHolder
  3
ObjectDBX Classes
 90
        0
280
     0
281
     0
  0
CLASS
  1
LAYOUT
  2
AcDbLayout
  3
ObjectDBX Classes
 90
        0
280
     0
281
     0
  0
ENDSEC
  0
SECTION
  2
TABLES
  0
TABLE
  2
VPORT
  5
8
330
0
100
AcDbSymbolTable
 70
     1
  0
VPORT
  5
29
330
8
100
AcDbSymbolTableRecord
100
AcDbViewportTableRecord
  2
*ACTIVE
 70
     0
 10
0.0
 20
0.0
 11
1.0
 21
1.0
 12
0.0
 22
0.0
 13
0.0
 23
0.0
 14
0.5
 24
0.5
 15
0.5
 25
0.5
 16
0.0
 26
0.0
 36
1.0
 17
35.00141487537965
 27
39.74999886684608
 37
0.0
 40
39.99999998999989
 41
1.000070850170323
 42
50.0
 43
0.0
 44
0.0
 50
0.0
 51
0.0
 71
     0
 72
   100
 73
     1
 74
     3
 75
     0
 76
     0
 77
     0
 78
     0
  0
ENDTAB
  0
TABLE
  2
LTYPE
  5
5
330
0
100
AcDbSymbolTable
 70
     1
  0
LTYPE
  5
14
330
5
100
AcDbSymbolTableRecord
100
AcDbLinetypeTableRecord
  2
BYBLOCK
 70
     0
  3

 72
    65
 73
     0
 40
0.0
  0
LTYPE
  5
15
330
5
100
AcDbSymbolTableRecord
100
AcDbLinetypeTableRecord
  2
BYLAYER
 70
     0
  3

 72
    65
 73
     0
 40
0.0
  0
LTYPE
  5
16
330
5
100
AcDbSymbolTableRecord
100
AcDbLinetypeTableRecord
  2
CONTINUOUS
 70
     0
  3
Solid line
 72
    65
 73
     0
 40
0.0
  0
ENDTAB
  0
TABLE
  2
LAYER
  5
2
330
0
100
AcDbSymbolTable
 70
     6
  0
LAYER
  5
10
330
2
100
AcDbSymbolTableRecord
100
AcDbLayerTableRecord
  2
0
 70
     0
 62
     7
  6
CONTINUOUS
  0
LAYER
  5
40
330
2
100
AcDbSymbolTableRecord
100
AcDbLayerTableRecord
  2
REFERENCIAS
 70
     0
 62
     7
  6
CONTINUOUS
  0
LAYER
  5
42
330
2
100
AcDbSymbolTableRecord
100
AcDbLayerTableRecord
  2
M_U_00C1RGENES
 70
     0
 62
     7
  6
CONTINUOUS
  0
LAYER
  5
51
330
2
100
AcDbSymbolTableRecord
100
AcDbLayerTableRecord
  2
DIBUJOS
 70
     0
 62
     7
  6
CONTINUOUS
  0
LAYER
  5
5FC
330
2
100
AcDbSymbolTableRecord
100
AcDbLayerTableRecord
  2
COTAS_LINEA
 70
     0
 62
     7
  6
CONTINUOUS
  0
LAYER
  5
60D
330
2
100
AcDbSymbolTableRecord
100
AcDbLayerTableRecord
  2
COTAS_N_U_00DAMERO
 70
     0
 62
     7
  6
CONTINUOUS
  0
ENDTAB
  0
TABLE
  2
STYLE
  5
3
330
0
100
AcDbSymbolTable
 70
     1
  0
STYLE
  5
11
330
3
100
AcDbSymbolTableRecord
100
AcDbTextStyleTableRecord
  2
STANDARD
 70
     0
 40
0.0
 41
1.0
 50
0.0
 71
     0
 42
0.2
  3
txt
  4

  0
ENDTAB
  0
TABLE
  2
VIEW
  5
6
330
0
100
AcDbSymbolTable
 70
     0
  0
ENDTAB
  0
TABLE
  2
UCS
  5
7
330
0
100
AcDbSymbolTable
 70
     0
  0
ENDTAB
  0
TABLE
  2
APPID
  5
9
330
0
100
AcDbSymbolTable
 70
     1
  0
APPID
  5
12
330
9
100
AcDbSymbolTableRecord
100
AcDbRegAppTableRecord
  2
ACAD
 70
     0
  0
ENDTAB
  0
TABLE
  2
DIMSTYLE
  5
A
330
0
100
AcDbSymbolTable
 70
     1
  0
DIMSTYLE
105
27
330
A
100
AcDbSymbolTableRecord
100
AcDbDimStyleTableRecord
  2
STANDARD
 70
     0
  3

  4

  5

  6

  7

 40
1.0
 41
0.18
 42
0.0625
 43
0.38
 44
0.18
 45
0.0
 46
0.0
 47
0.0
 48
0.0
140
0.18
141
0.09
142
0.0
143
25.4
144
1.0
145
0.0
146
1.0
147
0.09
 71
     0
 72
     0
 73
     1
 74
     1
 75
     0
 76
     0
 77
     0
 78
     0
170
     0
171
     2
172
     0
173
     0
174
     0
175
     0
176
     0
177
     0
178
     0
270
     2
271
     4
272
     4
273
     2
274
     2
340
11
275
     0
280
     0
281
     0
282
     0
283
     1
284
     0
285
     0
286
     0
287
     3
288
     0
  0
ENDTAB
  0
TABLE
  2
BLOCK_RECORD
  5
1
330
0
100
AcDbSymbolTable
 70
     4
  0
BLOCK_RECORD
  5
1F
330
1
100
AcDbSymbolTableRecord
100
AcDbBlockTableRecord
  2
*MODEL_SPACE
  0
BLOCK_RECORD
  5
1B
330
1
100
AcDbSymbolTableRecord
100
AcDbBlockTableRecord
  2
*PAPER_SPACE
  0
BLOCK_RECORD
  5
52
330
1
100
AcDbSymbolTableRecord
100
AcDbBlockTableRecord
  2
BLOCK_2
  0
BLOCK_RECORD
  5
311
330
1
100
AcDbSymbolTableRecord
100
AcDbBlockTableRecord
  2
BLOCK_3
  0
BLOCK_RECORD
  5
411
330
1
100
AcDbSymbolTableRecord
100
AcDbBlockTableRecord
  2
BLOCK_4
  0
ENDTAB
  0
ENDSEC
  0
SECTION
  2
BLOCKS
  0
BLOCK
  5
20
330
1F
100
AcDbEntity
  8
0
100
AcDbBlockBegin
  2
*MODEL_SPACE
 70
     0
 10
0.0
 20
0.0
 30
0.0
  3
*MODEL_SPACE
  1

  0
ENDBLK
  5
21
330
1F
100
AcDbEntity
  8
0
100
AcDbBlockEnd
  0
BLOCK
  5
1C
330
1B
100
AcDbEntity
 67
     1
  8
0
100
AcDbBlockBegin
  2
*PAPER_SPACE
 70
     0
 10
0.0
 20
0.0
 30
0.0
  3
*PAPER_SPACE
  1

  0
ENDBLK
  5
1D
330
1B
100
AcDbEntity
 67
     1
  8
0
100
AcDbBlockEnd
  0
BLOCK
  5
54
330
52
100
AcDbEntity
  8
0
100
AcDbBlockBegin
  2
BLOCK_2
 70
     0
 10
0.0
 20
0.0
 30
0.0
  3
BLOCK_2
  1

  0
POLYLINE
  5
56
330
52
100
AcDbEntity
  8
DIBUJOS
 62
     7
100
AcDb2dPolyline
 66
     1
 10
0.0
 20
0.0
 30
0.0
  0
VERTEX
  5
57
330
56
100
AcDbEntity
  8
DIBUJOS
 62
     7
100
AcDbVertex
100
AcDb2dVertex
 10
26.23786062961242
 20
51.89889894879526
 30
0.0
  0
VERTEX
  5
58
330
56
100
AcDbEntity
  8
DIBUJOS
 62
     7
100
AcDbVertex
100
AcDb2dVertex
 10
26.23209470228132
 20
51.89889894879526
 30
0.0
  0
SEQEND
  5
59
330
56
100
AcDbEntity
  8
DIBUJOS
 62
     7
  0
POLYLINE
  5
5A
330
52
100
AcDbEntity
  8
DIBUJOS
 62
     7
100
AcDb2dPolyline
 66
     1
 10
0.0
 20
0.0
 30
0.0
  0
VERTEX
  5
5B
330
5A
100
AcDbEntity
  8
DIBUJOS
 62
     7
100
AcDbVertex
100
AcDb2dVertex
 10
26.24362655694385
 20
51.89889894879526
 30
0.0
  0
VERTEX
  5
5C
330
5A
100
AcDbEntity
  8
DIBUJOS
 62
     7
100
AcDbVertex
100
AcDb2dVertex
 10
26.23786062961242
 20
51.89889894879526
 30
0.0
  0
SEQEND
  5
5D
330
5A
100
AcDbEntity
  8
DIBUJOS
 62
     7
  0
POLYLINE
  5
5E
330
52
100
AcDbEntity
  8
DIBUJOS
 62
     7
100
AcDb2dPolyline
 66
     1
 10
0.0
 20
0.0
 30
0.0
  0
VERTEX
  5
5F
330
5E
100
AcDbEntity
  8
DIBUJOS
 62
     7
100
AcDbVertex
100
AcDb2dVertex
 10
26.23786062961242
 20
51.89313145965725
 30
0.0
  0
VERTEX
  5
60
330
5E
100
AcDbEntity
  8
DIBUJOS
 62
     7
100
AcDbVertex
100
AcDb2dVertex
 10
26.23786062961242
 20
51.89889894879526
 30
0.0
  0
SEQEND
  5
61
330
5E
100
AcDbEntity
  8
DIBUJOS
 62
     7
  0
POLYLINE
  5
62
330
52
100
AcDbEntity
  8
DIBUJOS
 62
     7
100
AcDb2dPolyline
 66
     1
 10
0.0
 20
0.0
 30
0.0
  0
VERTEX
  5
63
330
62
100
AcDbEntity
  8
DIBUJOS
 62
     7
100
AcDbVertex
100
AcDb2dVertex
 10
26.24362655694385
 20
51.88159958551916
 30
0.0
  0
VERTEX
  5
64
330
62
100
AcDbEntity
  8
DIBUJOS
 62
     7
100
AcDbVertex
100
AcDb2dVertex
 10
26.23786062961242
 20
51.89313145965725
 30
0.0
  0
SEQEND
  5
65
330
62
100
AcDbEntity
  8
DIBUJOS
 62
     7
  0
POLYLINE
  5
66
330
52
100
AcDbEntity
  8
DIBUJOS
 62
     7
100
AcDb2dPolyline
 66
     1
 10
0.0
 20
0.0
 30
0.0
  0
VERTEX
  5
67
330
66
100
AcDbEntity
  8
DIBUJOS
 62
     7
100
AcDbVertex
100
AcDb2dVertex
 10
22.69717460672216
 20
51.51830364430446
 30
0.0
  0
VERTEX
  5
68
330
66
100
AcDbEntity
  8
DIBUJOS
 62
     7
100
AcDbVertex
100
AcDb2dVertex
 10
22.71908823471442
 20
51.57077910387437
 30
0.0
  0
VERTEX
  5
69
330
66
100
AcDbEntity
  8
DIBUJOS
 62
     7
100
AcDbVertex
100
AcDb2dVertex
 10
22.78505727247808
 20
51.69603108811867
 30
0.0
  0
VERTEX
  5
6A
330
66
100
AcDbEntity
  8
DIBUJOS
 62
     7
100
AcDbVertex
100
AcDb2dVertex
 10
22.86440512413015
 20
51.80086715413812
 30
0.0
  0
SEQEND
  5
6B
330
66
100
AcDbEntity
  8
DIBUJOS
 62
     7
  0
POLYLINE
  5
6C
330
52
100
AcDbEntity
  8
DIBUJOS
 62
     7
100
AcDb2dPolyline
 66
     1
 10
0.0
 20
0.0
 30
0.0
  0
VERTEX
  5
6D
330
6C
100
AcDbEntity
  8
DIBUJOS
 62
     7
100
AcDbVertex
100
AcDb2dVertex
 10
26.49159092145669
 20
51.50100428102837
 30
0.0
  0
VERTEX
  5
6E
330
6C
100
AcDbEntity
  8
DIBUJOS
 62
     7
100
AcDbVertex
100
AcDb2dVertex
 10
26.46737092253198
 20
51.5638599793917
 30
0.0
  0
VERTEX
  5
6F
330
6C
100
AcDbEntity
  8
DIBUJOS
 62
     7
100
AcDbVertex
100
AcDb2dVertex
 10
26.40624433248696
 20
51.68611026180792
 30
0.0
  0
VERTEX
  5
70
330
6C
100
AcDbEntity
  8
DIBUJOS
 62
     7
100
AcDbVertex
100
AcDb2dVertex
 10
26.32435885198213
 20
51.79509966500011
 30
0.0
  0
SEQEND
  5
71
330
6C
100
AcDbEntity
  8
DIBUJOS
 62
     7
  0
POLYLINE
  5
72
330
52
100
AcDbEntity
  8
DIBUJOS
 62
     7
100
AcDb2dPolyline
 66
     1
 10
0.0
 20
0.0
 30
0.0
  0
VERTEX
  5
73
330
72
100
AcDbEntity
  8
DIBUJOS
 62
     7
100
AcDbVertex
100
AcDb2dVertex
 10
22.68564119999308
 20
51.48946930275171
 30
0.0
  0
VERTEX
  5
74
330
72
100
AcDbEntity
  8
DIBUJOS
 62
     7
100
AcDbVertex
100
AcDb2dVertex
 10
22.69140867939074
 20
51.50100428102837
 30
0.0
  0
SEQEND
  5
75
330
72
100
AcDbEntity
  8
DIBUJOS
 62
     7
  0
POLYLINE
  5
76
330
52
100
AcDbEntity
  8
DIBUJOS
 62
     7
100
AcDb2dPolyline
 66
     1
 10
0.0
 20
0.0
 30
0.0
  0
VERTEX
  5
77
330
76
100
AcDbEntity
  8
DIBUJOS
 62
     7
100
AcDbVertex
100
AcDb2dVertex
 10
22.67987527266166
 20
51.4664024503376
 30
0.0
  0
VERTEX
  5
78
330
76
100
AcDbEntity
  8
DIBUJOS
 62
     7
100
AcDbVertex
100
AcDb2dVertex
 10
22.67987527266166
 20
51.47793742861394
 30
0.0
  0
SEQEND
  5
79
330
76
100
AcDbEntity
  8
DIBUJOS
 62
     7
  0
POLYLINE
  5
7A
330
52
100
AcDbEntity
  8
DIBUJOS
 62
     7
100
AcDb2dPolyline
 66
     1
 10
0.0
 20
0.0
 30
0.0
  0
VERTEX
  5
7B
330
7A
100
AcDbEntity
  8
DIBUJOS
 62
     7
100
AcDbVertex
100
AcDb2dVertex
 10
26.50312432818609
 20
51.4664024503376
 30
0.0
  0
VERTEX
  5
7C
330
7A
100
AcDbEntity
  8
DIBUJOS
 62
     7
100
AcDbVertex
100
AcDb2dVertex
 10
26.49735684878811
 20
51.48946930275171
 30
0.0
  0
SEQEND
  5
7D
330
7A
100
AcDbEntity
  8
DIBUJOS
 62
     7
  0
POLYLINE
  5
7E
330
52
100
AcDbEntity
  8
DIBUJOS
 62
     7
100
AcDb2dPolyline
 66
     1
 10
0.0
 20
0.0
 30
0.0
  0
VERTEX
  5
7F
330
7E
100
AcDbEntity
  8
DIBUJOS
 62
     7
100
AcDbVertex
100
AcDb2dVertex
 10
22.67410779326368
 20
51.44910308706118
 30
0.0
  0
VERTEX
  5
80
330
7E
100
AcDbEntity
  8
DIBUJOS
 62
     7
100
AcDbVertex
100
AcDb2dVertex
 10
22.67410779326368
 20
51.45487057619951
 30
0.0
  0
SEQEND
  5
81
330
7E
100
AcDbEntity
  8
DIBUJOS
 62
     7
  0
POLYLINE
  5
82
330
52
100
AcDbEntity
  8
DIBUJOS
 62
     7
100
AcDb2dPolyline
 66
     1
 10
0.0
 20
0.0
 30
0.0
  0
VERTEX
  5
83
330
82
100
AcDbEntity
  8
DIBUJOS
 62
     7
100
AcDbVertex
100
AcDb2dVertex
 10
26.51465618284893
 20
51.43757121292342
 30
0.0
  0
VERTEX
  5
84
330
82
100
AcDbEntity
  8
DIBUJOS
 62
     7
100
AcDbVertex
100
AcDb2dVertex
 10
26.51465618284893
 20
51.44333559792317
 30
0.0
  0
SEQEND
  5
85
330
82
100
AcDbEntity
  8
DIBUJOS
 62
     7
  0
POLYLINE
  5
86
330
52
100
AcDbEntity
  8
DIBUJOS
 62
     7
100
AcDb2dPolyline
 66
     1
 10
0.0
 20
0.0
 30
0.0
  0
VERTEX
  5
87
330
86
100
AcDbEntity
  8
DIBUJOS
 62
     7
100
AcDbVertex
100
AcDb2dVertex
 10
22.66834186593226
 20
51.43180372378509
 30
0.0
  0
VERTEX
  5
88
330
86
100
AcDbEntity
  8
DIBUJOS
 62
     7
100
AcDbVertex
100
AcDb2dVertex
 10
22.66834186593226
 20
51.43757121292342
 30
0.0
  0
SEQEND
  5
89
330
86
100
AcDbEntity
  8
DIBUJOS
 62
     7
  0
POLYLINE
  5
8A
330
52
100
AcDbEntity
  8
DIBUJOS
 62
     7
100
AcDb2dPolyline
 66
     1
 10
0.0
 20
0.0
 30
0.0
  0
VERTEX
  5
8B
330
8A
100
AcDbEntity
  8
DIBUJOS
 62
     7
100
AcDbVertex
100
AcDb2dVertex
 10
26.52042366224659
 20
51.42027184964732
 30
0.0
  0
VERTEX
  5
8C
330
8A
100
AcDbEntity
  8
DIBUJOS
 62
     7
100
AcDbVertex
100
AcDb2dVertex
 10
26.52042366224659
 20
51.42603623464708
 30
0.0
  0
SEQEND
  5
8D
330
8A
100
AcDbEntity
  8
DIBUJOS
 62
     7
  0
POLYLINE
  5
8E
330
52
100
AcDbEntity
  8
DIBUJOS
 62
     7
100
AcDb2dPolyline
 66
     1
 10
0.0
 20
0.0
 30
0.0
  0
VERTEX
  5
8F
330
8E
100
AcDbEntity
  8
DIBUJOS
 62
     7
100
AcDbVertex
100
AcDb2dVertex
 10
22.66257438653428
 20
51.41450436050899
 30
0.0
  0
VERTEX
  5
90
330
8E
100
AcDbEntity
  8
DIBUJOS
 62
     7
100
AcDbVertex
100
AcDb2dVertex
 10
22.66257438653428
 20
51.42027184964732
 30
0.0
  0
SEQEND
  5
91
330
8E
100
AcDbEntity
  8
DIBUJOS
 62
     7
  0
POLYLINE
  5
92
330
52
100
AcDbEntity
  8
DIBUJOS
 62
     7
100
AcDb2dPolyline
 66
     1
 10
0.0
 20
0.0
 30
0.0
  0
VERTEX
  5
93
330
92
100
AcDbEntity
  8
DIBUJOS
 62
     7
100
AcDbVertex
100
AcDb2dVertex
 10
26.52618958957801
 20
51.3972049972329
 30
0.0
  0
VERTEX
  5
94
330
92
100
AcDbEntity
  8
DIBUJOS
 62
     7
100
AcDbVertex
100
AcDb2dVertex
 10
26.52618958957801
 20
51.40873687137098
 30
0.0
  0
SEQEND
  5
95
330
92
100
AcDbEntity
  8
DIBUJOS
 62
     7
  0
POLYLINE
  5
96
330
52
100
AcDbEntity
  8
DIBUJOS
 62
     7
100
AcDb2dPolyline
 66
     1
 10
0.0
 20
0.0
 30
0.0
  0
VERTEX
  5
97
330
96
100
AcDbEntity
  8
DIBUJOS
 62
     7
100
AcDbVertex
100
AcDb2dVertex
 10
26.6472880321356
 20
50.88397606739387
 30
0.0
  0
VERTEX
  5
98
330
96
100
AcDbEntity
  8
DIBUJOS
 62
     7
100
AcDbVertex
100
AcDb2dVertex
 10
26.62200486760599
 20
51.0161658009513
 30
0.0
  0
VERTEX
  5
99
330
96
100
AcDbEntity
  8
DIBUJOS
 62
     7
100
AcDbVertex
100
AcDb2dVertex
 10
26.55298757108629
 20
51.30442850887859
 30
0.0
  0
VERTEX
  5
9A
330
96
100
AcDbEntity
  8
DIBUJOS
 62
     7
100
AcDbVertex
100
AcDb2dVertex
 10
26.53195706897599
 20
51.38567001895656
 30
0.0
  0
SEQEND
  5
9B
330
96
100
AcDbEntity
  8
DIBUJOS
 62
     7
  0
POLYLINE
  5
9C
330
52
100
AcDbEntity
  8
DIBUJOS
 62
     7
100
AcDb2dPolyline
 66
     1
 10
0.0
 20
0.0
 30
0.0
  0
VERTEX
  5
9D
330
9C
100
AcDbEntity
  8
DIBUJOS
 62
     7
100
AcDbVertex
100
AcDb2dVertex
 10
22.52417660991619
 20
50.81477861428917
 30
0.0
  0
VERTEX
  5
9E
330
9C
100
AcDbEntity
  8
DIBUJOS
 62
     7
100
AcDbVertex
100
AcDb2dVertex
 10
22.55655892696638
 20
50.98821924297982
 30
0.0
  0
VERTEX
  5
9F
330
9C
100
AcDbEntity
  8
DIBUJOS
 62
     7
100
AcDbVertex
100
AcDb2dVertex
 10
22.61817286591664
 20
51.25822961714362
 30
0.0
  0
VERTEX
  5
A0
330
9C
100
AcDbEntity
  8
DIBUJOS
 62
     7
100
AcDbVertex
100
AcDb2dVertex
 10
22.65104097980488
 20
51.38567001895656
 30
0.0
  0
SEQEND
  5
A1
330
9C
100
AcDbEntity
  8
DIBUJOS
 62
     7
  0
POLYLINE
  5
A2
330
52
100
AcDbEntity
  8
DIBUJOS
 62
     7
100
AcDb2dPolyline
 66
     1
 10
0.0
 20
0.0
 30
0.0
  0
VERTEX
  5
A3
330
A2
100
AcDbEntity
  8
DIBUJOS
 62
     7
100
AcDbVertex
100
AcDb2dVertex
 10
26.65882143886468
 20
50.80901112515116
 30
0.0
  0
VERTEX
  5
A4
330
A2
100
AcDbEntity
  8
DIBUJOS
 62
     7
100
AcDbVertex
100
AcDb2dVertex
 10
26.65305551153358
 20
50.86090921497977
 30
0.0
  0
SEQEND
  5
A5
330
A2
100
AcDbEntity
  8
DIBUJOS
 62
     7
  0
POLYLINE
  5
A6
330
52
100
AcDbEntity
  8
DIBUJOS
 62
     7
100
AcDb2dPolyline
 66
     1
 10
0.0
 20
0.0
 30
0.0
  0
VERTEX
  5
A7
330
A6
100
AcDbEntity
  8
DIBUJOS
 62
     7
100
AcDbVertex
100
AcDb2dVertex
 10
22.5126432031871
 20
50.76864490946064
 30
0.0
  0
VERTEX
  5
A8
330
A6
100
AcDbEntity
  8
DIBUJOS
 62
     7
100
AcDbVertex
100
AcDb2dVertex
 10
22.51841068258508
 20
50.77441239859865
 30
0.0
  0
VERTEX
  5
A9
330
A6
100
AcDbEntity
  8
DIBUJOS
 62
     7
100
AcDbVertex
100
AcDb2dVertex
 10
22.51841068258508
 20
50.80324363601315
 30
0.0
  0
SEQEND
  5
AA
330
A6
100
AcDbEntity
  8
DIBUJOS
 62
     7
  0
POLYLINE
  5
AB
330
52
100
AcDbEntity
  8
DIBUJOS
 62
     7
100
AcDb2dPolyline
 66
     1
 10
0.0
 20
0.0
 30
0.0
  0
VERTEX
  5
AC
330
AB
100
AcDbEntity
  8
DIBUJOS
 62
     7
100
AcDbVertex
100
AcDb2dVertex
 10
22.5126432031871
 20
50.73981367204645
 30
0.0
  0
VERTEX
  5
AD
330
AB
100
AcDbEntity
  8
DIBUJOS
 62
     7
100
AcDbVertex
100
AcDb2dVertex
 10
22.5126432031871
 20
50.75711303532255
 30
0.0
  0
SEQEND
  5
AE
330
AB
100
AcDbEntity
  8
DIBUJOS
 62
     7
  0
POLYLINE
  5
AF
330
52
100
AcDbEntity
  8
DIBUJOS
 62
     7
100
AcDb2dPolyline
 66
     1
 10
0.0
 20
0.0
 30
0.0
  0
VERTEX
  5
B0
330
AF
100
AcDbEntity
  8
DIBUJOS
 62
     7
100
AcDbVertex
100
AcDb2dVertex
 10
26.6761207729255
 20
50.73981367204645
 30
0.0
  0
VERTEX
  5
B1
330
AF
100
AcDbEntity
  8
DIBUJOS
 62
     7
100
AcDbVertex
100
AcDb2dVertex
 10
26.66680682140035
 20
50.77485629038945
 30
0.0
  0
VERTEX
  5
B2
330
AF
100
AcDbEntity
  8
DIBUJOS
 62
     7
100
AcDbVertex
100
AcDb2dVertex
 10
26.66458736619611
 20
50.79747925101307
 30
0.0
  0
SEQEND
  5
B3
330
AF
100
AcDbEntity
  8
DIBUJOS
 62
     7
  0
POLYLINE
  5
B4
330
52
100
AcDbEntity
  8
DIBUJOS
 62
     7
100
AcDb2dPolyline
 66
     1
 10
0.0
 20
0.0
 30
0.0
  0
VERTEX
  5
B5
330
B4
100
AcDbEntity
  8
DIBUJOS
 62
     7
100
AcDbVertex
100
AcDb2dVertex
 10
22.50687727585568
 20
50.7109793304937
 30
0.0
  0
VERTEX
  5
B6
330
B4
100
AcDbEntity
  8
DIBUJOS
 62
     7
100
AcDbVertex
100
AcDb2dVertex
 10
22.50687727585568
 20
50.72827869377011
 30
0.0
  0
SEQEND
  5
B7
330
B4
100
AcDbEntity
  8
DIBUJOS
 62
     7
  0
POLYLINE
  5
B8
330
52
100
AcDbEntity
  8
DIBUJOS
 62
     7
100
AcDb2dPolyline
 66
     1
 10
0.0
 20
0.0
 30
0.0
  0
VERTEX
  5
B9
330
B8
100
AcDbEntity
  8
DIBUJOS
 62
     7
100
AcDbVertex
100
AcDb2dVertex
 10
26.68188825232316
 20
50.70521184135569
 30
0.0
  0
VERTEX
  5
BA
330
B8
100
AcDbEntity
  8
DIBUJOS
 62
     7
100
AcDbVertex
100
AcDb2dVertex
 10
26.6761207729255
 20
50.71674681963235
 30
0.0
  0
SEQEND
  5
BB
330
B8
100
AcDbEntity
  8
DIBUJOS
 62
     7
  0
POLYLINE
  5
BC
330
52
100
AcDbEntity
  8
DIBUJOS
 62
     7
100
AcDb2dPolyline
 66
     1
 10
0.0
 20
0.0
 30
0.0
  0
VERTEX
  5
BD
330
BC
100
AcDbEntity
  8
DIBUJOS
 62
     7
100
AcDbVertex
100
AcDb2dVertex
 10
22.5011097964577
 20
50.68214498894126
 30
0.0
  0
VERTEX
  5
BE
330
BC
100
AcDbEntity
  8
DIBUJOS
 62
     7
100
AcDbVertex
100
AcDb2dVertex
 10
22.5011097964577
 20
50.6936799672176
 30
0.0
  0
SEQEND
  5
BF
330
BC
100
AcDbEntity
  8
DIBUJOS
 62
     7
  0
POLYLINE
  5
C0
330
52
100
AcDbEntity
  8
DIBUJOS
 62
     7
100
AcDb2dPolyline
 66
     1
 10
0.0
 20
0.0
 30
0.0
  0
VERTEX
  5
C1
330
C0
100
AcDbEntity
  8
DIBUJOS
 62
     7
100
AcDbVertex
100
AcDb2dVertex
 10
26.68765417965491
 20
50.67061311480349
 30
0.0
  0
VERTEX
  5
C2
330
C0
100
AcDbEntity
  8
DIBUJOS
 62
     7
100
AcDbVertex
100
AcDb2dVertex
 10
26.68188825232316
 20
50.6763806039415
 30
0.0
  0
VERTEX
  5
C3
330
C0
100
AcDbEntity
  8
DIBUJOS
 62
     7
100
AcDbVertex
100
AcDb2dVertex
 10
26.68188825232316
 20
50.6936799672176
 30
0.0
  0
SEQEND
  5
C4
330
C0
100
AcDbEntity
  8
DIBUJOS
 62
     7
  0
POLYLINE
  5
C5
330
52
100
AcDbEntity
  8
DIBUJOS
 62
     7
100
AcDb2dPolyline
 66
     1
 10
0.0
 20
0.0
 30
0.0
  0
VERTEX
  5
C6
330
C5
100
AcDbEntity
  8
DIBUJOS
 62
     7
100
AcDbVertex
100
AcDb2dVertex
 10
22.49534386912628
 20
50.66484562566517
 30
0.0
  0
VERTEX
  5
C7
330
C5
100
AcDbEntity
  8
DIBUJOS
 62
     7
100
AcDbVertex
100
AcDb2dVertex
 10
22.49534386912628
 20
50.67061311480349
 30
0.0
  0
SEQEND
  5
C8
330
C5
100
AcDbEntity
  8
DIBUJOS
 62
     7
  0
POLYLINE
  5
C9
330
52
100
AcDbEntity
  8
DIBUJOS
 62
     7
100
AcDb2dPolyline
 66
     1
 10
0.0
 20
0.0
 30
0.0
  0
VERTEX
  5
CA
330
C9
100
AcDbEntity
  8
DIBUJOS
 62
     7
100
AcDbVertex
100
AcDb2dVertex
 10
26.68765417965491
 20
50.6533137515274
 30
0.0
  0
VERTEX
  5
CB
330
C9
100
AcDbEntity
  8
DIBUJOS
 62
     7
100
AcDbVertex
100
AcDb2dVertex
 10
26.68765417965491
 20
50.65907813652716
 30
0.0
  0
SEQEND
  5
CC
330
C9
100
AcDbEntity
  8
DIBUJOS
 62
     7
  0
POLYLINE
  5
CD
330
52
100
AcDbEntity
  8
DIBUJOS
 62
     7
100
AcDb2dPolyline
 66
     1
 10
0.0
 20
0.0
 30
0.0
  0
VERTEX
  5
CE
330
CD
100
AcDbEntity
  8
DIBUJOS
 62
     7
100
AcDbVertex
100
AcDb2dVertex
 10
22.49534386912628
 20
50.64177877325106
 30
0.0
  0
VERTEX
  5
CF
330
CD
100
AcDbEntity
  8
DIBUJOS
 62
     7
100
AcDbVertex
100
AcDb2dVertex
 10
22.49534386912628
 20
50.6533137515274
 30
0.0
  0
SEQEND
  5
D0
330
CD
100
AcDbEntity
  8
DIBUJOS
 62
     7
  0
POLYLINE
  5
D1
330
52
100
AcDbEntity
  8
DIBUJOS
 62
     7
100
AcDb2dPolyline
 66
     1
 10
0.0
 20
0.0
 30
0.0
  0
VERTEX
  5
D2
330
D1
100
AcDbEntity
  8
DIBUJOS
 62
     7
100
AcDbVertex
100
AcDb2dVertex
 10
22.48957794179486
 20
50.60141255756022
 30
0.0
  0
VERTEX
  5
D3
330
D1
100
AcDbEntity
  8
DIBUJOS
 62
     7
100
AcDbVertex
100
AcDb2dVertex
 10
22.48957794179486
 20
50.60718004669823
 30
0.0
  0
SEQEND
  5
D4
330
D1
100
AcDbEntity
  8
DIBUJOS
 62
     7
  0
POLYLINE
  5
D5
330
52
100
AcDbEntity
  8
DIBUJOS
 62
     7
100
AcDb2dPolyline
 66
     1
 10
0.0
 20
0.0
 30
0.0
  0
VERTEX
  5
D6
330
D5
100
AcDbEntity
  8
DIBUJOS
 62
     7
100
AcDbVertex
100
AcDb2dVertex
 10
22.48381046239688
 20
50.57258132014604
 30
0.0
  0
VERTEX
  5
D7
330
D5
100
AcDbEntity
  8
DIBUJOS
 62
     7
100
AcDbVertex
100
AcDb2dVertex
 10
22.48381046239688
 20
50.57834880928436
 30
0.0
  0
SEQEND
  5
D8
330
D5
100
AcDbEntity
  8
DIBUJOS
 62
     7
  0
POLYLINE
  5
D9
330
52
100
AcDbEntity
  8
DIBUJOS
 62
     7
100
AcDb2dPolyline
 66
     1
 10
0.0
 20
0.0
 30
0.0
  0
VERTEX
  5
DA
330
D9
100
AcDbEntity
  8
DIBUJOS
 62
     7
100
AcDbVertex
100
AcDb2dVertex
 10
26.70495351371541
 20
50.53221510445584
 30
0.0
  0
VERTEX
  5
DB
330
D9
100
AcDbEntity
  8
DIBUJOS
 62
     7
100
AcDbVertex
100
AcDb2dVertex
 10
26.70495351371541
 20
50.53798259359384
 30
0.0
  0
SEQEND
  5
DC
330
D9
100
AcDbEntity
  8
DIBUJOS
 62
     7
  0
POLYLINE
  5
DD
330
52
100
AcDbEntity
  8
DIBUJOS
 62
     7
100
AcDb2dPolyline
 66
     1
 10
0.0
 20
0.0
 30
0.0
  0
VERTEX
  5
DE
330
DD
100
AcDbEntity
  8
DIBUJOS
 62
     7
100
AcDbVertex
100
AcDb2dVertex
 10
26.71072099311339
 20
50.49761327376475
 30
0.0
  0
VERTEX
  5
DF
330
DD
100
AcDbEntity
  8
DIBUJOS
 62
     7
100
AcDbVertex
100
AcDb2dVertex
 10
26.71072099311339
 20
50.50338076290308
 30
0.0
  0
SEQEND
  5
E0
330
DD
100
AcDbEntity
  8
DIBUJOS
 62
     7
  0
POLYLINE
  5
E1
330
52
100
AcDbEntity
  8
DIBUJOS
 62
     7
100
AcDb2dPolyline
 66
     1
 10
0.0
 20
0.0
 30
0.0
  0
VERTEX
  5
E2
330
E1
100
AcDbEntity
  8
DIBUJOS
 62
     7
100
AcDbVertex
100
AcDb2dVertex
 10
26.71072099311339
 20
50.48031391048865
 30
0.0
  0
VERTEX
  5
E3
330
E1
100
AcDbEntity
  8
DIBUJOS
 62
     7
100
AcDbVertex
100
AcDb2dVertex
 10
26.71072099311339
 20
50.48608139962698
 30
0.0
  0
SEQEND
  5
E4
330
E1
100
AcDbEntity
  8
DIBUJOS
 62
     7
  0
POLYLINE
  5
E5
330
52
100
AcDbEntity
  8
DIBUJOS
 62
     7
100
AcDb2dPolyline
 66
     1
 10
0.0
 20
0.0
 30
0.0
  0
VERTEX
  5
E6
330
E5
100
AcDbEntity
  8
DIBUJOS
 62
     7
100
AcDbVertex
100
AcDb2dVertex
 10
22.46651112833638
 20
50.45148267307479
 30
0.0
  0
VERTEX
  5
E7
330
E5
100
AcDbEntity
  8
DIBUJOS
 62
     7
100
AcDbVertex
100
AcDb2dVertex
 10
22.46651112833638
 20
50.45725016221279
 30
0.0
  0
SEQEND
  5
E8
330
E5
100
AcDbEntity
  8
DIBUJOS
 62
     7
  0
POLYLINE
  5
E9
330
52
100
AcDbEntity
  8
DIBUJOS
 62
     7
100
AcDb2dPolyline
 66
     1
 10
0.0
 20
0.0
 30
0.0
  0
VERTEX
  5
EA
330
E9
100
AcDbEntity
  8
DIBUJOS
 62
     7
100
AcDbVertex
100
AcDb2dVertex
 10
22.4549777216073
 20
50.35345087841733
 30
0.0
  0
VERTEX
  5
EB
330
E9
100
AcDbEntity
  8
DIBUJOS
 62
     7
100
AcDbVertex
100
AcDb2dVertex
 10
22.4549777216073
 20
50.35921526341676
 30
0.0
  0
SEQEND
  5
EC
330
E9
100
AcDbEntity
  8
DIBUJOS
 62
     7
  0
POLYLINE
  5
ED
330
52
100
AcDbEntity
  8
DIBUJOS
 62
     7
100
AcDb2dPolyline
 66
     1
 10
0.0
 20
0.0
 30
0.0
  0
VERTEX
  5
EE
330
ED
100
AcDbEntity
  8
DIBUJOS
 62
     7
100
AcDbVertex
100
AcDb2dVertex
 10
26.72802032717389
 20
50.35345087841733
 30
0.0
  0
VERTEX
  5
EF
330
ED
100
AcDbEntity
  8
DIBUJOS
 62
     7
100
AcDbVertex
100
AcDb2dVertex
 10
26.72802032717389
 20
50.35921526341676
 30
0.0
  0
SEQEND
  5
F0
330
ED
100
AcDbEntity
  8
DIBUJOS
 62
     7
  0
POLYLINE
  5
F1
330
52
100
AcDbEntity
  8
DIBUJOS
 62
     7
100
AcDb2dPolyline
 66
     1
 10
0.0
 20
0.0
 30
0.0
  0
VERTEX
  5
F2
330
F1
100
AcDbEntity
  8
DIBUJOS
 62
     7
100
AcDbVertex
100
AcDb2dVertex
 10
26.81452010161016
 20
48.56003802475762
 30
0.0
  0
VERTEX
  5
F3
330
F1
100
AcDbEntity
  8
DIBUJOS
 62
     7
100
AcDbVertex
100
AcDb2dVertex
 10
26.78874958817531
 20
49.03273932370946
 30
0.0
  0
VERTEX
  5
F4
330
F1
100
AcDbEntity
  8
DIBUJOS
 62
     7
100
AcDbVertex
100
AcDb2dVertex
 10
26.7421782784836
 20
49.71357620619469
 30
0.0
  0
VERTEX
  5
F5
330
F1
100
AcDbEntity
  8
DIBUJOS
 62
     7
100
AcDbVertex
100
AcDb2dVertex
 10
26.71391825026058
 20
50.02449602026795
 30
0.0
  0
VERTEX
  5
F6
330
F1
100
AcDbEntity
  8
DIBUJOS
 62
     7
100
AcDbVertex
100
AcDb2dVertex
 10
26.66124421479056
 20
50.48066157398892
 30
0.0
  0
VERTEX
  5
F7
330
F1
100
AcDbEntity
  8
DIBUJOS
 62
     7
100
AcDbVertex
100
AcDb2dVertex
 10
26.6390993288783
 20
50.63566672475071
 30
0.0
  0
VERTEX
  5
F8
330
F1
100
AcDbEntity
  8
DIBUJOS
 62
     7
100
AcDbVertex
100
AcDb2dVertex
 10
26.57587124068903
 20
50.98733145939887
 30
0.0
  0
VERTEX
  5
F9
330
F1
100
AcDbEntity
  8
DIBUJOS
 62
     7
100
AcDbVertex
100
AcDb2dVertex
 10
26.55857190662821
 20
51.07383137991824
 30
0.0
  0
VERTEX
  5
FA
330
F1
100
AcDbEntity
  8
DIBUJOS
 62
     7
100
AcDbVertex
100
AcDb2dVertex
 10
26.48178806896038
 20
51.38047989955984
 30
0.0
  0
VERTEX
  5
FB
330
F1
100
AcDbEntity
  8
DIBUJOS
 62
     7
100
AcDbVertex
100
AcDb2dVertex
 10
26.45295377610391
 20
51.46697982007889
 30
0.0
  0
VERTEX
  5
FC
330
F1
100
AcDbEntity
  8
DIBUJOS
 62
     7
100
AcDbVertex
100
AcDb2dVertex
 10
26.40047840515554
 20
51.60537783042687
 30
0.0
  0
VERTEX
  5
FD
330
F1
100
AcDbEntity
  8
DIBUJOS
 62
     7
100
AcDbVertex
100
AcDb2dVertex
 10
26.36587818496766
 20
51.66881089853182
 30
0.0
  0
VERTEX
  5
FE
330
F1
100
AcDbEntity
  8
DIBUJOS
 62
     7
100
AcDbVertex
100
AcDb2dVertex
 10
26.28399270446315
 20
51.78933217586178
 30
0.0
  0
VERTEX
  5
FF
330
F1
100
AcDbEntity
  8
DIBUJOS
 62
     7
100
AcDbVertex
100
AcDb2dVertex
 10
26.18596107536404
 20
51.88736397051892
 30
0.0
  0
VERTEX
  5
100
330
F1
100
AcDbEntity
  8
DIBUJOS
 62
     7
100
AcDbVertex
100
AcDb2dVertex
 10
26.1274078117026
 20
51.92640161497625
 30
0.0
  0
VERTEX
  5
101
330
F1
100
AcDbEntity
  8
DIBUJOS
 62
     7
100
AcDbVertex
100
AcDb2dVertex
 10
26.12310548315281
 20
51.92888492569266
 30
0.0
  0
VERTEX
  5
102
330
F1
100
AcDbEntity
  8
DIBUJOS
 62
     7
100
AcDbVertex
100
AcDb2dVertex
 10
25.98355452106849
 20
51.98943424922813
 30
0.0
  0
VERTEX
  5
103
330
F1
100
AcDbEntity
  8
DIBUJOS
 62
     7
100
AcDbVertex
100
AcDb2dVertex
 10
25.97317429980563
 20
51.9928953635389
 30
0.0
  0
VERTEX
  5
104
330
F1
100
AcDbEntity
  8
DIBUJOS
 62
     7
100
AcDbVertex
100
AcDb2dVertex
 10
25.8971882243578
 20
52.01201375191466
 30
0.0
  0
VERTEX
  5
105
330
F1
100
AcDbEntity
  8
DIBUJOS
 62
     7
100
AcDbVertex
100
AcDb2dVertex
 10
25.87456530193997
 20
52.01423010672882
 30
0.0
  0
SEQEND
  5
106
330
F1
100
AcDbEntity
  8
DIBUJOS
 62
     7
  0
POLYLINE
  5
107
330
52
100
AcDbEntity
  8
DIBUJOS
 62
     7
100
AcDb2dPolyline
 66
     1
 10
0.0
 20
0.0
 30
0.0
  0
VERTEX
  5
108
330
107
100
AcDbEntity
  8
DIBUJOS
 62
     7
100
AcDbVertex
100
AcDb2dVertex
 10
22.36847949923759
 20
48.53120368320518
 30
0.0
  0
VERTEX
  5
109
330
107
100
AcDbEntity
  8
DIBUJOS
 62
     7
100
AcDbVertex
100
AcDb2dVertex
 10
22.37164571505362
 20
48.54297457599968
 30
0.0
  0
VERTEX
  5
10A
330
107
100
AcDbEntity
  8
DIBUJOS
 62
     7
100
AcDbVertex
100
AcDb2dVertex
 10
22.39458836318588
 20
48.9350086304766
 30
0.0
  0
VERTEX
  5
10B
330
107
100
AcDbEntity
  8
DIBUJOS
 62
     7
100
AcDbVertex
100
AcDb2dVertex
 10
22.40003611686911
 20
49.03852233353999
 30
0.0
  0
VERTEX
  5
10C
330
107
100
AcDbEntity
  8
DIBUJOS
 62
     7
100
AcDbVertex
100
AcDb2dVertex
 10
22.44606885945885
 20
49.71313852268071
 30
0.0
  0
VERTEX
  5
10D
330
107
100
AcDbEntity
  8
DIBUJOS
 62
     7
100
AcDbVertex
100
AcDb2dVertex
 10
22.47484727791827
 20
50.03026350940628
 30
0.0
  0
VERTEX
  5
10E
330
107
100
AcDbEntity
  8
DIBUJOS
 62
     7
100
AcDbVertex
100
AcDb2dVertex
 10
22.52659938584206
 20
50.47996935112663
 30
0.0
  0
VERTEX
  5
10F
330
107
100
AcDbEntity
  8
DIBUJOS
 62
     7
100
AcDbVertex
100
AcDb2dVertex
 10
22.54966464723399
 20
50.64143421388905
 30
0.0
  0
VERTEX
  5
110
330
107
100
AcDbEntity
  8
DIBUJOS
 62
     7
100
AcDbVertex
100
AcDb2dVertex
 10
22.60712680809248
 20
50.96426460698444
 30
0.0
  0
VERTEX
  5
111
330
107
100
AcDbEntity
  8
DIBUJOS
 62
     7
100
AcDbVertex
100
AcDb2dVertex
 10
22.63019362155096
 20
51.07959886905625
 30
0.0
  0
VERTEX
  5
112
330
107
100
AcDbEntity
  8
DIBUJOS
 62
     7
100
AcDbVertex
100
AcDb2dVertex
 10
22.70497684540176
 20
51.37939655525987
 30
0.0
  0
VERTEX
  5
113
330
107
100
AcDbEntity
  8
DIBUJOS
 62
     7
100
AcDbVertex
100
AcDb2dVertex
 10
22.72773790174483
 20
51.4485257173199
 30
0.0
  0
VERTEX
  5
114
330
107
100
AcDbEntity
  8
DIBUJOS
 62
     7
100
AcDbVertex
100
AcDb2dVertex
 10
22.79059349395607
 20
51.61575806921999
 30
0.0
  0
VERTEX
  5
115
330
107
100
AcDbEntity
  8
DIBUJOS
 62
     7
100
AcDbVertex
100
AcDb2dVertex
 10
22.81942623474597
 20
51.66765926318717
 30
0.0
  0
VERTEX
  5
116
330
107
100
AcDbEntity
  8
DIBUJOS
 62
     7
100
AcDbVertex
100
AcDb2dVertex
 10
22.90477127164914
 20
51.79509966500011
 30
0.0
  0
VERTEX
  5
117
330
107
100
AcDbEntity
  8
DIBUJOS
 62
     7
100
AcDbVertex
100
AcDb2dVertex
 10
22.99703697341715
 20
51.88736397051892
 30
0.0
  0
VERTEX
  5
118
330
107
100
AcDbEntity
  8
DIBUJOS
 62
     7
100
AcDbVertex
100
AcDb2dVertex
 10
23.06681323049258
 20
51.93234604000312
 30
0.0
  0
VERTEX
  5
119
330
107
100
AcDbEntity
  8
DIBUJOS
 62
     7
100
AcDbVertex
100
AcDb2dVertex
 10
23.07142597235746
 20
51.93465241483067
 30
0.0
  0
VERTEX
  5
11A
330
107
100
AcDbEntity
  8
DIBUJOS
 62
     7
100
AcDbVertex
100
AcDb2dVertex
 10
23.18207745478925
 20
51.98336255452759
 30
0.0
  0
VERTEX
  5
11B
330
107
100
AcDbEntity
  8
DIBUJOS
 62
     7
100
AcDbVertex
100
AcDb2dVertex
 10
23.19835863317566
 20
51.98743207996343
 30
0.0
  0
VERTEX
  5
11C
330
107
100
AcDbEntity
  8
DIBUJOS
 62
     7
100
AcDbVertex
100
AcDb2dVertex
 10
23.28580982442339
 20
52.01201375191466
 30
0.0
  0
VERTEX
  5
11D
330
107
100
AcDbEntity
  8
DIBUJOS
 62
     7
100
AcDbVertex
100
AcDb2dVertex
 10
23.30843274684089
 20
52.01423010672882
 30
0.0
  0
SEQEND
  5
11E
330
107
100
AcDbEntity
  8
DIBUJOS
 62
     7
  0
POLYLINE
  5
11F
330
52
100
AcDbEntity
  8
DIBUJOS
 62
     7
100
AcDb2dPolyline
 66
     1
 10
0.0
 20
0.0
 30
0.0
  0
VERTEX
  5
120
330
11F
100
AcDbEntity
  8
DIBUJOS
 62
     7
100
AcDbVertex
100
AcDb2dVertex
 10
26.81452010161016
 20
48.53120368320518
 30
0.0
  0
VERTEX
  5
121
330
11F
100
AcDbEntity
  8
DIBUJOS
 62
     7
100
AcDbVertex
100
AcDb2dVertex
 10
26.81452010161016
 20
48.54273866148152
 30
0.0
  0
VERTEX
  5
122
330
11F
100
AcDbEntity
  8
DIBUJOS
 62
     7
100
AcDbVertex
100
AcDb2dVertex
 10
26.80875262221218
 20
48.54850304648128
 30
0.0
  0
SEQEND
  5
123
330
11F
100
AcDbEntity
  8
DIBUJOS
 62
     7
  0
POLYLINE
  5
124
330
52
100
AcDbEntity
  8
DIBUJOS
 62
     7
100
AcDb2dPolyline
 66
     1
 10
0.0
 20
0.0
 30
0.0
  0
VERTEX
  5
125
330
124
100
AcDbEntity
  8
DIBUJOS
 62
     7
100
AcDbVertex
100
AcDb2dVertex
 10
22.36847949923759
 20
48.51390431992908
 30
0.0
  0
VERTEX
  5
126
330
124
100
AcDbEntity
  8
DIBUJOS
 62
     7
100
AcDbVertex
100
AcDb2dVertex
 10
22.36847949923759
 20
48.51967180906741
 30
0.0
  0
SEQEND
  5
127
330
124
100
AcDbEntity
  8
DIBUJOS
 62
     7
  0
POLYLINE
  5
128
330
52
100
AcDbEntity
  8
DIBUJOS
 62
     7
100
AcDb2dPolyline
 66
     1
 10
0.0
 20
0.0
 30
0.0
  0
VERTEX
  5
129
330
128
100
AcDbEntity
  8
DIBUJOS
 62
     7
100
AcDbVertex
100
AcDb2dVertex
 10
22.36847949923759
 20
48.43317188854804
 30
0.0
  0
VERTEX
  5
12A
330
128
100
AcDbEntity
  8
DIBUJOS
 62
     7
100
AcDbVertex
100
AcDb2dVertex
 10
22.36847949923759
 20
48.46777061510024
 30
0.0
  0
SEQEND
  5
12B
330
128
100
AcDbEntity
  8
DIBUJOS
 62
     7
  0
POLYLINE
  5
12C
330
52
100
AcDbEntity
  8
DIBUJOS
 62
     7
100
AcDb2dPolyline
 66
     1
 10
0.0
 20
0.0
 30
0.0
  0
VERTEX
  5
12D
330
12C
100
AcDbEntity
  8
DIBUJOS
 62
     7
100
AcDbVertex
100
AcDb2dVertex
 10
26.81452010161016
 20
48.43317188854804
 30
0.0
  0
VERTEX
  5
12E
330
12C
100
AcDbEntity
  8
DIBUJOS
 62
     7
100
AcDbVertex
100
AcDb2dVertex
 10
26.81452010161016
 20
48.47930559337689
 30
0.0
  0
SEQEND
  5
12F
330
12C
100
AcDbEntity
  8
DIBUJOS
 62
     7
  0
POLYLINE
  5
130
330
52
100
AcDbEntity
  8
DIBUJOS
 62
     7
100
AcDb2dPolyline
 66
     1
 10
0.0
 20
0.0
 30
0.0
  0
VERTEX
  5
131
330
130
100
AcDbEntity
  8
DIBUJOS
 62
     7
100
AcDbVertex
100
AcDb2dVertex
 10
26.84911876973116
 20
48.27747451492396
 30
0.0
  0
VERTEX
  5
132
330
130
100
AcDbEntity
  8
DIBUJOS
 62
     7
100
AcDbVertex
100
AcDb2dVertex
 10
26.7966433987831
 20
48.30515411699381
 30
0.0
  0
VERTEX
  5
133
330
130
100
AcDbEntity
  8
DIBUJOS
 62
     7
100
AcDbVertex
100
AcDb2dVertex
 10
26.65831236102764
 20
48.35617063151796
 30
0.0
  0
VERTEX
  5
134
330
130
100
AcDbEntity
  8
DIBUJOS
 62
     7
100
AcDbVertex
100
AcDb2dVertex
 10
26.60173177398487
 20
48.3714709296676
 30
0.0
  0
VERTEX
  5
135
330
130
100
AcDbEntity
  8
DIBUJOS
 62
     7
100
AcDbVertex
100
AcDb2dVertex
 10
26.50277821733953
 20
48.3961519340473
 30
0.0
  0
VERTEX
  5
136
330
130
100
AcDbEntity
  8
DIBUJOS
 62
     7
100
AcDbVertex
100
AcDb2dVertex
 10
26.31820335594022
 20
48.42506698319838
 30
0.0
  0
VERTEX
  5
137
330
130
100
AcDbEntity
  8
DIBUJOS
 62
     7
100
AcDbVertex
100
AcDb2dVertex
 10
26.0473273846266
 20
48.4536405771257
 30
0.0
  0
VERTEX
  5
138
330
130
100
AcDbEntity
  8
DIBUJOS
 62
     7
100
AcDbVertex
100
AcDb2dVertex
 10
25.99013373128581
 20
48.45883690479891
 30
0.0
  0
VERTEX
  5
139
330
130
100
AcDbEntity
  8
DIBUJOS
 62
     7
100
AcDbVertex
100
AcDb2dVertex
 10
25.60348445783816
 20
48.47647461916053
 30
0.0
  0
VERTEX
  5
13A
330
130
100
AcDbEntity
  8
DIBUJOS
 62
     7
100
AcDbVertex
100
AcDb2dVertex
 10
25.28060649588174
 20
48.48507308251522
 30
0.0
  0
VERTEX
  5
13B
330
130
100
AcDbEntity
  8
DIBUJOS
 62
     7
100
AcDbVertex
100
AcDb2dVertex
 10
23.90811091823317
 20
48.48213967173182
 30
0.0
  0
VERTEX
  5
13C
330
130
100
AcDbEntity
  8
DIBUJOS
 62
     7
100
AcDbVertex
100
AcDb2dVertex
 10
23.56797708008051
 20
48.47647151502196
 30
0.0
  0
VERTEX
  5
13D
330
130
100
AcDbEntity
  8
DIBUJOS
 62
     7
100
AcDbVertex
100
AcDb2dVertex
 10
23.19286431749505
 20
48.45883690479891
 30
0.0
  0
VERTEX
  5
13E
330
130
100
AcDbEntity
  8
DIBUJOS
 62
     7
100
AcDbVertex
100
AcDb2dVertex
 10
23.13567221622115
 20
48.4536405771257
 30
0.0
  0
VERTEX
  5
13F
330
130
100
AcDbEntity
  8
DIBUJOS
 62
     7
100
AcDbVertex
100
AcDb2dVertex
 10
22.85248214869026
 20
48.4239774306216
 30
0.0
  0
VERTEX
  5
140
330
130
100
AcDbEntity
  8
DIBUJOS
 62
     7
100
AcDbVertex
100
AcDb2dVertex
 10
22.68021983144165
 20
48.3961519340473
 30
0.0
  0
VERTEX
  5
141
330
130
100
AcDbEntity
  8
DIBUJOS
 62
     7
100
AcDbVertex
100
AcDb2dVertex
 10
22.56505183527253
 20
48.3677056097943
 30
0.0
  0
VERTEX
  5
142
330
130
100
AcDbEntity
  8
DIBUJOS
 62
     7
100
AcDbVertex
100
AcDb2dVertex
 10
22.51790160474772
 20
48.35447577195404
 30
0.0
  0
VERTEX
  5
143
330
130
100
AcDbEntity
  8
DIBUJOS
 62
     7
100
AcDbVertex
100
AcDb2dVertex
 10
22.38635464999808
 20
48.30515411699381
 30
0.0
  0
VERTEX
  5
144
330
130
100
AcDbEntity
  8
DIBUJOS
 62
     7
100
AcDbVertex
100
AcDb2dVertex
 10
22.33964520638113
 20
48.28324200406197
 30
0.0
  0
SEQEND
  5
145
330
130
100
AcDbEntity
  8
DIBUJOS
 62
     7
  0
POLYLINE
  5
146
330
52
100
AcDbEntity
  8
DIBUJOS
 62
     7
100
AcDb2dPolyline
 66
     1
 10
0.0
 20
0.0
 30
0.0
  0
VERTEX
  5
147
330
146
100
AcDbEntity
  8
DIBUJOS
 62
     7
100
AcDbVertex
100
AcDb2dVertex
 10
26.87795151052138
 20
48.25440766250986
 30
0.0
  0
VERTEX
  5
148
330
146
100
AcDbEntity
  8
DIBUJOS
 62
     7
100
AcDbVertex
100
AcDb2dVertex
 10
26.87218558318996
 20
48.26017515164786
 30
0.0
  0
SEQEND
  5
149
330
146
100
AcDbEntity
  8
DIBUJOS
 62
     7
  0
POLYLINE
  5
14A
330
52
100
AcDbEntity
  8
DIBUJOS
 62
     7
100
AcDb2dPolyline
 66
     1
 10
0.0
 20
0.0
 30
0.0
  0
VERTEX
  5
14B
330
14A
100
AcDbEntity
  8
DIBUJOS
 62
     7
100
AcDbVertex
100
AcDb2dVertex
 10
22.27044631807192
 20
48.21404144681933
 30
0.0
  0
VERTEX
  5
14C
330
14A
100
AcDbEntity
  8
DIBUJOS
 62
     7
100
AcDbVertex
100
AcDb2dVertex
 10
22.2762137974699
 20
48.21980893595767
 30
0.0
  0
VERTEX
  5
14D
330
14A
100
AcDbEntity
  8
DIBUJOS
 62
     7
100
AcDbVertex
100
AcDb2dVertex
 10
22.2762137974699
 20
48.23134081009543
 30
0.0
  0
SEQEND
  5
14E
330
14A
100
AcDbEntity
  8
DIBUJOS
 62
     7
  0
POLYLINE
  5
14F
330
52
100
AcDbEntity
  8
DIBUJOS
 62
     7
100
AcDb2dPolyline
 66
     1
 10
0.0
 20
0.0
 30
0.0
  0
VERTEX
  5
150
330
14F
100
AcDbEntity
  8
DIBUJOS
 62
     7
100
AcDbVertex
100
AcDb2dVertex
 10
26.91255173070894
 20
48.21404144681933
 30
0.0
  0
VERTEX
  5
151
330
14F
100
AcDbEntity
  8
DIBUJOS
 62
     7
100
AcDbVertex
100
AcDb2dVertex
 10
26.90101832397986
 20
48.23710829923376
 30
0.0
  0
SEQEND
  5
152
330
14F
100
AcDbEntity
  8
DIBUJOS
 62
     7
  0
POLYLINE
  5
153
330
52
100
AcDbEntity
  8
DIBUJOS
 62
     7
100
AcDb2dPolyline
 66
     1
 10
0.0
 20
0.0
 30
0.0
  0
VERTEX
  5
154
330
153
100
AcDbEntity
  8
DIBUJOS
 62
     7
100
AcDbVertex
100
AcDb2dVertex
 10
22.68564119999308
 20
47.52781578008014
 30
0.0
  0
VERTEX
  5
155
330
153
100
AcDbEntity
  8
DIBUJOS
 62
     7
100
AcDbVertex
100
AcDb2dVertex
 10
22.36271201983961
 20
47.53934920628735
 30
0.0
  0
VERTEX
  5
156
330
153
100
AcDbEntity
  8
DIBUJOS
 62
     7
100
AcDbVertex
100
AcDb2dVertex
 10
22.35117861311021
 20
47.52781578008014
 30
0.0
  0
VERTEX
  5
157
330
153
100
AcDbEntity
  8
DIBUJOS
 62
     7
100
AcDbVertex
100
AcDb2dVertex
 10
22.32811335171829
 20
47.52781578008014
 30
0.0
  0
VERTEX
  5
158
330
153
100
AcDbEntity
  8
DIBUJOS
 62
     7
100
AcDbVertex
100
AcDb2dVertex
 10
22.29985642762838
 20
47.54626988283945
 30
0.0
  0
VERTEX
  5
159
330
153
100
AcDbEntity
  8
DIBUJOS
 62
     7
100
AcDbVertex
100
AcDb2dVertex
 10
22.25891291134284
 20
47.56818199577098
 30
0.0
  0
VERTEX
  5
15A
330
153
100
AcDbEntity
  8
DIBUJOS
 62
     7
100
AcDbVertex
100
AcDb2dVertex
 10
22.2577597258763
 20
47.57337211516737
 30
0.0
  0
VERTEX
  5
15B
330
153
100
AcDbEntity
  8
DIBUJOS
 62
     7
100
AcDbVertex
100
AcDb2dVertex
 10
22.24994972686391
 20
47.59150493960283
 30
0.0
  0
VERTEX
  5
15C
330
153
100
AcDbEntity
  8
DIBUJOS
 62
     7
100
AcDbVertex
100
AcDb2dVertex
 10
22.24481083442953
 20
47.64289084659627
 30
0.0
  0
VERTEX
  5
15D
330
153
100
AcDbEntity
  8
DIBUJOS
 62
     7
100
AcDbVertex
100
AcDb2dVertex
 10
22.24161357728202
 20
47.64891442715202
 30
0.0
  0
VERTEX
  5
15E
330
153
100
AcDbEntity
  8
DIBUJOS
 62
     7
100
AcDbVertex
100
AcDb2dVertex
 10
22.24161357728202
 20
47.9718441526762
 30
0.0
  0
VERTEX
  5
15F
330
153
100
AcDbEntity
  8
DIBUJOS
 62
     7
100
AcDbVertex
100
AcDb2dVertex
 10
22.25593139144943
 20
48.42154689025831
 30
0.0
  0
VERTEX
  5
160
330
153
100
AcDbEntity
  8
DIBUJOS
 62
     7
100
AcDbVertex
100
AcDb2dVertex
 10
22.29045090417535
 20
49.10770426595249
 30
0.0
  0
VERTEX
  5
161
330
153
100
AcDbEntity
  8
DIBUJOS
 62
     7
100
AcDbVertex
100
AcDb2dVertex
 10
22.3077254051706
 20
49.38448166181768
 30
0.0
  0
VERTEX
  5
162
330
153
100
AcDbEntity
  8
DIBUJOS
 62
     7
100
AcDbVertex
100
AcDb2dVertex
 10
22.35374883536068
 20
49.93799920388714
 30
0.0
  0
VERTEX
  5
163
330
153
100
AcDbEntity
  8
DIBUJOS
 62
     7
100
AcDbVertex
100
AcDb2dVertex
 10
22.37107921075298
 20
50.11678205475579
 30
0.0
  0
VERTEX
  5
164
330
153
100
AcDbEntity
  8
DIBUJOS
 62
     7
100
AcDbVertex
100
AcDb2dVertex
 10
22.4179562775601
 20
50.49796093726501
 30
0.0
  0
VERTEX
  5
165
330
153
100
AcDbEntity
  8
DIBUJOS
 62
     7
100
AcDbVertex
100
AcDb2dVertex
 10
22.4803819473297
 20
50.8893524350942
 30
0.0
  0
VERTEX
  5
166
330
153
100
AcDbEntity
  8
DIBUJOS
 62
     7
100
AcDbVertex
100
AcDb2dVertex
 10
22.55504566205427
 20
51.22946356663556
 30
0.0
  0
VERTEX
  5
167
330
153
100
AcDbEntity
  8
DIBUJOS
 62
     7
100
AcDbVertex
100
AcDb2dVertex
 10
22.56081158938569
 20
51.2525304190503
 30
0.0
  0
VERTEX
  5
168
330
153
100
AcDbEntity
  8
DIBUJOS
 62
     7
100
AcDbVertex
100
AcDb2dVertex
 10
22.61240538651866
 20
51.43122635404347
 30
0.0
  0
VERTEX
  5
169
330
153
100
AcDbEntity
  8
DIBUJOS
 62
     7
100
AcDbVertex
100
AcDb2dVertex
 10
22.61440755240225
 20
51.43808029162034
 30
0.0
  0
VERTEX
  5
16A
330
153
100
AcDbEntity
  8
DIBUJOS
 62
     7
100
AcDbVertex
100
AcDb2dVertex
 10
22.66430494076705
 20
51.57539185352979
 30
0.0
  0
VERTEX
  5
16B
330
153
100
AcDbEntity
  8
DIBUJOS
 62
     7
100
AcDbVertex
100
AcDb2dVertex
 10
22.69602142125594
 20
51.63421217197931
 30
0.0
  0
VERTEX
  5
16C
330
153
100
AcDbEntity
  8
DIBUJOS
 62
     7
100
AcDbVertex
100
AcDb2dVertex
 10
22.7216243115003
 20
51.67872862070432
 30
0.0
  0
VERTEX
  5
16D
330
153
100
AcDbEntity
  8
DIBUJOS
 62
     7
100
AcDbVertex
100
AcDb2dVertex
 10
22.73615631085525
 20
51.69810465256663
 30
0.0
  0
VERTEX
  5
16E
330
153
100
AcDbEntity
  8
DIBUJOS
 62
     7
100
AcDbVertex
100
AcDb2dVertex
 10
22.82980645600883
 20
51.8123990282762
 30
0.0
  0
VERTEX
  5
16F
330
153
100
AcDbEntity
  8
DIBUJOS
 62
     7
100
AcDbVertex
100
AcDb2dVertex
 10
22.87593853085956
 20
51.85853273310474
 30
0.0
  0
VERTEX
  5
170
330
153
100
AcDbEntity
  8
DIBUJOS
 62
     7
100
AcDbVertex
100
AcDb2dVertex
 10
23.07142597235746
 20
51.96925114138319
 30
0.0
  0
VERTEX
  5
171
330
153
100
AcDbEntity
  8
DIBUJOS
 62
     7
100
AcDbVertex
100
AcDb2dVertex
 10
23.10602619254534
 20
51.98655050465928
 30
0.0
  0
VERTEX
  5
172
330
153
100
AcDbEntity
  8
DIBUJOS
 62
     7
100
AcDbVertex
100
AcDb2dVertex
 10
23.21667612291057
 20
52.02372877021811
 30
0.0
  0
VERTEX
  5
173
330
153
100
AcDbEntity
  8
DIBUJOS
 62
     7
100
AcDbVertex
100
AcDb2dVertex
 10
23.23295885336354
 20
52.02779829565395
 30
0.0
  0
VERTEX
  5
174
330
153
100
AcDbEntity
  8
DIBUJOS
 62
     7
100
AcDbVertex
100
AcDb2dVertex
 10
23.30266681950979
 20
52.04306444828125
 30
0.0
  0
VERTEX
  5
175
330
153
100
AcDbEntity
  8
DIBUJOS
 62
     7
100
AcDbVertex
100
AcDb2dVertex
 10
24.30028710075946
 20
52.04306444828125
 30
0.0
  0
VERTEX
  5
176
330
153
100
AcDbEntity
  8
DIBUJOS
 62
     7
100
AcDbVertex
100
AcDb2dVertex
 10
24.3118189554223
 20
52.03729695914324
 30
0.0
  0
VERTEX
  5
177
330
153
100
AcDbEntity
  8
DIBUJOS
 62
     7
100
AcDbVertex
100
AcDb2dVertex
 10
24.31758643481996
 20
52.04306444828125
 30
0.0
  0
VERTEX
  5
178
330
153
100
AcDbEntity
  8
DIBUJOS
 62
     7
100
AcDbVertex
100
AcDb2dVertex
 10
24.39255125046027
 20
52.04306444828125
 30
0.0
  0
VERTEX
  5
179
330
153
100
AcDbEntity
  8
DIBUJOS
 62
     7
100
AcDbVertex
100
AcDb2dVertex
 10
24.39831872985825
 20
52.03729695914324
 30
0.0
  0
VERTEX
  5
17A
330
153
100
AcDbEntity
  8
DIBUJOS
 62
     7
100
AcDbVertex
100
AcDb2dVertex
 10
24.42138554331673
 20
52.03729695914324
 30
0.0
  0
VERTEX
  5
17B
330
153
100
AcDbEntity
  8
DIBUJOS
 62
     7
100
AcDbVertex
100
AcDb2dVertex
 10
24.42715147064815
 20
52.04306444828125
 30
0.0
  0
VERTEX
  5
17C
330
153
100
AcDbEntity
  8
DIBUJOS
 62
     7
100
AcDbVertex
100
AcDb2dVertex
 10
24.43868487737755
 20
52.03729695914324
 30
0.0
  0
VERTEX
  5
17D
330
153
100
AcDbEntity
  8
DIBUJOS
 62
     7
100
AcDbVertex
100
AcDb2dVertex
 10
24.45598421143805
 20
52.03729695914324
 30
0.0
  0
VERTEX
  5
17E
330
153
100
AcDbEntity
  8
DIBUJOS
 62
     7
100
AcDbVertex
100
AcDb2dVertex
 10
24.46175169083603
 20
52.04306444828125
 30
0.0
  0
VERTEX
  5
17F
330
153
100
AcDbEntity
  8
DIBUJOS
 62
     7
100
AcDbVertex
100
AcDb2dVertex
 10
24.47328354549855
 20
52.03729695914324
 30
0.0
  0
VERTEX
  5
180
330
153
100
AcDbEntity
  8
DIBUJOS
 62
     7
100
AcDbVertex
100
AcDb2dVertex
 10
24.57131672666422
 20
52.03729695914324
 30
0.0
  0
VERTEX
  5
181
330
153
100
AcDbEntity
  8
DIBUJOS
 62
     7
100
AcDbVertex
100
AcDb2dVertex
 10
24.57708265399564
 20
52.04306444828125
 30
0.0
  0
VERTEX
  5
182
330
153
100
AcDbEntity
  8
DIBUJOS
 62
     7
100
AcDbVertex
100
AcDb2dVertex
 10
24.58861606072504
 20
52.03729695914324
 30
0.0
  0
VERTEX
  5
183
330
153
100
AcDbEntity
  8
DIBUJOS
 62
     7
100
AcDbVertex
100
AcDb2dVertex
 10
24.62321472884605
 20
52.04306444828125
 30
0.0
  0
VERTEX
  5
184
330
153
100
AcDbEntity
  8
DIBUJOS
 62
     7
100
AcDbVertex
100
AcDb2dVertex
 10
24.62898220824403
 20
52.03729695914324
 30
0.0
  0
VERTEX
  5
185
330
153
100
AcDbEntity
  8
DIBUJOS
 62
     7
100
AcDbVertex
100
AcDb2dVertex
 10
24.70971450328231
 20
52.03729695914324
 30
0.0
  0
VERTEX
  5
186
330
153
100
AcDbEntity
  8
DIBUJOS
 62
     7
100
AcDbVertex
100
AcDb2dVertex
 10
24.72124791001172
 20
52.04306444828125
 30
0.0
  0
VERTEX
  5
187
330
153
100
AcDbEntity
  8
DIBUJOS
 62
     7
100
AcDbVertex
100
AcDb2dVertex
 10
24.72701383734282
 20
52.03729695914324
 30
0.0
  0
VERTEX
  5
188
330
153
100
AcDbEntity
  8
DIBUJOS
 62
     7
100
AcDbVertex
100
AcDb2dVertex
 10
24.89424435475081
 20
52.04306444828125
 30
0.0
  0
VERTEX
  5
189
330
153
100
AcDbEntity
  8
DIBUJOS
 62
     7
100
AcDbVertex
100
AcDb2dVertex
 10
24.90001183414879
 20
52.03729695914324
 30
0.0
  0
VERTEX
  5
18A
330
153
100
AcDbEntity
  8
DIBUJOS
 62
     7
100
AcDbVertex
100
AcDb2dVertex
 10
24.91154524087819
 20
52.03729695914324
 30
0.0
  0
VERTEX
  5
18B
330
153
100
AcDbEntity
  8
DIBUJOS
 62
     7
100
AcDbVertex
100
AcDb2dVertex
 10
24.91731116820929
 20
52.04306444828125
 30
0.0
  0
VERTEX
  5
18C
330
153
100
AcDbEntity
  8
DIBUJOS
 62
     7
100
AcDbVertex
100
AcDb2dVertex
 10
25.88033122927172
 20
52.04306444828125
 30
0.0
  0
VERTEX
  5
18D
330
153
100
AcDbEntity
  8
DIBUJOS
 62
     7
100
AcDbVertex
100
AcDb2dVertex
 10
26.00085385512899
 20
52.01307847138416
 30
0.0
  0
VERTEX
  5
18E
330
153
100
AcDbEntity
  8
DIBUJOS
 62
     7
100
AcDbVertex
100
AcDb2dVertex
 10
26.0700527434382
 20
51.98943424922813
 30
0.0
  0
VERTEX
  5
18F
330
153
100
AcDbEntity
  8
DIBUJOS
 62
     7
100
AcDbVertex
100
AcDb2dVertex
 10
26.17961777926639
 20
51.93234604000312
 30
0.0
  0
VERTEX
  5
190
330
153
100
AcDbEntity
  8
DIBUJOS
 62
     7
100
AcDbVertex
100
AcDb2dVertex
 10
26.23209470228132
 20
51.89889894879526
 30
0.0
  0
SEQEND
  5
191
330
153
100
AcDbEntity
  8
DIBUJOS
 62
     7
  0
POLYLINE
  5
192
330
52
100
AcDbEntity
  8
DIBUJOS
 62
     7
100
AcDb2dPolyline
 66
     1
 10
0.0
 20
0.0
 30
0.0
  0
VERTEX
  5
193
330
192
100
AcDbEntity
  8
DIBUJOS
 62
     7
100
AcDbVertex
100
AcDb2dVertex
 10
22.69140867939074
 20
47.52781578008014
 30
0.0
  0
VERTEX
  5
194
330
192
100
AcDbEntity
  8
DIBUJOS
 62
     7
100
AcDbVertex
100
AcDb2dVertex
 10
22.68564119999308
 20
47.52781578008014
 30
0.0
  0
SEQEND
  5
195
330
192
100
AcDbEntity
  8
DIBUJOS
 62
     7
  0
POLYLINE
  5
196
330
52
100
AcDbEntity
  8
DIBUJOS
 62
     7
100
AcDb2dPolyline
 66
     1
 10
0.0
 20
0.0
 30
0.0
  0
VERTEX
  5
197
330
196
100
AcDbEntity
  8
DIBUJOS
 62
     7
100
AcDbVertex
100
AcDb2dVertex
 10
23.07200334112401
 20
47.52781578008014
 30
0.0
  0
VERTEX
  5
198
330
196
100
AcDbEntity
  8
DIBUJOS
 62
     7
100
AcDbVertex
100
AcDb2dVertex
 10
23.06623586172603
 20
47.53358326921814
 30
0.0
  0
VERTEX
  5
199
330
196
100
AcDbEntity
  8
DIBUJOS
 62
     7
100
AcDbVertex
100
AcDb2dVertex
 10
22.69717460672216
 20
47.53358326921814
 30
0.0
  0
VERTEX
  5
19A
330
196
100
AcDbEntity
  8
DIBUJOS
 62
     7
100
AcDbVertex
100
AcDb2dVertex
 10
22.69140867939074
 20
47.52781578008014
 30
0.0
  0
SEQEND
  5
19B
330
196
100
AcDbEntity
  8
DIBUJOS
 62
     7
  0
POLYLINE
  5
19C
330
52
100
AcDbEntity
  8
DIBUJOS
 62
     7
100
AcDb2dPolyline
 66
     1
 10
0.0
 20
0.0
 30
0.0
  0
VERTEX
  5
19D
330
19C
100
AcDbEntity
  8
DIBUJOS
 62
     7
100
AcDbVertex
100
AcDb2dVertex
 10
23.07776926845511
 20
47.52781578008014
 30
0.0
  0
VERTEX
  5
19E
330
19C
100
AcDbEntity
  8
DIBUJOS
 62
     7
100
AcDbVertex
100
AcDb2dVertex
 10
23.07200334112401
 20
47.52781578008014
 30
0.0
  0
SEQEND
  5
19F
330
19C
100
AcDbEntity
  8
DIBUJOS
 62
     7
  0
POLYLINE
  5
1A0
330
52
100
AcDbEntity
  8
DIBUJOS
 62
     7
100
AcDb2dPolyline
 66
     1
 10
0.0
 20
0.0
 30
0.0
  0
VERTEX
  5
1A1
330
1A0
100
AcDbEntity
  8
DIBUJOS
 62
     7
100
AcDbVertex
100
AcDb2dVertex
 10
23.2277004518026
 20
47.52781578008014
 30
0.0
  0
VERTEX
  5
1A2
330
1A0
100
AcDbEntity
  8
DIBUJOS
 62
     7
100
AcDbVertex
100
AcDb2dVertex
 10
23.22193452447118
 20
47.53358326921814
 30
0.0
  0
VERTEX
  5
1A3
330
1A0
100
AcDbEntity
  8
DIBUJOS
 62
     7
100
AcDbVertex
100
AcDb2dVertex
 10
23.08353674785309
 20
47.53358326921814
 30
0.0
  0
VERTEX
  5
1A4
330
1A0
100
AcDbEntity
  8
DIBUJOS
 62
     7
100
AcDbVertex
100
AcDb2dVertex
 10
23.07776926845511
 20
47.52781578008014
 30
0.0
  0
SEQEND
  5
1A5
330
1A0
100
AcDbEntity
  8
DIBUJOS
 62
     7
  0
POLYLINE
  5
1A6
330
52
100
AcDbEntity
  8
DIBUJOS
 62
     7
100
AcDb2dPolyline
 66
     1
 10
0.0
 20
0.0
 30
0.0
  0
VERTEX
  5
1A7
330
1A6
100
AcDbEntity
  8
DIBUJOS
 62
     7
100
AcDbVertex
100
AcDb2dVertex
 10
23.23346793120059
 20
47.52781578008014
 30
0.0
  0
VERTEX
  5
1A8
330
1A6
100
AcDbEntity
  8
DIBUJOS
 62
     7
100
AcDbVertex
100
AcDb2dVertex
 10
23.2277004518026
 20
47.52781578008014
 30
0.0
  0
SEQEND
  5
1A9
330
1A6
100
AcDbEntity
  8
DIBUJOS
 62
     7
  0
POLYLINE
  5
1AA
330
52
100
AcDbEntity
  8
DIBUJOS
 62
     7
100
AcDb2dPolyline
 66
     1
 10
0.0
 20
0.0
 30
0.0
  0
VERTEX
  5
1AB
330
1AA
100
AcDbEntity
  8
DIBUJOS
 62
     7
100
AcDbVertex
100
AcDb2dVertex
 10
23.23923385853201
 20
47.52781578008014
 30
0.0
  0
VERTEX
  5
1AC
330
1AA
100
AcDbEntity
  8
DIBUJOS
 62
     7
100
AcDbVertex
100
AcDb2dVertex
 10
23.23346793120059
 20
47.52781578008014
 30
0.0
  0
SEQEND
  5
1AD
330
1AA
100
AcDbEntity
  8
DIBUJOS
 62
     7
  0
POLYLINE
  5
1AE
330
52
100
AcDbEntity
  8
DIBUJOS
 62
     7
100
AcDb2dPolyline
 66
     1
 10
0.0
 20
0.0
 30
0.0
  0
VERTEX
  5
1AF
330
1AE
100
AcDbEntity
  8
DIBUJOS
 62
     7
100
AcDbVertex
100
AcDb2dVertex
 10
23.23923385853201
 20
47.52781578008014
 30
0.0
  0
VERTEX
  5
1B0
330
1AE
100
AcDbEntity
  8
DIBUJOS
 62
     7
100
AcDbVertex
100
AcDb2dVertex
 10
23.24499978586311
 20
47.53358326921814
 30
0.0
  0
VERTEX
  5
1B1
330
1AE
100
AcDbEntity
  8
DIBUJOS
 62
     7
100
AcDbVertex
100
AcDb2dVertex
 10
23.52756281849759
 20
47.53358326921814
 30
0.0
  0
SEQEND
  5
1B2
330
1AE
100
AcDbEntity
  8
DIBUJOS
 62
     7
  0
POLYLINE
  5
1B3
330
52
100
AcDbEntity
  8
DIBUJOS
 62
     7
100
AcDb2dPolyline
 66
     1
 10
0.0
 20
0.0
 30
0.0
  0
VERTEX
  5
1B4
330
1B3
100
AcDbEntity
  8
DIBUJOS
 62
     7
100
AcDbVertex
100
AcDb2dVertex
 10
23.62559599966294
 20
47.52781578008014
 30
0.0
  0
VERTEX
  5
1B5
330
1B3
100
AcDbEntity
  8
DIBUJOS
 62
     7
100
AcDbVertex
100
AcDb2dVertex
 10
23.62559599966294
 20
47.53358326921814
 30
0.0
  0
VERTEX
  5
1B6
330
1B3
100
AcDbEntity
  8
DIBUJOS
 62
     7
100
AcDbVertex
100
AcDb2dVertex
 10
23.63136192699436
 20
47.53358326921814
 30
0.0
  0
SEQEND
  5
1B7
330
1B3
100
AcDbEntity
  8
DIBUJOS
 62
     7
  0
POLYLINE
  5
1B8
330
52
100
AcDbEntity
  8
DIBUJOS
 62
     7
100
AcDb2dPolyline
 66
     1
 10
0.0
 20
0.0
 30
0.0
  0
VERTEX
  5
1B9
330
1B8
100
AcDbEntity
  8
DIBUJOS
 62
     7
100
AcDbVertex
100
AcDb2dVertex
 10
25.94376419024918
 20
47.52781578008014
 30
0.0
  0
VERTEX
  5
1BA
330
1B8
100
AcDbEntity
  8
DIBUJOS
 62
     7
100
AcDbVertex
100
AcDb2dVertex
 10
25.93799826291776
 20
47.53358326921814
 30
0.0
  0
VERTEX
  5
1BB
330
1B8
100
AcDbEntity
  8
DIBUJOS
 62
     7
100
AcDbVertex
100
AcDb2dVertex
 10
25.66120115761502
 20
47.53358326921814
 30
0.0
  0
SEQEND
  5
1BC
330
1B8
100
AcDbEntity
  8
DIBUJOS
 62
     7
  0
POLYLINE
  5
1BD
330
52
100
AcDbEntity
  8
DIBUJOS
 62
     7
100
AcDb2dPolyline
 66
     1
 10
0.0
 20
0.0
 30
0.0
  0
VERTEX
  5
1BE
330
1BD
100
AcDbEntity
  8
DIBUJOS
 62
     7
100
AcDbVertex
100
AcDb2dVertex
 10
25.94953166964716
 20
47.52781578008014
 30
0.0
  0
VERTEX
  5
1BF
330
1BD
100
AcDbEntity
  8
DIBUJOS
 62
     7
100
AcDbVertex
100
AcDb2dVertex
 10
25.94376419024918
 20
47.52781578008014
 30
0.0
  0
SEQEND
  5
1C0
330
1BD
100
AcDbEntity
  8
DIBUJOS
 62
     7
  0
POLYLINE
  5
1C1
330
52
100
AcDbEntity
  8
DIBUJOS
 62
     7
100
AcDb2dPolyline
 66
     1
 10
0.0
 20
0.0
 30
0.0
  0
VERTEX
  5
1C2
330
1C1
100
AcDbEntity
  8
DIBUJOS
 62
     7
100
AcDbVertex
100
AcDb2dVertex
 10
26.09946285299466
 20
47.52781578008014
 30
0.0
  0
VERTEX
  5
1C3
330
1C1
100
AcDbEntity
  8
DIBUJOS
 62
     7
100
AcDbVertex
100
AcDb2dVertex
 10
26.09369537359667
 20
47.53358326921814
 30
0.0
  0
VERTEX
  5
1C4
330
1C1
100
AcDbEntity
  8
DIBUJOS
 62
     7
100
AcDbVertex
100
AcDb2dVertex
 10
25.95529759697858
 20
47.53358326921814
 30
0.0
  0
VERTEX
  5
1C5
330
1C1
100
AcDbEntity
  8
DIBUJOS
 62
     7
100
AcDbVertex
100
AcDb2dVertex
 10
25.94953166964716
 20
47.52781578008014
 30
0.0
  0
SEQEND
  5
1C6
330
1C1
100
AcDbEntity
  8
DIBUJOS
 62
     7
  0
POLYLINE
  5
1C7
330
52
100
AcDbEntity
  8
DIBUJOS
 62
     7
100
AcDb2dPolyline
 66
     1
 10
0.0
 20
0.0
 30
0.0
  0
VERTEX
  5
1C8
330
1C7
100
AcDbEntity
  8
DIBUJOS
 62
     7
100
AcDbVertex
100
AcDb2dVertex
 10
26.10522878032575
 20
47.52781578008014
 30
0.0
  0
VERTEX
  5
1C9
330
1C7
100
AcDbEntity
  8
DIBUJOS
 62
     7
100
AcDbVertex
100
AcDb2dVertex
 10
26.09946285299466
 20
47.52781578008014
 30
0.0
  0
SEQEND
  5
1CA
330
1C7
100
AcDbEntity
  8
DIBUJOS
 62
     7
  0
POLYLINE
  5
1CB
330
52
100
AcDbEntity
  8
DIBUJOS
 62
     7
100
AcDb2dPolyline
 66
     1
 10
0.0
 20
0.0
 30
0.0
  0
VERTEX
  5
1CC
330
1CB
100
AcDbEntity
  8
DIBUJOS
 62
     7
100
AcDbVertex
100
AcDb2dVertex
 10
26.11099470765718
 20
47.52781578008014
 30
0.0
  0
VERTEX
  5
1CD
330
1CB
100
AcDbEntity
  8
DIBUJOS
 62
     7
100
AcDbVertex
100
AcDb2dVertex
 10
26.10522878032575
 20
47.52781578008014
 30
0.0
  0
SEQEND
  5
1CE
330
1CB
100
AcDbEntity
  8
DIBUJOS
 62
     7
  0
POLYLINE
  5
1CF
330
52
100
AcDbEntity
  8
DIBUJOS
 62
     7
100
AcDb2dPolyline
 66
     1
 10
0.0
 20
0.0
 30
0.0
  0
VERTEX
  5
1D0
330
1CF
100
AcDbEntity
  8
DIBUJOS
 62
     7
100
AcDbVertex
100
AcDb2dVertex
 10
26.49159092145669
 20
47.52781578008014
 30
0.0
  0
VERTEX
  5
1D1
330
1CF
100
AcDbEntity
  8
DIBUJOS
 62
     7
100
AcDbVertex
100
AcDb2dVertex
 10
26.48582344205871
 20
47.53358326921814
 30
0.0
  0
VERTEX
  5
1D2
330
1CF
100
AcDbEntity
  8
DIBUJOS
 62
     7
100
AcDbVertex
100
AcDb2dVertex
 10
26.11676218705515
 20
47.53358326921814
 30
0.0
  0
VERTEX
  5
1D3
330
1CF
100
AcDbEntity
  8
DIBUJOS
 62
     7
100
AcDbVertex
100
AcDb2dVertex
 10
26.11099470765718
 20
47.52781578008014
 30
0.0
  0
SEQEND
  5
1D4
330
1CF
100
AcDbEntity
  8
DIBUJOS
 62
     7
  0
POLYLINE
  5
1D5
330
52
100
AcDbEntity
  8
DIBUJOS
 62
     7
100
AcDb2dPolyline
 66
     1
 10
0.0
 20
0.0
 30
0.0
  0
VERTEX
  5
1D6
330
1D5
100
AcDbEntity
  8
DIBUJOS
 62
     7
100
AcDbVertex
100
AcDb2dVertex
 10
26.49735684878811
 20
47.52781578008014
 30
0.0
  0
VERTEX
  5
1D7
330
1D5
100
AcDbEntity
  8
DIBUJOS
 62
     7
100
AcDbVertex
100
AcDb2dVertex
 10
26.49159092145669
 20
47.52781578008014
 30
0.0
  0
SEQEND
  5
1D8
330
1D5
100
AcDbEntity
  8
DIBUJOS
 62
     7
  0
POLYLINE
  5
1D9
330
52
100
AcDbEntity
  8
DIBUJOS
 62
     7
100
AcDb2dPolyline
 66
     1
 10
0.0
 20
0.0
 30
0.0
  0
VERTEX
  5
1DA
330
1D9
100
AcDbEntity
  8
DIBUJOS
 62
     7
100
AcDbVertex
100
AcDb2dVertex
 10
26.49735684878811
 20
47.52781578008014
 30
0.0
  0
VERTEX
  5
1DB
330
1D9
100
AcDbEntity
  8
DIBUJOS
 62
     7
100
AcDbVertex
100
AcDb2dVertex
 10
26.50317865051625
 20
47.53075539914067
 30
0.0
  0
VERTEX
  5
1DC
330
1D9
100
AcDbEntity
  8
DIBUJOS
 62
     7
100
AcDbVertex
100
AcDb2dVertex
 10
26.82028602894158
 20
47.53934920628735
 30
0.0
  0
VERTEX
  5
1DD
330
1D9
100
AcDbEntity
  8
DIBUJOS
 62
     7
100
AcDbVertex
100
AcDb2dVertex
 10
26.83181943567066
 20
47.52781578008014
 30
0.0
  0
VERTEX
  5
1DE
330
1D9
100
AcDbEntity
  8
DIBUJOS
 62
     7
100
AcDbVertex
100
AcDb2dVertex
 10
26.85488624912914
 20
47.52781578008014
 30
0.0
  0
VERTEX
  5
1DF
330
1D9
100
AcDbEntity
  8
DIBUJOS
 62
     7
100
AcDbVertex
100
AcDb2dVertex
 10
26.88314162115281
 20
47.54626988283945
 30
0.0
  0
VERTEX
  5
1E0
330
1D9
100
AcDbEntity
  8
DIBUJOS
 62
     7
100
AcDbVertex
100
AcDb2dVertex
 10
26.89006228601701
 20
47.54915207533949
 30
0.0
  0
VERTEX
  5
1E1
330
1D9
100
AcDbEntity
  8
DIBUJOS
 62
     7
100
AcDbVertex
100
AcDb2dVertex
 10
26.91831765804037
 20
47.56241605870177
 30
0.0
  0
VERTEX
  5
1E2
330
1D9
100
AcDbEntity
  8
DIBUJOS
 62
     7
100
AcDbVertex
100
AcDb2dVertex
 10
26.93100425023599
 20
47.5791396043057
 30
0.0
  0
VERTEX
  5
1E3
330
1D9
100
AcDbEntity
  8
DIBUJOS
 62
     7
100
AcDbVertex
100
AcDb2dVertex
 10
26.94138447149885
 20
47.62008163766839
 30
0.0
  0
VERTEX
  5
1E4
330
1D9
100
AcDbEntity
  8
DIBUJOS
 62
     7
100
AcDbVertex
100
AcDb2dVertex
 10
26.94138447149885
 20
48.08717531060944
 30
0.0
  0
VERTEX
  5
1E5
330
1D9
100
AcDbEntity
  8
DIBUJOS
 62
     7
100
AcDbVertex
100
AcDb2dVertex
 10
26.93281085573105
 20
48.31200184629321
 30
0.0
  0
VERTEX
  5
1E6
330
1D9
100
AcDbEntity
  8
DIBUJOS
 62
     7
100
AcDbVertex
100
AcDb2dVertex
 10
26.8983146240035
 20
49.04427119784754
 30
0.0
  0
VERTEX
  5
1E7
330
1D9
100
AcDbEntity
  8
DIBUJOS
 62
     7
100
AcDbVertex
100
AcDb2dVertex
 10
26.89253628013962
 20
49.14807979405808
 30
0.0
  0
VERTEX
  5
1E8
330
1D9
100
AcDbEntity
  8
DIBUJOS
 62
     7
100
AcDbVertex
100
AcDb2dVertex
 10
26.84651905821609
 20
49.77078547681719
 30
0.0
  0
VERTEX
  5
1E9
330
1D9
100
AcDbEntity
  8
DIBUJOS
 62
     7
100
AcDbVertex
100
AcDb2dVertex
 10
26.82348328608877
 20
50.01872853112994
 30
0.0
  0
VERTEX
  5
1EA
330
1D9
100
AcDbEntity
  8
DIBUJOS
 62
     7
100
AcDbVertex
100
AcDb2dVertex
 10
26.77080925061875
 20
50.47489408485091
 30
0.0
  0
VERTEX
  5
1EB
330
1D9
100
AcDbEntity
  8
DIBUJOS
 62
     7
100
AcDbVertex
100
AcDb2dVertex
 10
26.74289843737539
 20
50.66450106630315
 30
0.0
  0
VERTEX
  5
1EC
330
1D9
100
AcDbEntity
  8
DIBUJOS
 62
     7
100
AcDbVertex
100
AcDb2dVertex
 10
26.6796703491858
 20
51.01039831181329
 30
0.0
  0
VERTEX
  5
1ED
330
1D9
100
AcDbEntity
  8
DIBUJOS
 62
     7
100
AcDbVertex
100
AcDb2dVertex
 10
26.6681369424564
 20
51.06806389077991
 30
0.0
  0
VERTEX
  5
1EE
330
1D9
100
AcDbEntity
  8
DIBUJOS
 62
     7
100
AcDbVertex
100
AcDb2dVertex
 10
26.59912119800358
 20
51.34479472456911
 30
0.0
  0
VERTEX
  5
1EF
330
1D9
100
AcDbEntity
  8
DIBUJOS
 62
     7
100
AcDbVertex
100
AcDb2dVertex
 10
26.59135310478824
 20
51.37471551456008
 30
0.0
  0
VERTEX
  5
1F0
330
1D9
100
AcDbEntity
  8
DIBUJOS
 62
     7
100
AcDbVertex
100
AcDb2dVertex
 10
26.51811729131415
 20
51.58058197292619
 30
0.0
  0
VERTEX
  5
1F1
330
1D9
100
AcDbEntity
  8
DIBUJOS
 62
     7
100
AcDbVertex
100
AcDb2dVertex
 10
26.47544322079585
 20
51.65727902439374
 30
0.0
  0
VERTEX
  5
1F2
330
1D9
100
AcDbEntity
  8
DIBUJOS
 62
     7
100
AcDbVertex
100
AcDb2dVertex
 10
26.41519044423343
 20
51.7419102535989
 30
0.0
  0
VERTEX
  5
1F3
330
1D9
100
AcDbEntity
  8
DIBUJOS
 62
     7
100
AcDbVertex
100
AcDb2dVertex
 10
26.30705951792163
 20
51.85853273310474
 30
0.0
  0
VERTEX
  5
1F4
330
1D9
100
AcDbEntity
  8
DIBUJOS
 62
     7
100
AcDbVertex
100
AcDb2dVertex
 10
26.25458414697326
 20
51.8919798243126
 30
0.0
  0
VERTEX
  5
1F5
330
1D9
100
AcDbEntity
  8
DIBUJOS
 62
     7
100
AcDbVertex
100
AcDb2dVertex
 10
26.24362655694385
 20
51.89889894879526
 30
0.0
  0
SEQEND
  5
1F6
330
1D9
100
AcDbEntity
  8
DIBUJOS
 62
     7
  0
POLYLINE
  5
1F7
330
52
100
AcDbEntity
  8
DIBUJOS
 62
     7
100
AcDb2dPolyline
 66
     1
 10
0.0
 20
0.0
 30
0.0
  0
VERTEX
  5
1F8
330
1F7
100
AcDbEntity
  8
DIBUJOS
 62
     7
100
AcDbVertex
100
AcDb2dVertex
 10
22.69140867939074
 20
47.52204984301125
 30
0.0
  0
VERTEX
  5
1F9
330
1F7
100
AcDbEntity
  8
DIBUJOS
 62
     7
100
AcDbVertex
100
AcDb2dVertex
 10
22.69140867939074
 20
47.52781578008014
 30
0.0
  0
SEQEND
  5
1FA
330
1F7
100
AcDbEntity
  8
DIBUJOS
 62
     7
  0
POLYLINE
  5
1FB
330
52
100
AcDbEntity
  8
DIBUJOS
 62
     7
100
AcDb2dPolyline
 66
     1
 10
0.0
 20
0.0
 30
0.0
  0
VERTEX
  5
1FC
330
1FB
100
AcDbEntity
  8
DIBUJOS
 62
     7
100
AcDbVertex
100
AcDb2dVertex
 10
23.07776926845511
 20
47.52204984301125
 30
0.0
  0
VERTEX
  5
1FD
330
1FB
100
AcDbEntity
  8
DIBUJOS
 62
     7
100
AcDbVertex
100
AcDb2dVertex
 10
23.07776926845511
 20
47.52781578008014
 30
0.0
  0
SEQEND
  5
1FE
330
1FB
100
AcDbEntity
  8
DIBUJOS
 62
     7
  0
POLYLINE
  5
1FF
330
52
100
AcDbEntity
  8
DIBUJOS
 62
     7
100
AcDb2dPolyline
 66
     1
 10
0.0
 20
0.0
 30
0.0
  0
VERTEX
  5
200
330
1FF
100
AcDbEntity
  8
DIBUJOS
 62
     7
100
AcDbVertex
100
AcDb2dVertex
 10
23.23346793120059
 20
47.52204984301125
 30
0.0
  0
VERTEX
  5
201
330
1FF
100
AcDbEntity
  8
DIBUJOS
 62
     7
100
AcDbVertex
100
AcDb2dVertex
 10
23.23346793120059
 20
47.52781578008014
 30
0.0
  0
SEQEND
  5
202
330
1FF
100
AcDbEntity
  8
DIBUJOS
 62
     7
  0
POLYLINE
  5
203
330
52
100
AcDbEntity
  8
DIBUJOS
 62
     7
100
AcDb2dPolyline
 66
     1
 10
0.0
 20
0.0
 30
0.0
  0
VERTEX
  5
204
330
203
100
AcDbEntity
  8
DIBUJOS
 62
     7
100
AcDbVertex
100
AcDb2dVertex
 10
25.94953166964716
 20
47.52204984301125
 30
0.0
  0
VERTEX
  5
205
330
203
100
AcDbEntity
  8
DIBUJOS
 62
     7
100
AcDbVertex
100
AcDb2dVertex
 10
25.94953166964716
 20
47.52781578008014
 30
0.0
  0
SEQEND
  5
206
330
203
100
AcDbEntity
  8
DIBUJOS
 62
     7
  0
POLYLINE
  5
207
330
52
100
AcDbEntity
  8
DIBUJOS
 62
     7
100
AcDb2dPolyline
 66
     1
 10
0.0
 20
0.0
 30
0.0
  0
VERTEX
  5
208
330
207
100
AcDbEntity
  8
DIBUJOS
 62
     7
100
AcDbVertex
100
AcDb2dVertex
 10
26.10522878032575
 20
47.52204984301125
 30
0.0
  0
VERTEX
  5
209
330
207
100
AcDbEntity
  8
DIBUJOS
 62
     7
100
AcDbVertex
100
AcDb2dVertex
 10
26.10522878032575
 20
47.52781578008014
 30
0.0
  0
SEQEND
  5
20A
330
207
100
AcDbEntity
  8
DIBUJOS
 62
     7
  0
POLYLINE
  5
20B
330
52
100
AcDbEntity
  8
DIBUJOS
 62
     7
100
AcDb2dPolyline
 66
     1
 10
0.0
 20
0.0
 30
0.0
  0
VERTEX
  5
20C
330
20B
100
AcDbEntity
  8
DIBUJOS
 62
     7
100
AcDbVertex
100
AcDb2dVertex
 10
26.49735684878811
 20
47.52204984301125
 30
0.0
  0
VERTEX
  5
20D
330
20B
100
AcDbEntity
  8
DIBUJOS
 62
     7
100
AcDbVertex
100
AcDb2dVertex
 10
26.49735684878811
 20
47.52781578008014
 30
0.0
  0
SEQEND
  5
20E
330
20B
100
AcDbEntity
  8
DIBUJOS
 62
     7
  0
POLYLINE
  5
20F
330
52
100
AcDbEntity
  8
DIBUJOS
 62
     7
100
AcDb2dPolyline
 66
     1
 10
0.0
 20
0.0
 30
0.0
  0
VERTEX
  5
210
330
20F
100
AcDbEntity
  8
DIBUJOS
 62
     7
100
AcDbVertex
100
AcDb2dVertex
 10
22.59914297762337
 20
43.54886289413247
 30
0.0
  0
VERTEX
  5
211
330
20F
100
AcDbEntity
  8
DIBUJOS
 62
     7
100
AcDbVertex
100
AcDb2dVertex
 10
23.07776926845511
 20
47.52204984301125
 30
0.0
  0
SEQEND
  5
212
330
20F
100
AcDbEntity
  8
DIBUJOS
 62
     7
  0
POLYLINE
  5
213
330
52
100
AcDbEntity
  8
DIBUJOS
 62
     7
100
AcDb2dPolyline
 66
     1
 10
0.0
 20
0.0
 30
0.0
  0
VERTEX
  5
214
330
213
100
AcDbEntity
  8
DIBUJOS
 62
     7
100
AcDbVertex
100
AcDb2dVertex
 10
22.59914297762337
 20
43.54309540499414
 30
0.0
  0
VERTEX
  5
215
330
213
100
AcDbEntity
  8
DIBUJOS
 62
     7
100
AcDbVertex
100
AcDb2dVertex
 10
22.59914297762337
 20
43.54886289413247
 30
0.0
  0
SEQEND
  5
216
330
213
100
AcDbEntity
  8
DIBUJOS
 62
     7
  0
POLYLINE
  5
217
330
52
100
AcDbEntity
  8
DIBUJOS
 62
     7
100
AcDb2dPolyline
 66
     1
 10
0.0
 20
0.0
 30
0.0
  0
VERTEX
  5
218
330
217
100
AcDbEntity
  8
DIBUJOS
 62
     7
100
AcDbVertex
100
AcDb2dVertex
 10
22.60490890495447
 20
43.54309540499414
 30
0.0
  0
VERTEX
  5
219
330
217
100
AcDbEntity
  8
DIBUJOS
 62
     7
100
AcDbVertex
100
AcDb2dVertex
 10
22.59914297762337
 20
43.54309540499414
 30
0.0
  0
SEQEND
  5
21A
330
217
100
AcDbEntity
  8
DIBUJOS
 62
     7
  0
POLYLINE
  5
21B
330
52
100
AcDbEntity
  8
DIBUJOS
 62
     7
100
AcDb2dPolyline
 66
     1
 10
0.0
 20
0.0
 30
0.0
  0
VERTEX
  5
21C
330
21B
100
AcDbEntity
  8
DIBUJOS
 62
     7
100
AcDbVertex
100
AcDb2dVertex
 10
22.59914297762337
 20
43.53732946792558
 30
0.0
  0
VERTEX
  5
21D
330
21B
100
AcDbEntity
  8
DIBUJOS
 62
     7
100
AcDbVertex
100
AcDb2dVertex
 10
22.59914297762337
 20
43.54309540499414
 30
0.0
  0
SEQEND
  5
21E
330
21B
100
AcDbEntity
  8
DIBUJOS
 62
     7
  0
POLYLINE
  5
21F
330
52
100
AcDbEntity
  8
DIBUJOS
 62
     7
100
AcDb2dPolyline
 66
     1
 10
0.0
 20
0.0
 30
0.0
  0
VERTEX
  5
220
330
21F
100
AcDbEntity
  8
DIBUJOS
 62
     7
100
AcDbVertex
100
AcDb2dVertex
 10
22.61067483228589
 20
43.53732946792558
 30
0.0
  0
VERTEX
  5
221
330
21F
100
AcDbEntity
  8
DIBUJOS
 62
     7
100
AcDbVertex
100
AcDb2dVertex
 10
22.60490890495447
 20
43.54309540499414
 30
0.0
  0
SEQEND
  5
222
330
21F
100
AcDbEntity
  8
DIBUJOS
 62
     7
  0
POLYLINE
  5
223
330
52
100
AcDbEntity
  8
DIBUJOS
 62
     7
100
AcDb2dPolyline
 66
     1
 10
0.0
 20
0.0
 30
0.0
  0
VERTEX
  5
224
330
223
100
AcDbEntity
  8
DIBUJOS
 62
     7
100
AcDbVertex
100
AcDb2dVertex
 10
22.61644231168387
 20
43.53732946792558
 30
0.0
  0
VERTEX
  5
225
330
223
100
AcDbEntity
  8
DIBUJOS
 62
     7
100
AcDbVertex
100
AcDb2dVertex
 10
22.61067483228589
 20
43.53732946792558
 30
0.0
  0
SEQEND
  5
226
330
223
100
AcDbEntity
  8
DIBUJOS
 62
     7
  0
POLYLINE
  5
227
330
52
100
AcDbEntity
  8
DIBUJOS
 62
     7
100
AcDb2dPolyline
 66
     1
 10
0.0
 20
0.0
 30
0.0
  0
VERTEX
  5
228
330
227
100
AcDbEntity
  8
DIBUJOS
 62
     7
100
AcDbVertex
100
AcDb2dVertex
 10
22.61644231168387
 20
43.53732946792558
 30
0.0
  0
VERTEX
  5
229
330
227
100
AcDbEntity
  8
DIBUJOS
 62
     7
100
AcDbVertex
100
AcDb2dVertex
 10
22.61987082675106
 20
43.54348497436302
 30
0.0
  0
VERTEX
  5
22A
330
227
100
AcDbEntity
  8
DIBUJOS
 62
     7
100
AcDbVertex
100
AcDb2dVertex
 10
23.23112896686979
 20
47.49360662289682
 30
0.0
  0
VERTEX
  5
22B
330
227
100
AcDbEntity
  8
DIBUJOS
 62
     7
100
AcDbVertex
100
AcDb2dVertex
 10
23.23346793120059
 20
47.52204984301125
 30
0.0
  0
SEQEND
  5
22C
330
227
100
AcDbEntity
  8
DIBUJOS
 62
     7
  0
POLYLINE
  5
22D
330
52
100
AcDbEntity
  8
DIBUJOS
 62
     7
100
AcDb2dPolyline
 66
     1
 10
0.0
 20
0.0
 30
0.0
  0
VERTEX
  5
22E
330
22D
100
AcDbEntity
  8
DIBUJOS
 62
     7
100
AcDbVertex
100
AcDb2dVertex
 10
22.61644231168387
 20
43.53156353085637
 30
0.0
  0
VERTEX
  5
22F
330
22D
100
AcDbEntity
  8
DIBUJOS
 62
     7
100
AcDbVertex
100
AcDb2dVertex
 10
22.61644231168387
 20
43.53732946792558
 30
0.0
  0
SEQEND
  5
230
330
22D
100
AcDbEntity
  8
DIBUJOS
 62
     7
  0
POLYLINE
  5
231
330
52
100
AcDbEntity
  8
DIBUJOS
 62
     7
100
AcDb2dPolyline
 66
     1
 10
0.0
 20
0.0
 30
0.0
  0
VERTEX
  5
232
330
231
100
AcDbEntity
  8
DIBUJOS
 62
     7
100
AcDbVertex
100
AcDb2dVertex
 10
22.59337549822539
 20
43.50272918930361
 30
0.0
  0
VERTEX
  5
233
330
231
100
AcDbEntity
  8
DIBUJOS
 62
     7
100
AcDbVertex
100
AcDb2dVertex
 10
22.59914297762337
 20
43.53732946792558
 30
0.0
  0
SEQEND
  5
234
330
231
100
AcDbEntity
  8
DIBUJOS
 62
     7
  0
POLYLINE
  5
235
330
52
100
AcDbEntity
  8
DIBUJOS
 62
     7
100
AcDb2dPolyline
 66
     1
 10
0.0
 20
0.0
 30
0.0
  0
VERTEX
  5
236
330
235
100
AcDbEntity
  8
DIBUJOS
 62
     7
100
AcDbVertex
100
AcDb2dVertex
 10
22.59337549822539
 20
43.49696325223442
 30
0.0
  0
VERTEX
  5
237
330
235
100
AcDbEntity
  8
DIBUJOS
 62
     7
100
AcDbVertex
100
AcDb2dVertex
 10
22.59337549822539
 20
43.50272918930361
 30
0.0
  0
SEQEND
  5
238
330
235
100
AcDbEntity
  8
DIBUJOS
 62
     7
  0
POLYLINE
  5
239
330
52
100
AcDbEntity
  8
DIBUJOS
 62
     7
100
AcDb2dPolyline
 66
     1
 10
0.0
 20
0.0
 30
0.0
  0
VERTEX
  5
23A
330
239
100
AcDbEntity
  8
DIBUJOS
 62
     7
100
AcDbVertex
100
AcDb2dVertex
 10
22.59914297762337
 20
43.49696325223442
 30
0.0
  0
VERTEX
  5
23B
330
239
100
AcDbEntity
  8
DIBUJOS
 62
     7
100
AcDbVertex
100
AcDb2dVertex
 10
22.59337549822539
 20
43.49696325223442
 30
0.0
  0
SEQEND
  5
23C
330
239
100
AcDbEntity
  8
DIBUJOS
 62
     7
  0
POLYLINE
  5
23D
330
52
100
AcDbEntity
  8
DIBUJOS
 62
     7
100
AcDb2dPolyline
 66
     1
 10
0.0
 20
0.0
 30
0.0
  0
VERTEX
  5
23E
330
23D
100
AcDbEntity
  8
DIBUJOS
 62
     7
100
AcDbVertex
100
AcDb2dVertex
 10
22.61067483228589
 20
43.49696325223442
 30
0.0
  0
VERTEX
  5
23F
330
23D
100
AcDbEntity
  8
DIBUJOS
 62
     7
100
AcDbVertex
100
AcDb2dVertex
 10
22.61644231168387
 20
43.50272918930361
 30
0.0
  0
VERTEX
  5
240
330
23D
100
AcDbEntity
  8
DIBUJOS
 62
     7
100
AcDbVertex
100
AcDb2dVertex
 10
22.61644231168387
 20
43.53156353085637
 30
0.0
  0
SEQEND
  5
241
330
23D
100
AcDbEntity
  8
DIBUJOS
 62
     7
  0
POLYLINE
  5
242
330
52
100
AcDbEntity
  8
DIBUJOS
 62
     7
100
AcDb2dPolyline
 66
     1
 10
0.0
 20
0.0
 30
0.0
  0
VERTEX
  5
243
330
242
100
AcDbEntity
  8
DIBUJOS
 62
     7
100
AcDbVertex
100
AcDb2dVertex
 10
26.5896225505558
 20
43.49696325223442
 30
0.0
  0
VERTEX
  5
244
330
242
100
AcDbEntity
  8
DIBUJOS
 62
     7
100
AcDbVertex
100
AcDb2dVertex
 10
26.10846328707097
 20
47.51600142934822
 30
0.0
  0
VERTEX
  5
245
330
242
100
AcDbEntity
  8
DIBUJOS
 62
     7
100
AcDbVertex
100
AcDb2dVertex
 10
26.10522878032575
 20
47.52204984301125
 30
0.0
  0
SEQEND
  5
246
330
242
100
AcDbEntity
  8
DIBUJOS
 62
     7
  0
POLYLINE
  5
247
330
52
100
AcDbEntity
  8
DIBUJOS
 62
     7
100
AcDb2dPolyline
 66
     1
 10
0.0
 20
0.0
 30
0.0
  0
VERTEX
  5
248
330
247
100
AcDbEntity
  8
DIBUJOS
 62
     7
100
AcDbVertex
100
AcDb2dVertex
 10
22.59337549822539
 20
43.49119576309673
 30
0.0
  0
VERTEX
  5
249
330
247
100
AcDbEntity
  8
DIBUJOS
 62
     7
100
AcDbVertex
100
AcDb2dVertex
 10
22.59337549822539
 20
43.49696325223442
 30
0.0
  0
SEQEND
  5
24A
330
247
100
AcDbEntity
  8
DIBUJOS
 62
     7
  0
POLYLINE
  5
24B
330
52
100
AcDbEntity
  8
DIBUJOS
 62
     7
100
AcDb2dPolyline
 66
     1
 10
0.0
 20
0.0
 30
0.0
  0
VERTEX
  5
24C
330
24B
100
AcDbEntity
  8
DIBUJOS
 62
     7
100
AcDbVertex
100
AcDb2dVertex
 10
22.60490890495447
 20
43.49119576309673
 30
0.0
  0
VERTEX
  5
24D
330
24B
100
AcDbEntity
  8
DIBUJOS
 62
     7
100
AcDbVertex
100
AcDb2dVertex
 10
22.59914297762337
 20
43.49696325223442
 30
0.0
  0
SEQEND
  5
24E
330
24B
100
AcDbEntity
  8
DIBUJOS
 62
     7
  0
POLYLINE
  5
24F
330
52
100
AcDbEntity
  8
DIBUJOS
 62
     7
100
AcDb2dPolyline
 66
     1
 10
0.0
 20
0.0
 30
0.0
  0
VERTEX
  5
250
330
24F
100
AcDbEntity
  8
DIBUJOS
 62
     7
100
AcDbVertex
100
AcDb2dVertex
 10
22.61067483228589
 20
43.49119576309673
 30
0.0
  0
VERTEX
  5
251
330
24F
100
AcDbEntity
  8
DIBUJOS
 62
     7
100
AcDbVertex
100
AcDb2dVertex
 10
22.60490890495447
 20
43.49119576309673
 30
0.0
  0
SEQEND
  5
252
330
24F
100
AcDbEntity
  8
DIBUJOS
 62
     7
  0
POLYLINE
  5
253
330
52
100
AcDbEntity
  8
DIBUJOS
 62
     7
100
AcDb2dPolyline
 66
     1
 10
0.0
 20
0.0
 30
0.0
  0
VERTEX
  5
254
330
253
100
AcDbEntity
  8
DIBUJOS
 62
     7
100
AcDbVertex
100
AcDb2dVertex
 10
22.61067483228589
 20
43.49119576309673
 30
0.0
  0
VERTEX
  5
255
330
253
100
AcDbEntity
  8
DIBUJOS
 62
     7
100
AcDbVertex
100
AcDb2dVertex
 10
22.61067483228589
 20
43.49696325223442
 30
0.0
  0
SEQEND
  5
256
330
253
100
AcDbEntity
  8
DIBUJOS
 62
     7
  0
POLYLINE
  5
257
330
52
100
AcDbEntity
  8
DIBUJOS
 62
     7
100
AcDb2dPolyline
 66
     1
 10
0.0
 20
0.0
 30
0.0
  0
VERTEX
  5
258
330
257
100
AcDbEntity
  8
DIBUJOS
 62
     7
100
AcDbVertex
100
AcDb2dVertex
 10
26.5723232164953
 20
43.49119576309673
 30
0.0
  0
VERTEX
  5
259
330
257
100
AcDbEntity
  8
DIBUJOS
 62
     7
100
AcDbVertex
100
AcDb2dVertex
 10
25.94953166964716
 20
47.52204984301125
 30
0.0
  0
SEQEND
  5
25A
330
257
100
AcDbEntity
  8
DIBUJOS
 62
     7
  0
POLYLINE
  5
25B
330
52
100
AcDbEntity
  8
DIBUJOS
 62
     7
100
AcDb2dPolyline
 66
     1
 10
0.0
 20
0.0
 30
0.0
  0
VERTEX
  5
25C
330
25B
100
AcDbEntity
  8
DIBUJOS
 62
     7
100
AcDbVertex
100
AcDb2dVertex
 10
26.5896225505558
 20
43.49119576309673
 30
0.0
  0
VERTEX
  5
25D
330
25B
100
AcDbEntity
  8
DIBUJOS
 62
     7
100
AcDbVertex
100
AcDb2dVertex
 10
26.58385662322437
 20
43.49119576309673
 30
0.0
  0
SEQEND
  5
25E
330
25B
100
AcDbEntity
  8
DIBUJOS
 62
     7
  0
POLYLINE
  5
25F
330
52
100
AcDbEntity
  8
DIBUJOS
 62
     7
100
AcDb2dPolyline
 66
     1
 10
0.0
 20
0.0
 30
0.0
  0
VERTEX
  5
260
330
25F
100
AcDbEntity
  8
DIBUJOS
 62
     7
100
AcDbVertex
100
AcDb2dVertex
 10
26.5896225505558
 20
43.49119576309673
 30
0.0
  0
VERTEX
  5
261
330
25F
100
AcDbEntity
  8
DIBUJOS
 62
     7
100
AcDbVertex
100
AcDb2dVertex
 10
26.5896225505558
 20
43.49696325223442
 30
0.0
  0
SEQEND
  5
262
330
25F
100
AcDbEntity
  8
DIBUJOS
 62
     7
  0
POLYLINE
  5
263
330
52
100
AcDbEntity
  8
DIBUJOS
 62
     7
100
AcDb2dPolyline
 66
     1
 10
0.0
 20
0.0
 30
0.0
  0
VERTEX
  5
264
330
263
100
AcDbEntity
  8
DIBUJOS
 62
     7
100
AcDbVertex
100
AcDb2dVertex
 10
22.61067483228589
 20
43.48542982602752
 30
0.0
  0
VERTEX
  5
265
330
263
100
AcDbEntity
  8
DIBUJOS
 62
     7
100
AcDbVertex
100
AcDb2dVertex
 10
22.61067483228589
 20
43.49119576309673
 30
0.0
  0
SEQEND
  5
266
330
263
100
AcDbEntity
  8
DIBUJOS
 62
     7
  0
POLYLINE
  5
267
330
52
100
AcDbEntity
  8
DIBUJOS
 62
     7
100
AcDb2dPolyline
 66
     1
 10
0.0
 20
0.0
 30
0.0
  0
VERTEX
  5
268
330
267
100
AcDbEntity
  8
DIBUJOS
 62
     7
100
AcDbVertex
100
AcDb2dVertex
 10
26.5723232164953
 20
43.48542982602752
 30
0.0
  0
VERTEX
  5
269
330
267
100
AcDbEntity
  8
DIBUJOS
 62
     7
100
AcDbVertex
100
AcDb2dVertex
 10
26.5723232164953
 20
43.49119576309673
 30
0.0
  0
SEQEND
  5
26A
330
267
100
AcDbEntity
  8
DIBUJOS
 62
     7
  0
POLYLINE
  5
26B
330
52
100
AcDbEntity
  8
DIBUJOS
 62
     7
100
AcDb2dPolyline
 66
     1
 10
0.0
 20
0.0
 30
0.0
  0
VERTEX
  5
26C
330
26B
100
AcDbEntity
  8
DIBUJOS
 62
     7
100
AcDbVertex
100
AcDb2dVertex
 10
26.5780891438264
 20
43.48542982602752
 30
0.0
  0
VERTEX
  5
26D
330
26B
100
AcDbEntity
  8
DIBUJOS
 62
     7
100
AcDbVertex
100
AcDb2dVertex
 10
26.5723232164953
 20
43.48542982602752
 30
0.0
  0
SEQEND
  5
26E
330
26B
100
AcDbEntity
  8
DIBUJOS
 62
     7
  0
POLYLINE
  5
26F
330
52
100
AcDbEntity
  8
DIBUJOS
 62
     7
100
AcDb2dPolyline
 66
     1
 10
0.0
 20
0.0
 30
0.0
  0
VERTEX
  5
270
330
26F
100
AcDbEntity
  8
DIBUJOS
 62
     7
100
AcDbVertex
100
AcDb2dVertex
 10
26.5780891438264
 20
43.48542982602752
 30
0.0
  0
VERTEX
  5
271
330
26F
100
AcDbEntity
  8
DIBUJOS
 62
     7
100
AcDbVertex
100
AcDb2dVertex
 10
26.58385662322437
 20
43.49119576309673
 30
0.0
  0
SEQEND
  5
272
330
26F
100
AcDbEntity
  8
DIBUJOS
 62
     7
  0
POLYLINE
  5
273
330
52
100
AcDbEntity
  8
DIBUJOS
 62
     7
100
AcDb2dPolyline
 66
     1
 10
0.0
 20
0.0
 30
0.0
  0
VERTEX
  5
274
330
273
100
AcDbEntity
  8
DIBUJOS
 62
     7
100
AcDbVertex
100
AcDb2dVertex
 10
26.5896225505558
 20
43.48542982602752
 30
0.0
  0
VERTEX
  5
275
330
273
100
AcDbEntity
  8
DIBUJOS
 62
     7
100
AcDbVertex
100
AcDb2dVertex
 10
26.5896225505558
 20
43.49119576309673
 30
0.0
  0
SEQEND
  5
276
330
273
100
AcDbEntity
  8
DIBUJOS
 62
     7
  0
POLYLINE
  5
277
330
52
100
AcDbEntity
  8
DIBUJOS
 62
     7
100
AcDb2dPolyline
 66
     1
 10
0.0
 20
0.0
 30
0.0
  0
VERTEX
  5
278
330
277
100
AcDbEntity
  8
DIBUJOS
 62
     7
100
AcDbVertex
100
AcDb2dVertex
 10
26.5723232164953
 20
43.47966388895831
 30
0.0
  0
VERTEX
  5
279
330
277
100
AcDbEntity
  8
DIBUJOS
 62
     7
100
AcDbVertex
100
AcDb2dVertex
 10
26.5723232164953
 20
43.48542982602752
 30
0.0
  0
SEQEND
  5
27A
330
277
100
AcDbEntity
  8
DIBUJOS
 62
     7
  0
POLYLINE
  5
27B
330
52
100
AcDbEntity
  8
DIBUJOS
 62
     7
100
AcDb2dPolyline
 66
     1
 10
0.0
 20
0.0
 30
0.0
  0
VERTEX
  5
27C
330
27B
100
AcDbEntity
  8
DIBUJOS
 62
     7
100
AcDbVertex
100
AcDb2dVertex
 10
22.58760957089397
 20
43.4623629736131
 30
0.0
  0
VERTEX
  5
27D
330
27B
100
AcDbEntity
  8
DIBUJOS
 62
     7
100
AcDbVertex
100
AcDb2dVertex
 10
22.59337549822539
 20
43.49119576309673
 30
0.0
  0
SEQEND
  5
27E
330
27B
100
AcDbEntity
  8
DIBUJOS
 62
     7
  0
POLYLINE
  5
27F
330
52
100
AcDbEntity
  8
DIBUJOS
 62
     7
100
AcDb2dPolyline
 66
     1
 10
0.0
 20
0.0
 30
0.0
  0
VERTEX
  5
280
330
27F
100
AcDbEntity
  8
DIBUJOS
 62
     7
100
AcDbVertex
100
AcDb2dVertex
 10
22.58760957089397
 20
43.45659703654453
 30
0.0
  0
VERTEX
  5
281
330
27F
100
AcDbEntity
  8
DIBUJOS
 62
     7
100
AcDbVertex
100
AcDb2dVertex
 10
22.58760957089397
 20
43.4623629736131
 30
0.0
  0
SEQEND
  5
282
330
27F
100
AcDbEntity
  8
DIBUJOS
 62
     7
  0
POLYLINE
  5
283
330
52
100
AcDbEntity
  8
DIBUJOS
 62
     7
100
AcDb2dPolyline
 66
     1
 10
0.0
 20
0.0
 30
0.0
  0
VERTEX
  5
284
330
283
100
AcDbEntity
  8
DIBUJOS
 62
     7
100
AcDbVertex
100
AcDb2dVertex
 10
22.59337549822539
 20
43.45659703654453
 30
0.0
  0
VERTEX
  5
285
330
283
100
AcDbEntity
  8
DIBUJOS
 62
     7
100
AcDbVertex
100
AcDb2dVertex
 10
22.58760957089397
 20
43.45659703654453
 30
0.0
  0
SEQEND
  5
286
330
283
100
AcDbEntity
  8
DIBUJOS
 62
     7
  0
POLYLINE
  5
287
330
52
100
AcDbEntity
  8
DIBUJOS
 62
     7
100
AcDb2dPolyline
 66
     1
 10
0.0
 20
0.0
 30
0.0
  0
VERTEX
  5
288
330
287
100
AcDbEntity
  8
DIBUJOS
 62
     7
100
AcDbVertex
100
AcDb2dVertex
 10
22.60490890495447
 20
43.45659703654453
 30
0.0
  0
VERTEX
  5
289
330
287
100
AcDbEntity
  8
DIBUJOS
 62
     7
100
AcDbVertex
100
AcDb2dVertex
 10
22.61067483228589
 20
43.48542982602752
 30
0.0
  0
SEQEND
  5
28A
330
287
100
AcDbEntity
  8
DIBUJOS
 62
     7
  0
POLYLINE
  5
28B
330
52
100
AcDbEntity
  8
DIBUJOS
 62
     7
100
AcDb2dPolyline
 66
     1
 10
0.0
 20
0.0
 30
0.0
  0
VERTEX
  5
28C
330
28B
100
AcDbEntity
  8
DIBUJOS
 62
     7
100
AcDbVertex
100
AcDb2dVertex
 10
22.58760957089397
 20
43.4508295474062
 30
0.0
  0
VERTEX
  5
28D
330
28B
100
AcDbEntity
  8
DIBUJOS
 62
     7
100
AcDbVertex
100
AcDb2dVertex
 10
22.58760957089397
 20
43.45659703654453
 30
0.0
  0
SEQEND
  5
28E
330
28B
100
AcDbEntity
  8
DIBUJOS
 62
     7
  0
POLYLINE
  5
28F
330
52
100
AcDbEntity
  8
DIBUJOS
 62
     7
100
AcDb2dPolyline
 66
     1
 10
0.0
 20
0.0
 30
0.0
  0
VERTEX
  5
290
330
28F
100
AcDbEntity
  8
DIBUJOS
 62
     7
100
AcDbVertex
100
AcDb2dVertex
 10
22.59914297762337
 20
43.4508295474062
 30
0.0
  0
VERTEX
  5
291
330
28F
100
AcDbEntity
  8
DIBUJOS
 62
     7
100
AcDbVertex
100
AcDb2dVertex
 10
22.59337549822539
 20
43.45659703654453
 30
0.0
  0
SEQEND
  5
292
330
28F
100
AcDbEntity
  8
DIBUJOS
 62
     7
  0
POLYLINE
  5
293
330
52
100
AcDbEntity
  8
DIBUJOS
 62
     7
100
AcDb2dPolyline
 66
     1
 10
0.0
 20
0.0
 30
0.0
  0
VERTEX
  5
294
330
293
100
AcDbEntity
  8
DIBUJOS
 62
     7
100
AcDbVertex
100
AcDb2dVertex
 10
22.60490890495447
 20
43.4508295474062
 30
0.0
  0
VERTEX
  5
295
330
293
100
AcDbEntity
  8
DIBUJOS
 62
     7
100
AcDbVertex
100
AcDb2dVertex
 10
22.59914297762337
 20
43.4508295474062
 30
0.0
  0
SEQEND
  5
296
330
293
100
AcDbEntity
  8
DIBUJOS
 62
     7
  0
POLYLINE
  5
297
330
52
100
AcDbEntity
  8
DIBUJOS
 62
     7
100
AcDb2dPolyline
 66
     1
 10
0.0
 20
0.0
 30
0.0
  0
VERTEX
  5
298
330
297
100
AcDbEntity
  8
DIBUJOS
 62
     7
100
AcDbVertex
100
AcDb2dVertex
 10
22.60490890495447
 20
43.4508295474062
 30
0.0
  0
VERTEX
  5
299
330
297
100
AcDbEntity
  8
DIBUJOS
 62
     7
100
AcDbVertex
100
AcDb2dVertex
 10
22.60490890495447
 20
43.45659703654453
 30
0.0
  0
SEQEND
  5
29A
330
297
100
AcDbEntity
  8
DIBUJOS
 62
     7
  0
POLYLINE
  5
29B
330
52
100
AcDbEntity
  8
DIBUJOS
 62
     7
100
AcDb2dPolyline
 66
     1
 10
0.0
 20
0.0
 30
0.0
  0
VERTEX
  5
29C
330
29B
100
AcDbEntity
  8
DIBUJOS
 62
     7
100
AcDbVertex
100
AcDb2dVertex
 10
26.5953884778869
 20
43.4508295474062
 30
0.0
  0
VERTEX
  5
29D
330
29B
100
AcDbEntity
  8
DIBUJOS
 62
     7
100
AcDbVertex
100
AcDb2dVertex
 10
26.5953884778869
 20
43.47966388895831
 30
0.0
  0
VERTEX
  5
29E
330
29B
100
AcDbEntity
  8
DIBUJOS
 62
     7
100
AcDbVertex
100
AcDb2dVertex
 10
26.5896225505558
 20
43.48542982602752
 30
0.0
  0
SEQEND
  5
29F
330
29B
100
AcDbEntity
  8
DIBUJOS
 62
     7
  0
POLYLINE
  5
2A0
330
52
100
AcDbEntity
  8
DIBUJOS
 62
     7
100
AcDb2dPolyline
 66
     1
 10
0.0
 20
0.0
 30
0.0
  0
VERTEX
  5
2A1
330
2A0
100
AcDbEntity
  8
DIBUJOS
 62
     7
100
AcDbVertex
100
AcDb2dVertex
 10
22.60490890495447
 20
43.445063610337
 30
0.0
  0
VERTEX
  5
2A2
330
2A0
100
AcDbEntity
  8
DIBUJOS
 62
     7
100
AcDbVertex
100
AcDb2dVertex
 10
22.60490890495447
 20
43.4508295474062
 30
0.0
  0
SEQEND
  5
2A3
330
2A0
100
AcDbEntity
  8
DIBUJOS
 62
     7
  0
POLYLINE
  5
2A4
330
52
100
AcDbEntity
  8
DIBUJOS
 62
     7
100
AcDb2dPolyline
 66
     1
 10
0.0
 20
0.0
 30
0.0
  0
VERTEX
  5
2A5
330
2A4
100
AcDbEntity
  8
DIBUJOS
 62
     7
100
AcDbVertex
100
AcDb2dVertex
 10
26.5780891438264
 20
43.445063610337
 30
0.0
  0
VERTEX
  5
2A6
330
2A4
100
AcDbEntity
  8
DIBUJOS
 62
     7
100
AcDbVertex
100
AcDb2dVertex
 10
26.5723232164953
 20
43.47966388895831
 30
0.0
  0
SEQEND
  5
2A7
330
2A4
100
AcDbEntity
  8
DIBUJOS
 62
     7
  0
POLYLINE
  5
2A8
330
52
100
AcDbEntity
  8
DIBUJOS
 62
     7
100
AcDb2dPolyline
 66
     1
 10
0.0
 20
0.0
 30
0.0
  0
VERTEX
  5
2A9
330
2A8
100
AcDbEntity
  8
DIBUJOS
 62
     7
100
AcDbVertex
100
AcDb2dVertex
 10
26.5953884778869
 20
43.445063610337
 30
0.0
  0
VERTEX
  5
2AA
330
2A8
100
AcDbEntity
  8
DIBUJOS
 62
     7
100
AcDbVertex
100
AcDb2dVertex
 10
26.5896225505558
 20
43.445063610337
 30
0.0
  0
SEQEND
  5
2AB
330
2A8
100
AcDbEntity
  8
DIBUJOS
 62
     7
  0
POLYLINE
  5
2AC
330
52
100
AcDbEntity
  8
DIBUJOS
 62
     7
100
AcDb2dPolyline
 66
     1
 10
0.0
 20
0.0
 30
0.0
  0
VERTEX
  5
2AD
330
2AC
100
AcDbEntity
  8
DIBUJOS
 62
     7
100
AcDbVertex
100
AcDb2dVertex
 10
26.5953884778869
 20
43.445063610337
 30
0.0
  0
VERTEX
  5
2AE
330
2AC
100
AcDbEntity
  8
DIBUJOS
 62
     7
100
AcDbVertex
100
AcDb2dVertex
 10
26.5953884778869
 20
43.4508295474062
 30
0.0
  0
SEQEND
  5
2AF
330
2AC
100
AcDbEntity
  8
DIBUJOS
 62
     7
  0
POLYLINE
  5
2B0
330
52
100
AcDbEntity
  8
DIBUJOS
 62
     7
100
AcDb2dPolyline
 66
     1
 10
0.0
 20
0.0
 30
0.0
  0
VERTEX
  5
2B1
330
2B0
100
AcDbEntity
  8
DIBUJOS
 62
     7
100
AcDbVertex
100
AcDb2dVertex
 10
26.5780891438264
 20
43.43929767326843
 30
0.0
  0
VERTEX
  5
2B2
330
2B0
100
AcDbEntity
  8
DIBUJOS
 62
     7
100
AcDbVertex
100
AcDb2dVertex
 10
26.5780891438264
 20
43.445063610337
 30
0.0
  0
SEQEND
  5
2B3
330
2B0
100
AcDbEntity
  8
DIBUJOS
 62
     7
  0
POLYLINE
  5
2B4
330
52
100
AcDbEntity
  8
DIBUJOS
 62
     7
100
AcDb2dPolyline
 66
     1
 10
0.0
 20
0.0
 30
0.0
  0
VERTEX
  5
2B5
330
2B4
100
AcDbEntity
  8
DIBUJOS
 62
     7
100
AcDbVertex
100
AcDb2dVertex
 10
26.58385662322437
 20
43.43929767326843
 30
0.0
  0
VERTEX
  5
2B6
330
2B4
100
AcDbEntity
  8
DIBUJOS
 62
     7
100
AcDbVertex
100
AcDb2dVertex
 10
26.5780891438264
 20
43.43929767326843
 30
0.0
  0
SEQEND
  5
2B7
330
2B4
100
AcDbEntity
  8
DIBUJOS
 62
     7
  0
POLYLINE
  5
2B8
330
52
100
AcDbEntity
  8
DIBUJOS
 62
     7
100
AcDb2dPolyline
 66
     1
 10
0.0
 20
0.0
 30
0.0
  0
VERTEX
  5
2B9
330
2B8
100
AcDbEntity
  8
DIBUJOS
 62
     7
100
AcDbVertex
100
AcDb2dVertex
 10
26.58385662322437
 20
43.43929767326843
 30
0.0
  0
VERTEX
  5
2BA
330
2B8
100
AcDbEntity
  8
DIBUJOS
 62
     7
100
AcDbVertex
100
AcDb2dVertex
 10
26.5896225505558
 20
43.445063610337
 30
0.0
  0
SEQEND
  5
2BB
330
2B8
100
AcDbEntity
  8
DIBUJOS
 62
     7
  0
POLYLINE
  5
2BC
330
52
100
AcDbEntity
  8
DIBUJOS
 62
     7
100
AcDb2dPolyline
 66
     1
 10
0.0
 20
0.0
 30
0.0
  0
VERTEX
  5
2BD
330
2BC
100
AcDbEntity
  8
DIBUJOS
 62
     7
100
AcDbVertex
100
AcDb2dVertex
 10
26.5953884778869
 20
43.43929767326843
 30
0.0
  0
VERTEX
  5
2BE
330
2BC
100
AcDbEntity
  8
DIBUJOS
 62
     7
100
AcDbVertex
100
AcDb2dVertex
 10
26.5953884778869
 20
43.445063610337
 30
0.0
  0
SEQEND
  5
2BF
330
2BC
100
AcDbEntity
  8
DIBUJOS
 62
     7
  0
POLYLINE
  5
2C0
330
52
100
AcDbEntity
  8
DIBUJOS
 62
     7
100
AcDb2dPolyline
 66
     1
 10
0.0
 20
0.0
 30
0.0
  0
VERTEX
  5
2C1
330
2C0
100
AcDbEntity
  8
DIBUJOS
 62
     7
100
AcDbVertex
100
AcDb2dVertex
 10
26.5780891438264
 20
43.43353018412947
 30
0.0
  0
VERTEX
  5
2C2
330
2C0
100
AcDbEntity
  8
DIBUJOS
 62
     7
100
AcDbVertex
100
AcDb2dVertex
 10
26.5780891438264
 20
43.43929767326843
 30
0.0
  0
SEQEND
  5
2C3
330
2C0
100
AcDbEntity
  8
DIBUJOS
 62
     7
  0
POLYLINE
  5
2C4
330
52
100
AcDbEntity
  8
DIBUJOS
 62
     7
100
AcDb2dPolyline
 66
     1
 10
0.0
 20
0.0
 30
0.0
  0
VERTEX
  5
2C5
330
2C4
100
AcDbEntity
  8
DIBUJOS
 62
     7
100
AcDbVertex
100
AcDb2dVertex
 10
26.5953884778869
 20
43.41623082085337
 30
0.0
  0
VERTEX
  5
2C6
330
2C4
100
AcDbEntity
  8
DIBUJOS
 62
     7
100
AcDbVertex
100
AcDb2dVertex
 10
26.60115595728488
 20
43.43353018412947
 30
0.0
  0
VERTEX
  5
2C7
330
2C4
100
AcDbEntity
  8
DIBUJOS
 62
     7
100
AcDbVertex
100
AcDb2dVertex
 10
26.5953884778869
 20
43.43929767326843
 30
0.0
  0
SEQEND
  5
2C8
330
2C4
100
AcDbEntity
  8
DIBUJOS
 62
     7
  0
POLYLINE
  5
2C9
330
52
100
AcDbEntity
  8
DIBUJOS
 62
     7
100
AcDb2dPolyline
 66
     1
 10
0.0
 20
0.0
 30
0.0
  0
VERTEX
  5
2CA
330
2C9
100
AcDbEntity
  8
DIBUJOS
 62
     7
100
AcDbVertex
100
AcDb2dVertex
 10
22.59337549822539
 20
43.4104648837848
 30
0.0
  0
VERTEX
  5
2CB
330
2C9
100
AcDbEntity
  8
DIBUJOS
 62
     7
100
AcDbVertex
100
AcDb2dVertex
 10
22.58184209149599
 20
43.42199675792257
 30
0.0
  0
VERTEX
  5
2CC
330
2C9
100
AcDbEntity
  8
DIBUJOS
 62
     7
100
AcDbVertex
100
AcDb2dVertex
 10
22.58557325954579
 20
43.43403926282671
 30
0.0
  0
VERTEX
  5
2CD
330
2C9
100
AcDbEntity
  8
DIBUJOS
 62
     7
100
AcDbVertex
100
AcDb2dVertex
 10
22.58760957089397
 20
43.4508295474062
 30
0.0
  0
SEQEND
  5
2CE
330
2C9
100
AcDbEntity
  8
DIBUJOS
 62
     7
  0
POLYLINE
  5
2CF
330
52
100
AcDbEntity
  8
DIBUJOS
 62
     7
100
AcDb2dPolyline
 66
     1
 10
0.0
 20
0.0
 30
0.0
  0
VERTEX
  5
2D0
330
2CF
100
AcDbEntity
  8
DIBUJOS
 62
     7
100
AcDbVertex
100
AcDb2dVertex
 10
22.59337549822539
 20
43.4104648837848
 30
0.0
  0
VERTEX
  5
2D1
330
2CF
100
AcDbEntity
  8
DIBUJOS
 62
     7
100
AcDbVertex
100
AcDb2dVertex
 10
22.60287414567285
 20
43.4282733257575
 30
0.0
  0
VERTEX
  5
2D2
330
2CF
100
AcDbEntity
  8
DIBUJOS
 62
     7
100
AcDbVertex
100
AcDb2dVertex
 10
22.60490890495447
 20
43.445063610337
 30
0.0
  0
SEQEND
  5
2D3
330
2CF
100
AcDbEntity
  8
DIBUJOS
 62
     7
  0
POLYLINE
  5
2D4
330
52
100
AcDbEntity
  8
DIBUJOS
 62
     7
100
AcDb2dPolyline
 66
     1
 10
0.0
 20
0.0
 30
0.0
  0
VERTEX
  5
2D5
330
2D4
100
AcDbEntity
  8
DIBUJOS
 62
     7
100
AcDbVertex
100
AcDb2dVertex
 10
26.5896225505558
 20
43.4104648837848
 30
0.0
  0
VERTEX
  5
2D6
330
2D4
100
AcDbEntity
  8
DIBUJOS
 62
     7
100
AcDbVertex
100
AcDb2dVertex
 10
26.5780891438264
 20
43.43353018412947
 30
0.0
  0
SEQEND
  5
2D7
330
2D4
100
AcDbEntity
  8
DIBUJOS
 62
     7
  0
POLYLINE
  5
2D8
330
52
100
AcDbEntity
  8
DIBUJOS
 62
     7
100
AcDb2dPolyline
 66
     1
 10
0.0
 20
0.0
 30
0.0
  0
VERTEX
  5
2D9
330
2D8
100
AcDbEntity
  8
DIBUJOS
 62
     7
100
AcDbVertex
100
AcDb2dVertex
 10
26.5953884778869
 20
43.4104648837848
 30
0.0
  0
VERTEX
  5
2DA
330
2D8
100
AcDbEntity
  8
DIBUJOS
 62
     7
100
AcDbVertex
100
AcDb2dVertex
 10
26.5896225505558
 20
43.4104648837848
 30
0.0
  0
SEQEND
  5
2DB
330
2D8
100
AcDbEntity
  8
DIBUJOS
 62
     7
  0
POLYLINE
  5
2DC
330
52
100
AcDbEntity
  8
DIBUJOS
 62
     7
100
AcDb2dPolyline
 66
     1
 10
0.0
 20
0.0
 30
0.0
  0
VERTEX
  5
2DD
330
2DC
100
AcDbEntity
  8
DIBUJOS
 62
     7
100
AcDbVertex
100
AcDb2dVertex
 10
26.5953884778869
 20
43.4104648837848
 30
0.0
  0
VERTEX
  5
2DE
330
2DC
100
AcDbEntity
  8
DIBUJOS
 62
     7
100
AcDbVertex
100
AcDb2dVertex
 10
26.5953884778869
 20
43.41623082085337
 30
0.0
  0
SEQEND
  5
2DF
330
2DC
100
AcDbEntity
  8
DIBUJOS
 62
     7
  0
POLYLINE
  5
2E0
330
52
100
AcDbEntity
  8
DIBUJOS
 62
     7
100
AcDb2dPolyline
 66
     1
 10
0.0
 20
0.0
 30
0.0
  0
VERTEX
  5
2E1
330
2E0
100
AcDbEntity
  8
DIBUJOS
 62
     7
100
AcDbVertex
100
AcDb2dVertex
 10
26.5953884778869
 20
43.40469739464648
 30
0.0
  0
VERTEX
  5
2E2
330
2E0
100
AcDbEntity
  8
DIBUJOS
 62
     7
100
AcDbVertex
100
AcDb2dVertex
 10
26.5953884778869
 20
43.4104648837848
 30
0.0
  0
SEQEND
  5
2E3
330
2E0
100
AcDbEntity
  8
DIBUJOS
 62
     7
  0
POLYLINE
  5
2E4
330
52
100
AcDbEntity
  8
DIBUJOS
 62
     7
100
AcDb2dPolyline
 66
     1
 10
0.0
 20
0.0
 30
0.0
  0
VERTEX
  5
2E5
330
2E4
100
AcDbEntity
  8
DIBUJOS
 62
     7
100
AcDbVertex
100
AcDb2dVertex
 10
22.56454275743549
 20
43.22016567946996
 30
0.0
  0
VERTEX
  5
2E6
330
2E4
100
AcDbEntity
  8
DIBUJOS
 62
     7
100
AcDbVertex
100
AcDb2dVertex
 10
22.59337549822539
 20
43.4104648837848
 30
0.0
  0
SEQEND
  5
2E7
330
2E4
100
AcDbEntity
  8
DIBUJOS
 62
     7
  0
POLYLINE
  5
2E8
330
52
100
AcDbEntity
  8
DIBUJOS
 62
     7
100
AcDb2dPolyline
 66
     1
 10
0.0
 20
0.0
 30
0.0
  0
VERTEX
  5
2E9
330
2E8
100
AcDbEntity
  8
DIBUJOS
 62
     7
100
AcDbVertex
100
AcDb2dVertex
 10
26.6184552913457
 20
43.21439974240076
 30
0.0
  0
VERTEX
  5
2EA
330
2E8
100
AcDbEntity
  8
DIBUJOS
 62
     7
100
AcDbVertex
100
AcDb2dVertex
 10
26.5953884778869
 20
43.40469739464648
 30
0.0
  0
SEQEND
  5
2EB
330
2E8
100
AcDbEntity
  8
DIBUJOS
 62
     7
  0
POLYLINE
  5
2EC
330
52
100
AcDbEntity
  8
DIBUJOS
 62
     7
100
AcDb2dPolyline
 66
     1
 10
0.0
 20
0.0
 30
0.0
  0
VERTEX
  5
2ED
330
2EC
100
AcDbEntity
  8
DIBUJOS
 62
     7
100
AcDbVertex
100
AcDb2dVertex
 10
22.69140867939074
 20
47.52204984301125
 30
0.0
  0
VERTEX
  5
2EE
330
2EC
100
AcDbEntity
  8
DIBUJOS
 62
     7
100
AcDbVertex
100
AcDb2dVertex
 10
22.67724917601447
 20
47.3896366114893
 30
0.0
  0
VERTEX
  5
2EF
330
2EC
100
AcDbEntity
  8
DIBUJOS
 62
     7
100
AcDbVertex
100
AcDb2dVertex
 10
22.31657994498888
 20
43.27783281050571
 30
0.0
  0
VERTEX
  5
2F0
330
2EC
100
AcDbEntity
  8
DIBUJOS
 62
     7
100
AcDbVertex
100
AcDb2dVertex
 10
22.31657994498888
 20
43.2086338053322
 30
0.0
  0
VERTEX
  5
2F1
330
2EC
100
AcDbEntity
  8
DIBUJOS
 62
     7
100
AcDbVertex
100
AcDb2dVertex
 10
22.32811335171829
 20
43.19710037912466
 30
0.0
  0
VERTEX
  5
2F2
330
2EC
100
AcDbEntity
  8
DIBUJOS
 62
     7
100
AcDbVertex
100
AcDb2dVertex
 10
22.54147594397669
 20
43.19710037912466
 30
0.0
  0
VERTEX
  5
2F3
330
2EC
100
AcDbEntity
  8
DIBUJOS
 62
     7
100
AcDbVertex
100
AcDb2dVertex
 10
22.56454275743549
 20
43.22016567946996
 30
0.0
  0
SEQEND
  5
2F4
330
2EC
100
AcDbEntity
  8
DIBUJOS
 62
     7
  0
POLYLINE
  5
2F5
330
52
100
AcDbEntity
  8
DIBUJOS
 62
     7
100
AcDb2dPolyline
 66
     1
 10
0.0
 20
0.0
 30
0.0
  0
VERTEX
  5
2F6
330
2F5
100
AcDbEntity
  8
DIBUJOS
 62
     7
100
AcDbVertex
100
AcDb2dVertex
 10
22.56454275743549
 20
43.22016567946996
 30
0.0
  0
VERTEX
  5
2F7
330
2F5
100
AcDbEntity
  8
DIBUJOS
 62
     7
100
AcDbVertex
100
AcDb2dVertex
 10
22.58184209149599
 20
43.19710037912466
 30
0.0
  0
VERTEX
  5
2F8
330
2F5
100
AcDbEntity
  8
DIBUJOS
 62
     7
100
AcDbVertex
100
AcDb2dVertex
 10
22.78944030848985
 20
43.19710037912466
 30
0.0
  0
VERTEX
  5
2F9
330
2F5
100
AcDbEntity
  8
DIBUJOS
 62
     7
100
AcDbVertex
100
AcDb2dVertex
 10
22.81250556988177
 20
43.2086338053322
 30
0.0
  0
VERTEX
  5
2FA
330
2F5
100
AcDbEntity
  8
DIBUJOS
 62
     7
100
AcDbVertex
100
AcDb2dVertex
 10
23.60595770127164
 20
47.43017355479155
 30
0.0
  0
VERTEX
  5
2FB
330
2F5
100
AcDbEntity
  8
DIBUJOS
 62
     7
100
AcDbVertex
100
AcDb2dVertex
 10
23.62559599966294
 20
47.52781578008014
 30
0.0
  0
SEQEND
  5
2FC
330
2F5
100
AcDbEntity
  8
DIBUJOS
 62
     7
  0
POLYLINE
  5
2FD
330
52
100
AcDbEntity
  8
DIBUJOS
 62
     7
100
AcDb2dPolyline
 66
     1
 10
0.0
 20
0.0
 30
0.0
  0
VERTEX
  5
2FE
330
2FD
100
AcDbEntity
  8
DIBUJOS
 62
     7
100
AcDbVertex
100
AcDb2dVertex
 10
23.63136192699436
 20
47.53358326921814
 30
0.0
  0
VERTEX
  5
2FF
330
2FD
100
AcDbEntity
  8
DIBUJOS
 62
     7
100
AcDbVertex
100
AcDb2dVertex
 10
25.55163612178683
 20
47.53358326921814
 30
0.0
  0
VERTEX
  5
300
330
2FD
100
AcDbEntity
  8
DIBUJOS
 62
     7
100
AcDbVertex
100
AcDb2dVertex
 10
25.56316952851623
 20
47.52204984301125
 30
0.0
  0
VERTEX
  5
301
330
2FD
100
AcDbEntity
  8
DIBUJOS
 62
     7
100
AcDbVertex
100
AcDb2dVertex
 10
25.57248503210762
 20
47.45817288311582
 30
0.0
  0
VERTEX
  5
302
330
2FD
100
AcDbEntity
  8
DIBUJOS
 62
     7
100
AcDbVertex
100
AcDb2dVertex
 10
25.57813145031281
 20
47.42939441605476
 30
0.0
  0
VERTEX
  5
303
330
2FD
100
AcDbEntity
  8
DIBUJOS
 62
     7
100
AcDbVertex
100
AcDb2dVertex
 10
26.37049247889942
 20
43.2086338053322
 30
0.0
  0
VERTEX
  5
304
330
2FD
100
AcDbEntity
  8
DIBUJOS
 62
     7
100
AcDbVertex
100
AcDb2dVertex
 10
26.38144851686195
 20
43.20171312877977
 30
0.0
  0
VERTEX
  5
305
330
2FD
100
AcDbEntity
  8
DIBUJOS
 62
     7
100
AcDbVertex
100
AcDb2dVertex
 10
26.60115595728488
 20
43.19710037912466
 30
0.0
  0
VERTEX
  5
306
330
2FD
100
AcDbEntity
  8
DIBUJOS
 62
     7
100
AcDbVertex
100
AcDb2dVertex
 10
26.6184552913457
 20
43.21439974240076
 30
0.0
  0
SEQEND
  5
307
330
2FD
100
AcDbEntity
  8
DIBUJOS
 62
     7
  0
POLYLINE
  5
308
330
52
100
AcDbEntity
  8
DIBUJOS
 62
     7
100
AcDb2dPolyline
 66
     1
 10
0.0
 20
0.0
 30
0.0
  0
VERTEX
  5
309
330
308
100
AcDbEntity
  8
DIBUJOS
 62
     7
100
AcDbVertex
100
AcDb2dVertex
 10
26.6184552913457
 20
43.21439974240076
 30
0.0
  0
VERTEX
  5
30A
330
308
100
AcDbEntity
  8
DIBUJOS
 62
     7
100
AcDbVertex
100
AcDb2dVertex
 10
26.63517880870621
 20
43.20171312877977
 30
0.0
  0
VERTEX
  5
30B
330
308
100
AcDbEntity
  8
DIBUJOS
 62
     7
100
AcDbVertex
100
AcDb2dVertex
 10
26.64152210480418
 20
43.19710037912466
 30
0.0
  0
VERTEX
  5
30C
330
308
100
AcDbEntity
  8
DIBUJOS
 62
     7
100
AcDbVertex
100
AcDb2dVertex
 10
26.85488624912914
 20
43.19710037912466
 30
0.0
  0
VERTEX
  5
30D
330
308
100
AcDbEntity
  8
DIBUJOS
 62
     7
100
AcDbVertex
100
AcDb2dVertex
 10
26.87218558318996
 20
43.21439974240076
 30
0.0
  0
VERTEX
  5
30E
330
308
100
AcDbEntity
  8
DIBUJOS
 62
     7
100
AcDbVertex
100
AcDb2dVertex
 10
26.50629054400212
 20
47.3834143660763
 30
0.0
  0
VERTEX
  5
30F
330
308
100
AcDbEntity
  8
DIBUJOS
 62
     7
100
AcDbVertex
100
AcDb2dVertex
 10
26.49735684878811
 20
47.52204984301125
 30
0.0
  0
SEQEND
  5
310
330
308
100
AcDbEntity
  8
DIBUJOS
 62
     7
  0
ENDBLK
  5
55
330
52
100
AcDbEntity
  8
0
100
AcDbBlockEnd
  0
BLOCK
  5
313
330
311
100
AcDbEntity
  8
0
100
AcDbBlockBegin
  2
BLOCK_3
 70
     0
 10
0.0
 20
0.0
 30
0.0
  3
BLOCK_3
  1

  0
POLYLINE
  5
315
330
311
100
AcDbEntity
  8
DIBUJOS
 62
     7
100
AcDb2dPolyline
 66
     1
 10
0.0
 20
0.0
 30
0.0
  0
VERTEX
  5
316
330
315
100
AcDbEntity
  8
DIBUJOS
 62
     7
100
AcDbVertex
100
AcDb2dVertex
 10
36.9015077635406
 20
51.93349767534777
 30
0.0
  0
VERTEX
  5
317
330
315
100
AcDbEntity
  8
DIBUJOS
 62
     7
100
AcDbVertex
100
AcDb2dVertex
 10
36.79828291967695
 20
51.96406102198615
 30
0.0
  0
VERTEX
  5
318
330
315
100
AcDbEntity
  8
DIBUJOS
 62
     7
100
AcDbVertex
100
AcDb2dVertex
 10
36.61938551781398
 20
52.00491458740488
 30
0.0
  0
VERTEX
  5
319
330
315
100
AcDbEntity
  8
DIBUJOS
 62
     7
100
AcDbVertex
100
AcDb2dVertex
 10
36.60740977211048
 20
52.00269823259072
 30
0.0
  0
VERTEX
  5
31A
330
315
100
AcDbEntity
  8
DIBUJOS
 62
     7
100
AcDbVertex
100
AcDb2dVertex
 10
36.53244495647017
 20
52.01999759586715
 30
0.0
  0
VERTEX
  5
31B
330
315
100
AcDbEntity
  8
DIBUJOS
 62
     7
100
AcDbVertex
100
AcDb2dVertex
 10
36.52090999767421
 20
52.01423010672882
 30
0.0
  0
SEQEND
  5
31C
330
315
100
AcDbEntity
  8
DIBUJOS
 62
     7
  0
POLYLINE
  5
31D
330
311
100
AcDbEntity
  8
DIBUJOS
 62
     7
100
AcDb2dPolyline
 66
     1
 10
0.0
 20
0.0
 30
0.0
  0
VERTEX
  5
31E
330
31D
100
AcDbEntity
  8
DIBUJOS
 62
     7
100
AcDbVertex
100
AcDb2dVertex
 10
36.95917324512041
 20
51.91043082293334
 30
0.0
  0
VERTEX
  5
31F
330
31D
100
AcDbEntity
  8
DIBUJOS
 62
     7
100
AcDbVertex
100
AcDb2dVertex
 10
36.91303961820312
 20
51.92773018620976
 30
0.0
  0
SEQEND
  5
320
330
31D
100
AcDbEntity
  8
DIBUJOS
 62
     7
  0
POLYLINE
  5
321
330
311
100
AcDbEntity
  8
DIBUJOS
 62
     7
100
AcDb2dPolyline
 66
     1
 10
0.0
 20
0.0
 30
0.0
  0
VERTEX
  5
322
330
321
100
AcDbEntity
  8
DIBUJOS
 62
     7
100
AcDbVertex
100
AcDb2dVertex
 10
36.98800443384376
 20
51.89889894879526
 30
0.0
  0
VERTEX
  5
323
330
321
100
AcDbEntity
  8
DIBUJOS
 62
     7
100
AcDbVertex
100
AcDb2dVertex
 10
36.97070509978293
 20
51.90466643793359
 30
0.0
  0
SEQEND
  5
324
330
321
100
AcDbEntity
  8
DIBUJOS
 62
     7
  0
POLYLINE
  5
325
330
311
100
AcDbEntity
  8
DIBUJOS
 62
     7
100
AcDb2dPolyline
 66
     1
 10
0.0
 20
0.0
 30
0.0
  0
VERTEX
  5
326
330
325
100
AcDbEntity
  8
DIBUJOS
 62
     7
100
AcDbVertex
100
AcDb2dVertex
 10
37.00530376790425
 20
51.89313145965725
 30
0.0
  0
VERTEX
  5
327
330
325
100
AcDbEntity
  8
DIBUJOS
 62
     7
100
AcDbVertex
100
AcDb2dVertex
 10
36.99953939263939
 20
51.89313145965725
 30
0.0
  0
SEQEND
  5
328
330
325
100
AcDbEntity
  8
DIBUJOS
 62
     7
  0
POLYLINE
  5
329
330
311
100
AcDbEntity
  8
DIBUJOS
 62
     7
100
AcDb2dPolyline
 66
     1
 10
0.0
 20
0.0
 30
0.0
  0
VERTEX
  5
32A
330
329
100
AcDbEntity
  8
DIBUJOS
 62
     7
100
AcDbVertex
100
AcDb2dVertex
 10
37.04566991542324
 20
51.87583209638115
 30
0.0
  0
VERTEX
  5
32B
330
329
100
AcDbEntity
  8
DIBUJOS
 62
     7
100
AcDbVertex
100
AcDb2dVertex
 10
37.02837058136274
 20
51.88159958551916
 30
0.0
  0
SEQEND
  5
32C
330
329
100
AcDbEntity
  8
DIBUJOS
 62
     7
  0
POLYLINE
  5
32D
330
311
100
AcDbEntity
  8
DIBUJOS
 62
     7
100
AcDb2dPolyline
 66
     1
 10
0.0
 20
0.0
 30
0.0
  0
VERTEX
  5
32E
330
32D
100
AcDbEntity
  8
DIBUJOS
 62
     7
100
AcDbVertex
100
AcDb2dVertex
 10
37.54736301971378
 20
51.48946930275171
 30
0.0
  0
VERTEX
  5
32F
330
32D
100
AcDbEntity
  8
DIBUJOS
 62
     7
100
AcDbVertex
100
AcDb2dVertex
 10
37.54159864444892
 20
51.49523679189004
 30
0.0
  0
SEQEND
  5
330
330
32D
100
AcDbEntity
  8
DIBUJOS
 62
     7
  0
POLYLINE
  5
331
330
311
100
AcDbEntity
  8
DIBUJOS
 62
     7
100
AcDb2dPolyline
 66
     1
 10
0.0
 20
0.0
 30
0.0
  0
VERTEX
  5
332
330
331
100
AcDbEntity
  8
DIBUJOS
 62
     7
100
AcDbVertex
100
AcDb2dVertex
 10
37.57619731257024
 20
51.44910308706118
 30
0.0
  0
VERTEX
  5
333
330
331
100
AcDbEntity
  8
DIBUJOS
 62
     7
100
AcDbVertex
100
AcDb2dVertex
 10
37.57042983317226
 20
51.45487057619951
 30
0.0
  0
SEQEND
  5
334
330
331
100
AcDbEntity
  8
DIBUJOS
 62
     7
  0
POLYLINE
  5
335
330
311
100
AcDbEntity
  8
DIBUJOS
 62
     7
100
AcDb2dPolyline
 66
     1
 10
0.0
 20
0.0
 30
0.0
  0
VERTEX
  5
336
330
335
100
AcDbEntity
  8
DIBUJOS
 62
     7
100
AcDbVertex
100
AcDb2dVertex
 10
37.59349664663107
 20
51.42027184964732
 30
0.0
  0
VERTEX
  5
337
330
335
100
AcDbEntity
  8
DIBUJOS
 62
     7
100
AcDbVertex
100
AcDb2dVertex
 10
37.59349664663107
 20
51.42603623464708
 30
0.0
  0
VERTEX
  5
338
330
335
100
AcDbEntity
  8
DIBUJOS
 62
     7
100
AcDbVertex
100
AcDb2dVertex
 10
37.58196479196822
 20
51.43757121292342
 30
0.0
  0
SEQEND
  5
339
330
335
100
AcDbEntity
  8
DIBUJOS
 62
     7
  0
POLYLINE
  5
33A
330
311
100
AcDbEntity
  8
DIBUJOS
 62
     7
100
AcDb2dPolyline
 66
     1
 10
0.0
 20
0.0
 30
0.0
  0
VERTEX
  5
33B
330
33A
100
AcDbEntity
  8
DIBUJOS
 62
     7
100
AcDbVertex
100
AcDb2dVertex
 10
38.81601292686853
 20
48.02374224250449
 30
0.0
  0
VERTEX
  5
33C
330
33A
100
AcDbEntity
  8
DIBUJOS
 62
     7
100
AcDbVertex
100
AcDb2dVertex
 10
38.78496228294095
 20
48.17899882847634
 30
0.0
  0
VERTEX
  5
33D
330
33A
100
AcDbEntity
  8
DIBUJOS
 62
     7
100
AcDbVertex
100
AcDb2dVertex
 10
38.6871137976979
 20
48.5883601834752
 30
0.0
  0
VERTEX
  5
33E
330
33A
100
AcDbEntity
  8
DIBUJOS
 62
     7
100
AcDbVertex
100
AcDb2dVertex
 10
38.65827950484144
 20
48.697926956409
 30
0.0
  0
VERTEX
  5
33F
330
33A
100
AcDbEntity
  8
DIBUJOS
 62
     7
100
AcDbVertex
100
AcDb2dVertex
 10
38.51442155800765
 20
49.18802074278858
 30
0.0
  0
VERTEX
  5
340
330
33A
100
AcDbEntity
  8
DIBUJOS
 62
     7
100
AcDbVertex
100
AcDb2dVertex
 10
38.35872444732874
 20
49.64934847866074
 30
0.0
  0
VERTEX
  5
341
330
33A
100
AcDbEntity
  8
DIBUJOS
 62
     7
100
AcDbVertex
100
AcDb2dVertex
 10
38.09634448845438
 20
50.3424932698826
 30
0.0
  0
VERTEX
  5
342
330
33A
100
AcDbEntity
  8
DIBUJOS
 62
     7
100
AcDbVertex
100
AcDb2dVertex
 10
37.95217923243831
 20
50.70002172195865
 30
0.0
  0
VERTEX
  5
343
330
33A
100
AcDbEntity
  8
DIBUJOS
 62
     7
100
AcDbVertex
100
AcDb2dVertex
 10
37.78264079203132
 20
51.07946539110512
 30
0.0
  0
VERTEX
  5
344
330
33A
100
AcDbEntity
  8
DIBUJOS
 62
     7
100
AcDbVertex
100
AcDb2dVertex
 10
37.75611597424042
 20
51.13251822041663
 30
0.0
  0
VERTEX
  5
345
330
33A
100
AcDbEntity
  8
DIBUJOS
 62
     7
100
AcDbVertex
100
AcDb2dVertex
 10
37.64983045508826
 20
51.33288414554698
 30
0.0
  0
VERTEX
  5
346
330
33A
100
AcDbEntity
  8
DIBUJOS
 62
     7
100
AcDbVertex
100
AcDb2dVertex
 10
37.61079598069156
 20
51.3972049972329
 30
0.0
  0
SEQEND
  5
347
330
33A
100
AcDbEntity
  8
DIBUJOS
 62
     7
  0
POLYLINE
  5
348
330
311
100
AcDbEntity
  8
DIBUJOS
 62
     7
100
AcDb2dPolyline
 66
     1
 10
0.0
 20
0.0
 30
0.0
  0
VERTEX
  5
349
330
348
100
AcDbEntity
  8
DIBUJOS
 62
     7
100
AcDbVertex
100
AcDb2dVertex
 10
38.82754788566449
 20
47.96031227853811
 30
0.0
  0
VERTEX
  5
34A
330
348
100
AcDbEntity
  8
DIBUJOS
 62
     7
100
AcDbVertex
100
AcDb2dVertex
 10
38.82178040626651
 20
48.0122103683664
 30
0.0
  0
SEQEND
  5
34B
330
348
100
AcDbEntity
  8
DIBUJOS
 62
     7
  0
POLYLINE
  5
34C
330
311
100
AcDbEntity
  8
DIBUJOS
 62
     7
100
AcDb2dPolyline
 66
     1
 10
0.0
 20
0.0
 30
0.0
  0
VERTEX
  5
34D
330
34C
100
AcDbEntity
  8
DIBUJOS
 62
     7
100
AcDbVertex
100
AcDb2dVertex
 10
38.84484721972499
 20
47.86804486888073
 30
0.0
  0
VERTEX
  5
34E
330
34C
100
AcDbEntity
  8
DIBUJOS
 62
     7
100
AcDbVertex
100
AcDb2dVertex
 10
38.83331536506215
 20
47.94877730026177
 30
0.0
  0
SEQEND
  5
34F
330
34C
100
AcDbEntity
  8
DIBUJOS
 62
     7
  0
POLYLINE
  5
350
330
311
100
AcDbEntity
  8
DIBUJOS
 62
     7
100
AcDb2dPolyline
 66
     1
 10
0.0
 20
0.0
 30
0.0
  0
VERTEX
  5
351
330
350
100
AcDbEntity
  8
DIBUJOS
 62
     7
100
AcDbVertex
100
AcDb2dVertex
 10
38.85061469912297
 20
47.85074550560464
 30
0.0
  0
VERTEX
  5
352
330
350
100
AcDbEntity
  8
DIBUJOS
 62
     7
100
AcDbVertex
100
AcDb2dVertex
 10
38.85061469912297
 20
47.85651299474264
 30
0.0
  0
SEQEND
  5
353
330
350
100
AcDbEntity
  8
DIBUJOS
 62
     7
  0
POLYLINE
  5
354
330
311
100
AcDbEntity
  8
DIBUJOS
 62
     7
100
AcDb2dPolyline
 66
     1
 10
0.0
 20
0.0
 30
0.0
  0
VERTEX
  5
355
330
354
100
AcDbEntity
  8
DIBUJOS
 62
     7
100
AcDbVertex
100
AcDb2dVertex
 10
38.85637907438783
 20
47.7930799266377
 30
0.0
  0
VERTEX
  5
356
330
354
100
AcDbEntity
  8
DIBUJOS
 62
     7
100
AcDbVertex
100
AcDb2dVertex
 10
38.85637907438783
 20
47.80461180077578
 30
0.0
  0
SEQEND
  5
357
330
354
100
AcDbEntity
  8
DIBUJOS
 62
     7
  0
POLYLINE
  5
358
330
311
100
AcDbEntity
  8
DIBUJOS
 62
     7
100
AcDb2dPolyline
 66
     1
 10
0.0
 20
0.0
 30
0.0
  0
VERTEX
  5
359
330
358
100
AcDbEntity
  8
DIBUJOS
 62
     7
100
AcDbVertex
100
AcDb2dVertex
 10
38.86214655378549
 20
47.76424558508526
 30
0.0
  0
VERTEX
  5
35A
330
358
100
AcDbEntity
  8
DIBUJOS
 62
     7
100
AcDbVertex
100
AcDb2dVertex
 10
38.86214655378549
 20
47.77001307422359
 30
0.0
  0
SEQEND
  5
35B
330
358
100
AcDbEntity
  8
DIBUJOS
 62
     7
  0
POLYLINE
  5
35C
330
311
100
AcDbEntity
  8
DIBUJOS
 62
     7
100
AcDb2dPolyline
 66
     1
 10
0.0
 20
0.0
 30
0.0
  0
VERTEX
  5
35D
330
35C
100
AcDbEntity
  8
DIBUJOS
 62
     7
100
AcDbVertex
100
AcDb2dVertex
 10
38.86791403318347
 20
47.73541434767139
 30
0.0
  0
VERTEX
  5
35E
330
35C
100
AcDbEntity
  8
DIBUJOS
 62
     7
100
AcDbVertex
100
AcDb2dVertex
 10
38.86791403318347
 20
47.74118028474028
 30
0.0
  0
SEQEND
  5
35F
330
35C
100
AcDbEntity
  8
DIBUJOS
 62
     7
  0
POLYLINE
  5
360
330
311
100
AcDbEntity
  8
DIBUJOS
 62
     7
100
AcDb2dPolyline
 66
     1
 10
0.0
 20
0.0
 30
0.0
  0
VERTEX
  5
361
330
360
100
AcDbEntity
  8
DIBUJOS
 62
     7
100
AcDbVertex
100
AcDb2dVertex
 10
38.8852133672443
 20
47.54511669542568
 30
0.0
  0
VERTEX
  5
362
330
360
100
AcDbEntity
  8
DIBUJOS
 62
     7
100
AcDbVertex
100
AcDb2dVertex
 10
38.90828018070277
 20
47.57971542197787
 30
0.0
  0
VERTEX
  5
363
330
360
100
AcDbEntity
  8
DIBUJOS
 62
     7
100
AcDbVertex
100
AcDb2dVertex
 10
38.90828018070277
 20
47.64891442715202
 30
0.0
  0
VERTEX
  5
364
330
360
100
AcDbEntity
  8
DIBUJOS
 62
     7
100
AcDbVertex
100
AcDb2dVertex
 10
38.8943239980475
 20
47.74660166244715
 30
0.0
  0
VERTEX
  5
365
330
360
100
AcDbEntity
  8
DIBUJOS
 62
     7
100
AcDbVertex
100
AcDb2dVertex
 10
38.87710847558208
 20
47.86188936244297
 30
0.0
  0
VERTEX
  5
366
330
360
100
AcDbEntity
  8
DIBUJOS
 62
     7
100
AcDbVertex
100
AcDb2dVertex
 10
38.7964972417369
 20
48.26549874899571
 30
0.0
  0
VERTEX
  5
367
330
360
100
AcDbEntity
  8
DIBUJOS
 62
     7
100
AcDbVertex
100
AcDb2dVertex
 10
38.75257996589075
 20
48.45623874096247
 30
0.0
  0
SEQEND
  5
368
330
360
100
AcDbEntity
  8
DIBUJOS
 62
     7
  0
POLYLINE
  5
369
330
311
100
AcDbEntity
  8
DIBUJOS
 62
     7
100
AcDb2dPolyline
 66
     1
 10
0.0
 20
0.0
 30
0.0
  0
VERTEX
  5
36A
330
369
100
AcDbEntity
  8
DIBUJOS
 62
     7
100
AcDbVertex
100
AcDb2dVertex
 10
38.80448107220569
 20
47.53934920628735
 30
0.0
  0
VERTEX
  5
36B
330
369
100
AcDbEntity
  8
DIBUJOS
 62
     7
100
AcDbVertex
100
AcDb2dVertex
 10
38.82703880782712
 20
47.54715145814392
 30
0.0
  0
VERTEX
  5
36C
330
369
100
AcDbEntity
  8
DIBUJOS
 62
     7
100
AcDbVertex
100
AcDb2dVertex
 10
38.87367840844833
 20
47.56818199577098
 30
0.0
  0
VERTEX
  5
36D
330
369
100
AcDbEntity
  8
DIBUJOS
 62
     7
100
AcDbVertex
100
AcDb2dVertex
 10
38.87944588784632
 20
47.5854829111162
 30
0.0
  0
SEQEND
  5
36E
330
369
100
AcDbEntity
  8
DIBUJOS
 62
     7
  0
POLYLINE
  5
36F
330
311
100
AcDbEntity
  8
DIBUJOS
 62
     7
100
AcDb2dPolyline
 66
     1
 10
0.0
 20
0.0
 30
0.0
  0
VERTEX
  5
370
330
36F
100
AcDbEntity
  8
DIBUJOS
 62
     7
100
AcDbVertex
100
AcDb2dVertex
 10
38.8852133672443
 20
47.53934920628735
 30
0.0
  0
VERTEX
  5
371
330
36F
100
AcDbEntity
  8
DIBUJOS
 62
     7
100
AcDbVertex
100
AcDb2dVertex
 10
38.87944588784632
 20
47.53934920628735
 30
0.0
  0
SEQEND
  5
372
330
36F
100
AcDbEntity
  8
DIBUJOS
 62
     7
  0
POLYLINE
  5
373
330
311
100
AcDbEntity
  8
DIBUJOS
 62
     7
100
AcDb2dPolyline
 66
     1
 10
0.0
 20
0.0
 30
0.0
  0
VERTEX
  5
374
330
373
100
AcDbEntity
  8
DIBUJOS
 62
     7
100
AcDbVertex
100
AcDb2dVertex
 10
38.8852133672443
 20
47.53934920628735
 30
0.0
  0
VERTEX
  5
375
330
373
100
AcDbEntity
  8
DIBUJOS
 62
     7
100
AcDbVertex
100
AcDb2dVertex
 10
38.8852133672443
 20
47.54511669542568
 30
0.0
  0
SEQEND
  5
376
330
373
100
AcDbEntity
  8
DIBUJOS
 62
     7
  0
POLYLINE
  5
377
330
311
100
AcDbEntity
  8
DIBUJOS
 62
     7
100
AcDb2dPolyline
 66
     1
 10
0.0
 20
0.0
 30
0.0
  0
VERTEX
  5
378
330
377
100
AcDbEntity
  8
DIBUJOS
 62
     7
100
AcDbVertex
100
AcDb2dVertex
 10
37.30516613459892
 20
47.52781578008014
 30
0.0
  0
VERTEX
  5
379
330
377
100
AcDbEntity
  8
DIBUJOS
 62
     7
100
AcDbVertex
100
AcDb2dVertex
 10
37.29940175933406
 20
47.52781578008014
 30
0.0
  0
SEQEND
  5
37A
330
377
100
AcDbEntity
  8
DIBUJOS
 62
     7
  0
POLYLINE
  5
37B
330
311
100
AcDbEntity
  8
DIBUJOS
 62
     7
100
AcDb2dPolyline
 66
     1
 10
0.0
 20
0.0
 30
0.0
  0
VERTEX
  5
37C
330
37B
100
AcDbEntity
  8
DIBUJOS
 62
     7
100
AcDbVertex
100
AcDb2dVertex
 10
37.3109336139969
 20
47.52781578008014
 30
0.0
  0
VERTEX
  5
37D
330
37B
100
AcDbEntity
  8
DIBUJOS
 62
     7
100
AcDbVertex
100
AcDb2dVertex
 10
37.30516613459892
 20
47.52781578008014
 30
0.0
  0
SEQEND
  5
37E
330
37B
100
AcDbEntity
  8
DIBUJOS
 62
     7
  0
POLYLINE
  5
37F
330
311
100
AcDbEntity
  8
DIBUJOS
 62
     7
100
AcDb2dPolyline
 66
     1
 10
0.0
 20
0.0
 30
0.0
  0
VERTEX
  5
380
330
37F
100
AcDbEntity
  8
DIBUJOS
 62
     7
100
AcDbVertex
100
AcDb2dVertex
 10
37.68576390046499
 20
47.52781578008014
 30
0.0
  0
VERTEX
  5
381
330
37F
100
AcDbEntity
  8
DIBUJOS
 62
     7
100
AcDbVertex
100
AcDb2dVertex
 10
37.67999642106733
 20
47.53358326921814
 30
0.0
  0
VERTEX
  5
382
330
37F
100
AcDbEntity
  8
DIBUJOS
 62
     7
100
AcDbVertex
100
AcDb2dVertex
 10
37.31670109339488
 20
47.53358326921814
 30
0.0
  0
VERTEX
  5
383
330
37F
100
AcDbEntity
  8
DIBUJOS
 62
     7
100
AcDbVertex
100
AcDb2dVertex
 10
37.3109336139969
 20
47.52781578008014
 30
0.0
  0
SEQEND
  5
384
330
37F
100
AcDbEntity
  8
DIBUJOS
 62
     7
  0
POLYLINE
  5
385
330
311
100
AcDbEntity
  8
DIBUJOS
 62
     7
100
AcDb2dPolyline
 66
     1
 10
0.0
 20
0.0
 30
0.0
  0
VERTEX
  5
386
330
385
100
AcDbEntity
  8
DIBUJOS
 62
     7
100
AcDbVertex
100
AcDb2dVertex
 10
37.69152827572985
 20
47.52781578008014
 30
0.0
  0
VERTEX
  5
387
330
385
100
AcDbEntity
  8
DIBUJOS
 62
     7
100
AcDbVertex
100
AcDb2dVertex
 10
37.68576390046499
 20
47.52781578008014
 30
0.0
  0
SEQEND
  5
388
330
385
100
AcDbEntity
  8
DIBUJOS
 62
     7
  0
POLYLINE
  5
389
330
311
100
AcDbEntity
  8
DIBUJOS
 62
     7
100
AcDb2dPolyline
 66
     1
 10
0.0
 20
0.0
 30
0.0
  0
VERTEX
  5
38A
330
389
100
AcDbEntity
  8
DIBUJOS
 62
     7
100
AcDbVertex
100
AcDb2dVertex
 10
37.69729575512783
 20
47.52781578008014
 30
0.0
  0
VERTEX
  5
38B
330
389
100
AcDbEntity
  8
DIBUJOS
 62
     7
100
AcDbVertex
100
AcDb2dVertex
 10
37.69152827572985
 20
47.52781578008014
 30
0.0
  0
SEQEND
  5
38C
330
389
100
AcDbEntity
  8
DIBUJOS
 62
     7
  0
POLYLINE
  5
38D
330
311
100
AcDbEntity
  8
DIBUJOS
 62
     7
100
AcDb2dPolyline
 66
     1
 10
0.0
 20
0.0
 30
0.0
  0
VERTEX
  5
38E
330
38D
100
AcDbEntity
  8
DIBUJOS
 62
     7
100
AcDbVertex
100
AcDb2dVertex
 10
37.69729575512783
 20
47.52781578008014
 30
0.0
  0
VERTEX
  5
38F
330
38D
100
AcDbEntity
  8
DIBUJOS
 62
     7
100
AcDbVertex
100
AcDb2dVertex
 10
38.80448107220569
 20
47.53934920628735
 30
0.0
  0
SEQEND
  5
390
330
38D
100
AcDbEntity
  8
DIBUJOS
 62
     7
  0
POLYLINE
  5
391
330
311
100
AcDbEntity
  8
DIBUJOS
 62
     7
100
AcDb2dPolyline
 66
     1
 10
0.0
 20
0.0
 30
0.0
  0
VERTEX
  5
392
330
391
100
AcDbEntity
  8
DIBUJOS
 62
     7
100
AcDbVertex
100
AcDb2dVertex
 10
38.80448107220569
 20
47.53934920628735
 30
0.0
  0
VERTEX
  5
393
330
391
100
AcDbEntity
  8
DIBUJOS
 62
     7
100
AcDbVertex
100
AcDb2dVertex
 10
38.81601292686853
 20
47.52781578008014
 30
0.0
  0
VERTEX
  5
394
330
391
100
AcDbEntity
  8
DIBUJOS
 62
     7
100
AcDbVertex
100
AcDb2dVertex
 10
38.84484721972499
 20
47.52781578008014
 30
0.0
  0
VERTEX
  5
395
330
391
100
AcDbEntity
  8
DIBUJOS
 62
     7
100
AcDbVertex
100
AcDb2dVertex
 10
38.8732376215408
 20
47.53580117610175
 30
0.0
  0
VERTEX
  5
396
330
391
100
AcDbEntity
  8
DIBUJOS
 62
     7
100
AcDbVertex
100
AcDb2dVertex
 10
38.87944588784632
 20
47.53934920628735
 30
0.0
  0
SEQEND
  5
397
330
391
100
AcDbEntity
  8
DIBUJOS
 62
     7
  0
POLYLINE
  5
398
330
311
100
AcDbEntity
  8
DIBUJOS
 62
     7
100
AcDb2dPolyline
 66
     1
 10
0.0
 20
0.0
 30
0.0
  0
VERTEX
  5
399
330
398
100
AcDbEntity
  8
DIBUJOS
 62
     7
100
AcDbVertex
100
AcDb2dVertex
 10
40.20576127658055
 20
47.52781578008014
 30
0.0
  0
VERTEX
  5
39A
330
398
100
AcDbEntity
  8
DIBUJOS
 62
     7
100
AcDbVertex
100
AcDb2dVertex
 10
38.8852133672443
 20
47.53934920628735
 30
0.0
  0
SEQEND
  5
39B
330
398
100
AcDbEntity
  8
DIBUJOS
 62
     7
  0
POLYLINE
  5
39C
330
311
100
AcDbEntity
  8
DIBUJOS
 62
     7
100
AcDb2dPolyline
 66
     1
 10
0.0
 20
0.0
 30
0.0
  0
VERTEX
  5
39D
330
39C
100
AcDbEntity
  8
DIBUJOS
 62
     7
100
AcDbVertex
100
AcDb2dVertex
 10
40.21152875597853
 20
47.52781578008014
 30
0.0
  0
VERTEX
  5
39E
330
39C
100
AcDbEntity
  8
DIBUJOS
 62
     7
100
AcDbVertex
100
AcDb2dVertex
 10
40.20576127658055
 20
47.52781578008014
 30
0.0
  0
SEQEND
  5
39F
330
39C
100
AcDbEntity
  8
DIBUJOS
 62
     7
  0
POLYLINE
  5
3A0
330
311
100
AcDbEntity
  8
DIBUJOS
 62
     7
100
AcDb2dPolyline
 66
     1
 10
0.0
 20
0.0
 30
0.0
  0
VERTEX
  5
3A1
330
3A0
100
AcDbEntity
  8
DIBUJOS
 62
     7
100
AcDbVertex
100
AcDb2dVertex
 10
40.21729623537651
 20
47.52781578008014
 30
0.0
  0
VERTEX
  5
3A2
330
3A0
100
AcDbEntity
  8
DIBUJOS
 62
     7
100
AcDbVertex
100
AcDb2dVertex
 10
40.21152875597853
 20
47.52781578008014
 30
0.0
  0
SEQEND
  5
3A3
330
3A0
100
AcDbEntity
  8
DIBUJOS
 62
     7
  0
POLYLINE
  5
3A4
330
311
100
AcDbEntity
  8
DIBUJOS
 62
     7
100
AcDb2dPolyline
 66
     1
 10
0.0
 20
0.0
 30
0.0
  0
VERTEX
  5
3A5
330
3A4
100
AcDbEntity
  8
DIBUJOS
 62
     7
100
AcDbVertex
100
AcDb2dVertex
 10
40.59212341771148
 20
47.52781578008014
 30
0.0
  0
VERTEX
  5
3A6
330
3A4
100
AcDbEntity
  8
DIBUJOS
 62
     7
100
AcDbVertex
100
AcDb2dVertex
 10
40.5863559383135
 20
47.53358326921814
 30
0.0
  0
VERTEX
  5
3A7
330
3A4
100
AcDbEntity
  8
DIBUJOS
 62
     7
100
AcDbVertex
100
AcDb2dVertex
 10
40.22306061064105
 20
47.53358326921814
 30
0.0
  0
VERTEX
  5
3A8
330
3A4
100
AcDbEntity
  8
DIBUJOS
 62
     7
100
AcDbVertex
100
AcDb2dVertex
 10
40.21729623537651
 20
47.52781578008014
 30
0.0
  0
SEQEND
  5
3A9
330
3A4
100
AcDbEntity
  8
DIBUJOS
 62
     7
  0
POLYLINE
  5
3AA
330
311
100
AcDbEntity
  8
DIBUJOS
 62
     7
100
AcDb2dPolyline
 66
     1
 10
0.0
 20
0.0
 30
0.0
  0
VERTEX
  5
3AB
330
3AA
100
AcDbEntity
  8
DIBUJOS
 62
     7
100
AcDbVertex
100
AcDb2dVertex
 10
40.59789089710947
 20
47.52781578008014
 30
0.0
  0
VERTEX
  5
3AC
330
3AA
100
AcDbEntity
  8
DIBUJOS
 62
     7
100
AcDbVertex
100
AcDb2dVertex
 10
40.59212341771148
 20
47.52781578008014
 30
0.0
  0
SEQEND
  5
3AD
330
3AA
100
AcDbEntity
  8
DIBUJOS
 62
     7
  0
POLYLINE
  5
3AE
330
311
100
AcDbEntity
  8
DIBUJOS
 62
     7
100
AcDb2dPolyline
 66
     1
 10
0.0
 20
0.0
 30
0.0
  0
VERTEX
  5
3AF
330
3AE
100
AcDbEntity
  8
DIBUJOS
 62
     7
100
AcDbVertex
100
AcDb2dVertex
 10
40.60365527237433
 20
47.52781578008014
 30
0.0
  0
VERTEX
  5
3B0
330
3AE
100
AcDbEntity
  8
DIBUJOS
 62
     7
100
AcDbVertex
100
AcDb2dVertex
 10
40.59789089710947
 20
47.52781578008014
 30
0.0
  0
SEQEND
  5
3B1
330
3AE
100
AcDbEntity
  8
DIBUJOS
 62
     7
  0
POLYLINE
  5
3B2
330
311
100
AcDbEntity
  8
DIBUJOS
 62
     7
100
AcDb2dPolyline
 66
     1
 10
0.0
 20
0.0
 30
0.0
  0
VERTEX
  5
3B3
330
3B2
100
AcDbEntity
  8
DIBUJOS
 62
     7
100
AcDbVertex
100
AcDb2dVertex
 10
40.60365527237433
 20
47.52781578008014
 30
0.0
  0
VERTEX
  5
3B4
330
3B2
100
AcDbEntity
  8
DIBUJOS
 62
     7
100
AcDbVertex
100
AcDb2dVertex
 10
41.05341312488534
 20
47.53642821205791
 30
0.0
  0
VERTEX
  5
3B5
330
3B2
100
AcDbEntity
  8
DIBUJOS
 62
     7
100
AcDbVertex
100
AcDb2dVertex
 10
41.09347196322235
 20
47.54177198630502
 30
0.0
  0
VERTEX
  5
3B6
330
3B2
100
AcDbEntity
  8
DIBUJOS
 62
     7
100
AcDbVertex
100
AcDb2dVertex
 10
41.10016137016655
 20
47.54396195594278
 30
0.0
  0
VERTEX
  5
3B7
330
3B2
100
AcDbEntity
  8
DIBUJOS
 62
     7
100
AcDbVertex
100
AcDb2dVertex
 10
41.12841519012335
 20
47.56241605870177
 30
0.0
  0
VERTEX
  5
3B8
330
3B2
100
AcDbEntity
  8
DIBUJOS
 62
     7
100
AcDbVertex
100
AcDb2dVertex
 10
41.12974686324596
 20
47.56729576425914
 30
0.0
  0
VERTEX
  5
3B9
330
3B2
100
AcDbEntity
  8
DIBUJOS
 62
     7
100
AcDbVertex
100
AcDb2dVertex
 10
41.14571762831729
 20
47.6027822743923
 30
0.0
  0
VERTEX
  5
3BA
330
3B2
100
AcDbEntity
  8
DIBUJOS
 62
     7
100
AcDbVertex
100
AcDb2dVertex
 10
41.14571762831729
 20
48.11024216302354
 30
0.0
  0
VERTEX
  5
3BB
330
3B2
100
AcDbEntity
  8
DIBUJOS
 62
     7
100
AcDbVertex
100
AcDb2dVertex
 10
41.13737992666884
 20
48.16765320264186
 30
0.0
  0
VERTEX
  5
3BC
330
3B2
100
AcDbEntity
  8
DIBUJOS
 62
     7
100
AcDbVertex
100
AcDb2dVertex
 10
41.11111585606285
 20
48.23134081009543
 30
0.0
  0
VERTEX
  5
3BD
330
3B2
100
AcDbEntity
  8
DIBUJOS
 62
     7
100
AcDbVertex
100
AcDb2dVertex
 10
41.10076667613114
 20
48.23852689048003
 30
0.0
  0
VERTEX
  5
3BE
330
3B2
100
AcDbEntity
  8
DIBUJOS
 62
     7
100
AcDbVertex
100
AcDb2dVertex
 10
41.06957013794552
 20
48.2645240495396
 30
0.0
  0
VERTEX
  5
3BF
330
3B2
100
AcDbEntity
  8
DIBUJOS
 62
     7
100
AcDbVertex
100
AcDb2dVertex
 10
41.04134115105397
 20
48.28208726457939
 30
0.0
  0
VERTEX
  5
3C0
330
3B2
100
AcDbEntity
  8
DIBUJOS
 62
     7
100
AcDbVertex
100
AcDb2dVertex
 10
41.03672840918877
 20
48.28439363940694
 30
0.0
  0
VERTEX
  5
3C1
330
3B2
100
AcDbEntity
  8
DIBUJOS
 62
     7
100
AcDbVertex
100
AcDb2dVertex
 10
40.9144752290984
 20
48.3391754738044
 30
0.0
  0
VERTEX
  5
3C2
330
3B2
100
AcDbEntity
  8
DIBUJOS
 62
     7
100
AcDbVertex
100
AcDb2dVertex
 10
40.86834470631455
 20
48.35647794121906
 30
0.0
  0
VERTEX
  5
3C3
330
3B2
100
AcDbEntity
  8
DIBUJOS
 62
     7
100
AcDbVertex
100
AcDb2dVertex
 10
40.64927982145424
 20
48.4138362104849
 30
0.0
  0
VERTEX
  5
3C4
330
3B2
100
AcDbEntity
  8
DIBUJOS
 62
     7
100
AcDbVertex
100
AcDb2dVertex
 10
40.56360264230354
 20
48.42989081426438
 30
0.0
  0
VERTEX
  5
3C5
330
3B2
100
AcDbEntity
  8
DIBUJOS
 62
     7
100
AcDbVertex
100
AcDb2dVertex
 10
40.29213067742436
 20
48.45926527589783
 30
0.0
  0
VERTEX
  5
3C6
330
3B2
100
AcDbEntity
  8
DIBUJOS
 62
     7
100
AcDbVertex
100
AcDb2dVertex
 10
39.99825618358145
 20
48.47055813137919
 30
0.0
  0
VERTEX
  5
3C7
330
3B2
100
AcDbEntity
  8
DIBUJOS
 62
     7
100
AcDbVertex
100
AcDb2dVertex
 10
39.33503951068449
 20
48.48215519242339
 30
0.0
  0
VERTEX
  5
3C8
330
3B2
100
AcDbEntity
  8
DIBUJOS
 62
     7
100
AcDbVertex
100
AcDb2dVertex
 10
38.74681559062588
 20
48.48507308251522
 30
0.0
  0
VERTEX
  5
3C9
330
3B2
100
AcDbEntity
  8
DIBUJOS
 62
     7
100
AcDbVertex
100
AcDb2dVertex
 10
38.57178283453828
 20
49.10735660245223
 30
0.0
  0
VERTEX
  5
3CA
330
3B2
100
AcDbEntity
  8
DIBUJOS
 62
     7
100
AcDbVertex
100
AcDb2dVertex
 10
38.54671385519622
 20
49.18340799313315
 30
0.0
  0
VERTEX
  5
3CB
330
3B2
100
AcDbEntity
  8
DIBUJOS
 62
     7
100
AcDbVertex
100
AcDb2dVertex
 10
38.38755563605208
 20
49.66088035279883
 30
0.0
  0
VERTEX
  5
3CC
330
3B2
100
AcDbEntity
  8
DIBUJOS
 62
     7
100
AcDbVertex
100
AcDb2dVertex
 10
38.27799215229077
 20
49.9549788409085
 30
0.0
  0
VERTEX
  5
3CD
330
3B2
100
AcDbEntity
  8
DIBUJOS
 62
     7
100
AcDbVertex
100
AcDb2dVertex
 10
38.01272845371711
 20
50.63543701850937
 30
0.0
  0
VERTEX
  5
3CE
330
3B2
100
AcDbEntity
  8
DIBUJOS
 62
     7
100
AcDbVertex
100
AcDb2dVertex
 10
37.90316186582236
 20
50.89493367592893
 30
0.0
  0
VERTEX
  5
3CF
330
3B2
100
AcDbEntity
  8
DIBUJOS
 62
     7
100
AcDbVertex
100
AcDb2dVertex
 10
37.7653414579705
 20
51.18326467490058
 30
0.0
  0
VERTEX
  5
3D0
330
3B2
100
AcDbEntity
  8
DIBUJOS
 62
     7
100
AcDbVertex
100
AcDb2dVertex
 10
37.66961619980415
 20
51.35741615128367
 30
0.0
  0
VERTEX
  5
3D1
330
3B2
100
AcDbEntity
  8
DIBUJOS
 62
     7
100
AcDbVertex
100
AcDb2dVertex
 10
37.57752898569285
 20
51.49612457547132
 30
0.0
  0
VERTEX
  5
3D2
330
3B2
100
AcDbEntity
  8
DIBUJOS
 62
     7
100
AcDbVertex
100
AcDb2dVertex
 10
37.50123249692994
 20
51.5932685865475
 30
0.0
  0
VERTEX
  5
3D3
330
3B2
100
AcDbEntity
  8
DIBUJOS
 62
     7
100
AcDbVertex
100
AcDb2dVertex
 10
37.46086634941095
 20
51.6336348022377
 30
0.0
  0
VERTEX
  5
3D4
330
3B2
100
AcDbEntity
  8
DIBUJOS
 62
     7
100
AcDbVertex
100
AcDb2dVertex
 10
37.33488820953701
 20
51.73299827226661
 30
0.0
  0
VERTEX
  5
3D5
330
3B2
100
AcDbEntity
  8
DIBUJOS
 62
     7
100
AcDbVertex
100
AcDb2dVertex
 10
37.24646387254601
 20
51.79371521927586
 30
0.0
  0
VERTEX
  5
3D6
330
3B2
100
AcDbEntity
  8
DIBUJOS
 62
     7
100
AcDbVertex
100
AcDb2dVertex
 10
37.10276113236993
 20
51.87467735689793
 30
0.0
  0
VERTEX
  5
3D7
330
3B2
100
AcDbEntity
  8
DIBUJOS
 62
     7
100
AcDbVertex
100
AcDb2dVertex
 10
37.09814839050473
 20
51.87698683586405
 30
0.0
  0
VERTEX
  5
3D8
330
3B2
100
AcDbEntity
  8
DIBUJOS
 62
     7
100
AcDbVertex
100
AcDb2dVertex
 10
36.93668380042816
 20
51.94676165871005
 30
0.0
  0
VERTEX
  5
3D9
330
3B2
100
AcDbEntity
  8
DIBUJOS
 62
     7
100
AcDbVertex
100
AcDb2dVertex
 10
36.76266299174841
 20
52.00047877363832
 30
0.0
  0
VERTEX
  5
3DA
330
3B2
100
AcDbEntity
  8
DIBUJOS
 62
     7
100
AcDbVertex
100
AcDb2dVertex
 10
36.59626593409189
 20
52.03386688621656
 30
0.0
  0
VERTEX
  5
3DB
330
3B2
100
AcDbEntity
  8
DIBUJOS
 62
     7
100
AcDbVertex
100
AcDb2dVertex
 10
36.54974429053068
 20
52.04306444828125
 30
0.0
  0
VERTEX
  5
3DC
330
3B2
100
AcDbEntity
  8
DIBUJOS
 62
     7
100
AcDbVertex
100
AcDb2dVertex
 10
36.14031533594126
 20
52.04306444828125
 30
0.0
  0
VERTEX
  5
3DD
330
3B2
100
AcDbEntity
  8
DIBUJOS
 62
     7
100
AcDbVertex
100
AcDb2dVertex
 10
36.12454323539157
 20
52.03475156565895
 30
0.0
  0
VERTEX
  5
3DE
330
3B2
100
AcDbEntity
  8
DIBUJOS
 62
     7
100
AcDbVertex
100
AcDb2dVertex
 10
36.10392558299077
 20
52.02417266200859
 30
0.0
  0
VERTEX
  5
3DF
330
3B2
100
AcDbEntity
  8
DIBUJOS
 62
     7
100
AcDbVertex
100
AcDb2dVertex
 10
36.05958304090297
 20
52.01423010672882
 30
0.0
  0
VERTEX
  5
3E0
330
3B2
100
AcDbEntity
  8
DIBUJOS
 62
     7
100
AcDbVertex
100
AcDb2dVertex
 10
36.03075185217931
 20
51.9796313801763
 30
0.0
  0
VERTEX
  5
3E1
330
3B2
100
AcDbEntity
  8
DIBUJOS
 62
     7
100
AcDbVertex
100
AcDb2dVertex
 10
36.03075185217931
 20
51.92773018620976
 30
0.0
  0
VERTEX
  5
3E2
330
3B2
100
AcDbEntity
  8
DIBUJOS
 62
     7
100
AcDbVertex
100
AcDb2dVertex
 10
36.23492000203942
 20
50.57296933744514
 30
0.0
  0
VERTEX
  5
3E3
330
3B2
100
AcDbEntity
  8
DIBUJOS
 62
     7
100
AcDbVertex
100
AcDb2dVertex
 10
36.26476003403719
 20
50.37040257819316
 30
0.0
  0
VERTEX
  5
3E4
330
3B2
100
AcDbEntity
  8
DIBUJOS
 62
     7
100
AcDbVertex
100
AcDb2dVertex
 10
36.65931087842574
 20
47.59124884818508
 30
0.0
  0
VERTEX
  5
3E5
330
3B2
100
AcDbEntity
  8
DIBUJOS
 62
     7
100
AcDbVertex
100
AcDb2dVertex
 10
36.68814206714877
 20
47.56241605870177
 30
0.0
  0
VERTEX
  5
3E6
330
3B2
100
AcDbEntity
  8
DIBUJOS
 62
     7
100
AcDbVertex
100
AcDb2dVertex
 10
36.70595047904632
 20
47.55868488435081
 30
0.0
  0
VERTEX
  5
3E7
330
3B2
100
AcDbEntity
  8
DIBUJOS
 62
     7
100
AcDbVertex
100
AcDb2dVertex
 10
36.72154874813928
 20
47.55366704463494
 30
0.0
  0
VERTEX
  5
3E8
330
3B2
100
AcDbEntity
  8
DIBUJOS
 62
     7
100
AcDbVertex
100
AcDb2dVertex
 10
36.75191958690655
 20
47.54177198630502
 30
0.0
  0
VERTEX
  5
3E9
330
3B2
100
AcDbEntity
  8
DIBUJOS
 62
     7
100
AcDbVertex
100
AcDb2dVertex
 10
37.29940175933406
 20
47.52781578008014
 30
0.0
  0
SEQEND
  5
3EA
330
3B2
100
AcDbEntity
  8
DIBUJOS
 62
     7
  0
POLYLINE
  5
3EB
330
311
100
AcDbEntity
  8
DIBUJOS
 62
     7
100
AcDb2dPolyline
 66
     1
 10
0.0
 20
0.0
 30
0.0
  0
VERTEX
  5
3EC
330
3EB
100
AcDbEntity
  8
DIBUJOS
 62
     7
100
AcDbVertex
100
AcDb2dVertex
 10
37.30516613459892
 20
47.52204984301125
 30
0.0
  0
VERTEX
  5
3ED
330
3EB
100
AcDbEntity
  8
DIBUJOS
 62
     7
100
AcDbVertex
100
AcDb2dVertex
 10
37.30516613459892
 20
47.52781578008014
 30
0.0
  0
SEQEND
  5
3EE
330
3EB
100
AcDbEntity
  8
DIBUJOS
 62
     7
  0
POLYLINE
  5
3EF
330
311
100
AcDbEntity
  8
DIBUJOS
 62
     7
100
AcDb2dPolyline
 66
     1
 10
0.0
 20
0.0
 30
0.0
  0
VERTEX
  5
3F0
330
3EF
100
AcDbEntity
  8
DIBUJOS
 62
     7
100
AcDbVertex
100
AcDb2dVertex
 10
37.69152827572985
 20
47.52204984301125
 30
0.0
  0
VERTEX
  5
3F1
330
3EF
100
AcDbEntity
  8
DIBUJOS
 62
     7
100
AcDbVertex
100
AcDb2dVertex
 10
37.69152827572985
 20
47.52781578008014
 30
0.0
  0
SEQEND
  5
3F2
330
3EF
100
AcDbEntity
  8
DIBUJOS
 62
     7
  0
POLYLINE
  5
3F3
330
311
100
AcDbEntity
  8
DIBUJOS
 62
     7
100
AcDb2dPolyline
 66
     1
 10
0.0
 20
0.0
 30
0.0
  0
VERTEX
  5
3F4
330
3F3
100
AcDbEntity
  8
DIBUJOS
 62
     7
100
AcDbVertex
100
AcDb2dVertex
 10
40.21152875597853
 20
47.52204984301125
 30
0.0
  0
VERTEX
  5
3F5
330
3F3
100
AcDbEntity
  8
DIBUJOS
 62
     7
100
AcDbVertex
100
AcDb2dVertex
 10
40.21152875597853
 20
47.52781578008014
 30
0.0
  0
SEQEND
  5
3F6
330
3F3
100
AcDbEntity
  8
DIBUJOS
 62
     7
  0
POLYLINE
  5
3F7
330
311
100
AcDbEntity
  8
DIBUJOS
 62
     7
100
AcDb2dPolyline
 66
     1
 10
0.0
 20
0.0
 30
0.0
  0
VERTEX
  5
3F8
330
3F7
100
AcDbEntity
  8
DIBUJOS
 62
     7
100
AcDbVertex
100
AcDb2dVertex
 10
40.59789089710947
 20
47.52204984301125
 30
0.0
  0
VERTEX
  5
3F9
330
3F7
100
AcDbEntity
  8
DIBUJOS
 62
     7
100
AcDbVertex
100
AcDb2dVertex
 10
40.59789089710947
 20
47.52781578008014
 30
0.0
  0
SEQEND
  5
3FA
330
3F7
100
AcDbEntity
  8
DIBUJOS
 62
     7
  0
POLYLINE
  5
3FB
330
311
100
AcDbEntity
  8
DIBUJOS
 62
     7
100
AcDb2dPolyline
 66
     1
 10
0.0
 20
0.0
 30
0.0
  0
VERTEX
  5
3FC
330
3FB
100
AcDbEntity
  8
DIBUJOS
 62
     7
100
AcDbVertex
100
AcDb2dVertex
 10
37.30516613459892
 20
47.52204984301125
 30
0.0
  0
VERTEX
  5
3FD
330
3FB
100
AcDbEntity
  8
DIBUJOS
 62
     7
100
AcDbVertex
100
AcDb2dVertex
 10
37.28431877634468
 20
47.41204073035642
 30
0.0
  0
VERTEX
  5
3FE
330
3FB
100
AcDbEntity
  8
DIBUJOS
 62
     7
100
AcDbVertex
100
AcDb2dVertex
 10
36.45748014082955
 20
43.2086338053322
 30
0.0
  0
VERTEX
  5
3FF
330
3FB
100
AcDbEntity
  8
DIBUJOS
 62
     7
100
AcDbVertex
100
AcDb2dVertex
 10
36.46843462672584
 20
43.20171312877977
 30
0.0
  0
VERTEX
  5
400
330
3FB
100
AcDbEntity
  8
DIBUJOS
 62
     7
100
AcDbVertex
100
AcDb2dVertex
 10
36.68814206714877
 20
43.19710037912466
 30
0.0
  0
VERTEX
  5
401
330
3FB
100
AcDbEntity
  8
DIBUJOS
 62
     7
100
AcDbVertex
100
AcDb2dVertex
 10
36.70544140120927
 20
43.21439974240076
 30
0.0
  0
VERTEX
  5
402
330
3FB
100
AcDbEntity
  8
DIBUJOS
 62
     7
100
AcDbVertex
100
AcDb2dVertex
 10
36.81873915715381
 20
43.71660277266037
 30
0.0
  0
VERTEX
  5
403
330
3FB
100
AcDbEntity
  8
DIBUJOS
 62
     7
100
AcDbVertex
100
AcDb2dVertex
 10
37.69152827572985
 20
47.52204984301125
 30
0.0
  0
SEQEND
  5
404
330
3FB
100
AcDbEntity
  8
DIBUJOS
 62
     7
  0
POLYLINE
  5
405
330
311
100
AcDbEntity
  8
DIBUJOS
 62
     7
100
AcDb2dPolyline
 66
     1
 10
0.0
 20
0.0
 30
0.0
  0
VERTEX
  5
406
330
405
100
AcDbEntity
  8
DIBUJOS
 62
     7
100
AcDbVertex
100
AcDb2dVertex
 10
40.21152875597853
 20
47.52204984301125
 30
0.0
  0
VERTEX
  5
407
330
405
100
AcDbEntity
  8
DIBUJOS
 62
     7
100
AcDbVertex
100
AcDb2dVertex
 10
40.61847129991256
 20
44.24631002116944
 30
0.0
  0
VERTEX
  5
408
330
405
100
AcDbEntity
  8
DIBUJOS
 62
     7
100
AcDbVertex
100
AcDb2dVertex
 10
40.7478205283904
 20
43.2086338053322
 30
0.0
  0
VERTEX
  5
409
330
405
100
AcDbEntity
  8
DIBUJOS
 62
     7
100
AcDbVertex
100
AcDb2dVertex
 10
40.75877811841981
 20
43.20171312877977
 30
0.0
  0
VERTEX
  5
40A
330
405
100
AcDbEntity
  8
DIBUJOS
 62
     7
100
AcDbVertex
100
AcDb2dVertex
 10
40.7651198624509
 20
43.19710037912466
 30
0.0
  0
VERTEX
  5
40B
330
405
100
AcDbEntity
  8
DIBUJOS
 62
     7
100
AcDbVertex
100
AcDb2dVertex
 10
40.97848555884273
 20
43.19710037912466
 30
0.0
  0
VERTEX
  5
40C
330
405
100
AcDbEntity
  8
DIBUJOS
 62
     7
100
AcDbVertex
100
AcDb2dVertex
 10
40.99001741350526
 20
43.2086338053322
 30
0.0
  0
VERTEX
  5
40D
330
405
100
AcDbEntity
  8
DIBUJOS
 62
     7
100
AcDbVertex
100
AcDb2dVertex
 10
40.99001741350526
 20
43.26053189516048
 30
0.0
  0
VERTEX
  5
40E
330
405
100
AcDbEntity
  8
DIBUJOS
 62
     7
100
AcDbVertex
100
AcDb2dVertex
 10
40.61258896758802
 20
47.35458157659267
 30
0.0
  0
VERTEX
  5
40F
330
405
100
AcDbEntity
  8
DIBUJOS
 62
     7
100
AcDbVertex
100
AcDb2dVertex
 10
40.59789089710947
 20
47.52204984301125
 30
0.0
  0
SEQEND
  5
410
330
405
100
AcDbEntity
  8
DIBUJOS
 62
     7
  0
ENDBLK
  5
314
330
311
100
AcDbEntity
  8
0
100
AcDbBlockEnd
  0
BLOCK
  5
413
330
411
100
AcDbEntity
  8
0
100
AcDbBlockBegin
  2
BLOCK_4
 70
     0
 10
0.0
 20
0.0
 30
0.0
  3
BLOCK_4
  1

  0
POLYLINE
  5
415
330
411
100
AcDbEntity
  8
DIBUJOS
 62
     7
100
AcDb2dPolyline
 66
     1
 10
0.0
 20
0.0
 30
0.0
  0
VERTEX
  5
416
330
415
100
AcDbEntity
  8
DIBUJOS
 62
     7
100
AcDbVertex
100
AcDb2dVertex
 10
24.28875369403006
 20
35.05453540536391
 30
0.0
  0
VERTEX
  5
417
330
415
100
AcDbEntity
  8
DIBUJOS
 62
     7
100
AcDbVertex
100
AcDb2dVertex
 10
24.38678532312917
 20
35.06606883157144
 30
0.0
  0
SEQEND
  5
418
330
415
100
AcDbEntity
  8
DIBUJOS
 62
     7
  0
POLYLINE
  5
419
330
411
100
AcDbEntity
  8
DIBUJOS
 62
     7
100
AcDb2dPolyline
 66
     1
 10
0.0
 20
0.0
 30
0.0
  0
VERTEX
  5
41A
330
419
100
AcDbEntity
  8
DIBUJOS
 62
     7
100
AcDbVertex
100
AcDb2dVertex
 10
24.95191138839749
 20
35.04876946829471
 30
0.0
  0
VERTEX
  5
41B
330
419
100
AcDbEntity
  8
DIBUJOS
 62
     7
100
AcDbVertex
100
AcDb2dVertex
 10
24.79621272565202
 20
35.06606883157144
 30
0.0
  0
SEQEND
  5
41C
330
419
100
AcDbEntity
  8
DIBUJOS
 62
     7
  0
POLYLINE
  5
41D
330
411
100
AcDbEntity
  8
DIBUJOS
 62
     7
100
AcDb2dPolyline
 66
     1
 10
0.0
 20
0.0
 30
0.0
  0
VERTEX
  5
41E
330
41D
100
AcDbEntity
  8
DIBUJOS
 62
     7
100
AcDbVertex
100
AcDb2dVertex
 10
24.19072051286471
 20
35.04300197915637
 30
0.0
  0
VERTEX
  5
41F
330
41D
100
AcDbEntity
  8
DIBUJOS
 62
     7
100
AcDbVertex
100
AcDb2dVertex
 10
24.16765525147279
 20
35.04300197915637
 30
0.0
  0
SEQEND
  5
420
330
41D
100
AcDbEntity
  8
DIBUJOS
 62
     7
  0
POLYLINE
  5
421
330
411
100
AcDbEntity
  8
DIBUJOS
 62
     7
100
AcDb2dPolyline
 66
     1
 10
0.0
 20
0.0
 30
0.0
  0
VERTEX
  5
422
330
421
100
AcDbEntity
  8
DIBUJOS
 62
     7
100
AcDbVertex
100
AcDb2dVertex
 10
24.20225391959379
 20
35.04300197915637
 30
0.0
  0
VERTEX
  5
423
330
421
100
AcDbEntity
  8
DIBUJOS
 62
     7
100
AcDbVertex
100
AcDb2dVertex
 10
24.27722028730098
 20
35.05453540536391
 30
0.0
  0
SEQEND
  5
424
330
421
100
AcDbEntity
  8
DIBUJOS
 62
     7
  0
POLYLINE
  5
425
330
411
100
AcDbEntity
  8
DIBUJOS
 62
     7
100
AcDb2dPolyline
 66
     1
 10
0.0
 20
0.0
 30
0.0
  0
VERTEX
  5
426
330
425
100
AcDbEntity
  8
DIBUJOS
 62
     7
100
AcDbVertex
100
AcDb2dVertex
 10
24.97497664978942
 20
35.04300197915637
 30
0.0
  0
VERTEX
  5
427
330
425
100
AcDbEntity
  8
DIBUJOS
 62
     7
100
AcDbVertex
100
AcDb2dVertex
 10
24.96344479512657
 20
35.04876946829471
 30
0.0
  0
SEQEND
  5
428
330
425
100
AcDbEntity
  8
DIBUJOS
 62
     7
  0
POLYLINE
  5
429
330
411
100
AcDbEntity
  8
DIBUJOS
 62
     7
100
AcDb2dPolyline
 66
     1
 10
0.0
 20
0.0
 30
0.0
  0
VERTEX
  5
42A
330
429
100
AcDbEntity
  8
DIBUJOS
 62
     7
100
AcDbVertex
100
AcDb2dVertex
 10
24.9980434632479
 20
35.04300197915637
 30
0.0
  0
VERTEX
  5
42B
330
429
100
AcDbEntity
  8
DIBUJOS
 62
     7
100
AcDbVertex
100
AcDb2dVertex
 10
24.9865100565185
 20
35.04300197915637
 30
0.0
  0
SEQEND
  5
42C
330
429
100
AcDbEntity
  8
DIBUJOS
 62
     7
  0
POLYLINE
  5
42D
330
411
100
AcDbEntity
  8
DIBUJOS
 62
     7
100
AcDb2dPolyline
 66
     1
 10
0.0
 20
0.0
 30
0.0
  0
VERTEX
  5
42E
330
42D
100
AcDbEntity
  8
DIBUJOS
 62
     7
100
AcDbVertex
100
AcDb2dVertex
 10
25.03264368343546
 20
35.03723604208717
 30
0.0
  0
VERTEX
  5
42F
330
42D
100
AcDbEntity
  8
DIBUJOS
 62
     7
100
AcDbVertex
100
AcDb2dVertex
 10
25.02687620403748
 20
35.03723604208717
 30
0.0
  0
SEQEND
  5
430
330
42D
100
AcDbEntity
  8
DIBUJOS
 62
     7
  0
POLYLINE
  5
431
330
411
100
AcDbEntity
  8
DIBUJOS
 62
     7
100
AcDb2dPolyline
 66
     1
 10
0.0
 20
0.0
 30
0.0
  0
VERTEX
  5
432
330
431
100
AcDbEntity
  8
DIBUJOS
 62
     7
100
AcDbVertex
100
AcDb2dVertex
 10
24.17342117880389
 20
34.98533640018976
 30
0.0
  0
VERTEX
  5
433
330
431
100
AcDbEntity
  8
DIBUJOS
 62
     7
100
AcDbVertex
100
AcDb2dVertex
 10
24.2306970916732
 20
34.99344130553941
 30
0.0
  0
VERTEX
  5
434
330
431
100
AcDbEntity
  8
DIBUJOS
 62
     7
100
AcDbVertex
100
AcDb2dVertex
 10
24.40388133646803
 20
35.01104797851693
 30
0.0
  0
VERTEX
  5
435
330
431
100
AcDbEntity
  8
DIBUJOS
 62
     7
100
AcDbVertex
100
AcDb2dVertex
 10
24.45021828410663
 20
35.01416918967339
 30
0.0
  0
SEQEND
  5
436
330
431
100
AcDbEntity
  8
DIBUJOS
 62
     7
  0
POLYLINE
  5
437
330
411
100
AcDbEntity
  8
DIBUJOS
 62
     7
100
AcDb2dPolyline
 66
     1
 10
0.0
 20
0.0
 30
0.0
  0
VERTEX
  5
438
330
437
100
AcDbEntity
  8
DIBUJOS
 62
     7
100
AcDbVertex
100
AcDb2dVertex
 10
25.00381094264588
 20
34.98533640018976
 30
0.0
  0
VERTEX
  5
439
330
437
100
AcDbEntity
  8
DIBUJOS
 62
     7
100
AcDbVertex
100
AcDb2dVertex
 10
24.98035456047658
 20
34.98876492104763
 30
0.0
  0
VERTEX
  5
43A
330
437
100
AcDbEntity
  8
DIBUJOS
 62
     7
100
AcDbVertex
100
AcDb2dVertex
 10
24.7844232279377
 20
35.01160051515159
 30
0.0
  0
VERTEX
  5
43B
330
437
100
AcDbEntity
  8
DIBUJOS
 62
     7
100
AcDbVertex
100
AcDb2dVertex
 10
24.73278131674079
 20
35.01416918967339
 30
0.0
  0
SEQEND
  5
43C
330
437
100
AcDbEntity
  8
DIBUJOS
 62
     7
  0
POLYLINE
  5
43D
330
411
100
AcDbEntity
  8
DIBUJOS
 62
     7
100
AcDb2dPolyline
 66
     1
 10
0.0
 20
0.0
 30
0.0
  0
VERTEX
  5
43E
330
43D
100
AcDbEntity
  8
DIBUJOS
 62
     7
100
AcDbVertex
100
AcDb2dVertex
 10
26.84335284240006
 20
32.59219780031054
 30
0.0
  0
VERTEX
  5
43F
330
43D
100
AcDbEntity
  8
DIBUJOS
 62
     7
100
AcDbVertex
100
AcDb2dVertex
 10
26.84113493926237
 20
32.6148207609348
 30
0.0
  0
VERTEX
  5
440
330
43D
100
AcDbEntity
  8
DIBUJOS
 62
     7
100
AcDbVertex
100
AcDb2dVertex
 10
26.79518445620115
 20
32.83388601575707
 30
0.0
  0
VERTEX
  5
441
330
43D
100
AcDbEntity
  8
DIBUJOS
 62
     7
100
AcDbVertex
100
AcDb2dVertex
 10
26.73551680873776
 20
33.06563478006272
 30
0.0
  0
VERTEX
  5
442
330
43D
100
AcDbEntity
  8
DIBUJOS
 62
     7
100
AcDbVertex
100
AcDb2dVertex
 10
26.68592517748869
 20
33.21441458127295
 30
0.0
  0
VERTEX
  5
443
330
43D
100
AcDbEntity
  8
DIBUJOS
 62
     7
100
AcDbVertex
100
AcDb2dVertex
 10
26.56540255163078
 20
33.49121060196827
 30
0.0
  0
VERTEX
  5
444
330
43D
100
AcDbEntity
  8
DIBUJOS
 62
     7
100
AcDbVertex
100
AcDb2dVertex
 10
26.40912807218563
 20
33.81990626456101
 30
0.0
  0
VERTEX
  5
445
330
43D
100
AcDbEntity
  8
DIBUJOS
 62
     7
100
AcDbVertex
100
AcDb2dVertex
 10
26.24824085087561
 20
34.13707005301663
 30
0.0
  0
VERTEX
  5
446
330
43D
100
AcDbEntity
  8
DIBUJOS
 62
     7
100
AcDbVertex
100
AcDb2dVertex
 10
26.15251559270926
 20
34.29968810319281
 30
0.0
  0
VERTEX
  5
447
330
43D
100
AcDbEntity
  8
DIBUJOS
 62
     7
100
AcDbVertex
100
AcDb2dVertex
 10
26.0200606790121
 20
34.49606210634612
 30
0.0
  0
VERTEX
  5
448
330
43D
100
AcDbEntity
  8
DIBUJOS
 62
     7
100
AcDbVertex
100
AcDb2dVertex
 10
25.91635003831009
 20
34.62898907277237
 30
0.0
  0
VERTEX
  5
449
330
43D
100
AcDbEntity
  8
DIBUJOS
 62
     7
100
AcDbVertex
100
AcDb2dVertex
 10
25.83419915442099
 20
34.71430631656364
 30
0.0
  0
VERTEX
  5
44A
330
43D
100
AcDbEntity
  8
DIBUJOS
 62
     7
100
AcDbVertex
100
AcDb2dVertex
 10
25.73527974324025
 20
34.78217519843515
 30
0.0
  0
VERTEX
  5
44B
330
43D
100
AcDbEntity
  8
DIBUJOS
 62
     7
100
AcDbVertex
100
AcDb2dVertex
 10
25.62025919339604
 20
34.8452078326867
 30
0.0
  0
VERTEX
  5
44C
330
43D
100
AcDbEntity
  8
DIBUJOS
 62
     7
100
AcDbVertex
100
AcDb2dVertex
 10
25.49454645690669
 20
34.90056703682577
 30
0.0
  0
VERTEX
  5
44D
330
43D
100
AcDbEntity
  8
DIBUJOS
 62
     7
100
AcDbVertex
100
AcDb2dVertex
 10
25.2743314907136
 20
34.97753414833415
 30
0.0
  0
VERTEX
  5
44E
330
43D
100
AcDbEntity
  8
DIBUJOS
 62
     7
100
AcDbVertex
100
AcDb2dVertex
 10
25.04994301749628
 20
35.03723604208717
 30
0.0
  0
SEQEND
  5
44F
330
43D
100
AcDbEntity
  8
DIBUJOS
 62
     7
  0
POLYLINE
  5
450
330
411
100
AcDbEntity
  8
DIBUJOS
 62
     7
100
AcDb2dPolyline
 66
     1
 10
0.0
 20
0.0
 30
0.0
  0
VERTEX
  5
451
330
450
100
AcDbEntity
  8
DIBUJOS
 62
     7
100
AcDbVertex
100
AcDb2dVertex
 10
22.33964520638113
 20
32.58643031117222
 30
0.0
  0
VERTEX
  5
452
330
450
100
AcDbEntity
  8
DIBUJOS
 62
     7
100
AcDbVertex
100
AcDb2dVertex
 10
22.3419841707116
 20
32.61487508335674
 30
0.0
  0
VERTEX
  5
453
330
450
100
AcDbEntity
  8
DIBUJOS
 62
     7
100
AcDbVertex
100
AcDb2dVertex
 10
22.38781359257971
 20
32.83388601575707
 30
0.0
  0
VERTEX
  5
454
330
450
100
AcDbEntity
  8
DIBUJOS
 62
     7
100
AcDbVertex
100
AcDb2dVertex
 10
22.44748124004311
 20
33.05986884299352
 30
0.0
  0
VERTEX
  5
455
330
450
100
AcDbEntity
  8
DIBUJOS
 62
     7
100
AcDbVertex
100
AcDb2dVertex
 10
22.49707442335905
 20
33.20864709213462
 30
0.0
  0
VERTEX
  5
456
330
450
100
AcDbEntity
  8
DIBUJOS
 62
     7
100
AcDbVertex
100
AcDb2dVertex
 10
22.62336142448152
 20
33.49697653903748
 30
0.0
  0
VERTEX
  5
457
330
450
100
AcDbEntity
  8
DIBUJOS
 62
     7
100
AcDbVertex
100
AcDb2dVertex
 10
22.77963590392666
 20
33.82567375369934
 30
0.0
  0
VERTEX
  5
458
330
450
100
AcDbEntity
  8
DIBUJOS
 62
     7
100
AcDbVertex
100
AcDb2dVertex
 10
22.94070161289307
 20
34.14252557624616
 30
0.0
  0
VERTEX
  5
459
330
450
100
AcDbEntity
  8
DIBUJOS
 62
     7
100
AcDbVertex
100
AcDb2dVertex
 10
23.0418389272115
 20
34.31153194323937
 30
0.0
  0
VERTEX
  5
45A
330
450
100
AcDbEntity
  8
DIBUJOS
 62
     7
100
AcDbVertex
100
AcDb2dVertex
 10
23.17141941360902
 20
34.50567096674872
 30
0.0
  0
VERTEX
  5
45B
330
450
100
AcDbEntity
  8
DIBUJOS
 62
     7
100
AcDbVertex
100
AcDb2dVertex
 10
23.18595141296397
 20
34.52504699861102
 30
0.0
  0
VERTEX
  5
45C
330
450
100
AcDbEntity
  8
DIBUJOS
 62
     7
100
AcDbVertex
100
AcDb2dVertex
 10
23.27383407871957
 20
34.63933982225115
 30
0.0
  0
VERTEX
  5
45D
330
450
100
AcDbEntity
  8
DIBUJOS
 62
     7
100
AcDbVertex
100
AcDb2dVertex
 10
23.3487988943602
 20
34.71430631656364
 30
0.0
  0
VERTEX
  5
45E
330
450
100
AcDbEntity
  8
DIBUJOS
 62
     7
100
AcDbVertex
100
AcDb2dVertex
 10
23.37290404035834
 20
34.73022278618429
 30
0.0
  0
VERTEX
  5
45F
330
450
100
AcDbEntity
  8
DIBUJOS
 62
     7
100
AcDbVertex
100
AcDb2dVertex
 10
23.45925171227002
 20
34.78794113550371
 30
0.0
  0
VERTEX
  5
460
330
450
100
AcDbEntity
  8
DIBUJOS
 62
     7
100
AcDbVertex
100
AcDb2dVertex
 10
23.5512070007223
 20
34.8394418956175
 30
0.0
  0
VERTEX
  5
461
330
450
100
AcDbEntity
  8
DIBUJOS
 62
     7
100
AcDbVertex
100
AcDb2dVertex
 10
23.71728433266408
 20
34.91152464536114
 30
0.0
  0
VERTEX
  5
462
330
450
100
AcDbEntity
  8
DIBUJOS
 62
     7
100
AcDbVertex
100
AcDb2dVertex
 10
23.88451485007207
 20
34.96976604199993
 30
0.0
  0
VERTEX
  5
463
330
450
100
AcDbEntity
  8
DIBUJOS
 62
     7
100
AcDbVertex
100
AcDb2dVertex
 10
23.91911507025996
 20
34.98129946820746
 30
0.0
  0
VERTEX
  5
464
330
450
100
AcDbEntity
  8
DIBUJOS
 62
     7
100
AcDbVertex
100
AcDb2dVertex
 10
24.10371321265796
 20
35.0277373785982
 30
0.0
  0
VERTEX
  5
465
330
450
100
AcDbEntity
  8
DIBUJOS
 62
     7
100
AcDbVertex
100
AcDb2dVertex
 10
24.15612184474339
 20
35.03723604208717
 30
0.0
  0
SEQEND
  5
466
330
450
100
AcDbEntity
  8
DIBUJOS
 62
     7
  0
POLYLINE
  5
467
330
411
100
AcDbEntity
  8
DIBUJOS
 62
     7
100
AcDb2dPolyline
 66
     1
 10
0.0
 20
0.0
 30
0.0
  0
VERTEX
  5
468
330
467
100
AcDbEntity
  8
DIBUJOS
 62
     7
100
AcDbVertex
100
AcDb2dVertex
 10
22.32811335171829
 20
32.52876473220623
 30
0.0
  0
VERTEX
  5
469
330
467
100
AcDbEntity
  8
DIBUJOS
 62
     7
100
AcDbVertex
100
AcDb2dVertex
 10
22.33387927904971
 20
32.57489843703444
 30
0.0
  0
SEQEND
  5
46A
330
467
100
AcDbEntity
  8
DIBUJOS
 62
     7
  0
POLYLINE
  5
46B
330
411
100
AcDbEntity
  8
DIBUJOS
 62
     7
100
AcDb2dPolyline
 66
     1
 10
0.0
 20
0.0
 30
0.0
  0
VERTEX
  5
46C
330
46B
100
AcDbEntity
  8
DIBUJOS
 62
     7
100
AcDbVertex
100
AcDb2dVertex
 10
26.85488624912914
 20
32.52876473220623
 30
0.0
  0
VERTEX
  5
46D
330
46B
100
AcDbEntity
  8
DIBUJOS
 62
     7
100
AcDbVertex
100
AcDb2dVertex
 10
26.84911876973116
 20
32.58066437410365
 30
0.0
  0
SEQEND
  5
46E
330
46B
100
AcDbEntity
  8
DIBUJOS
 62
     7
  0
POLYLINE
  5
46F
330
411
100
AcDbEntity
  8
DIBUJOS
 62
     7
100
AcDb2dPolyline
 66
     1
 10
0.0
 20
0.0
 30
0.0
  0
VERTEX
  5
470
330
46F
100
AcDbEntity
  8
DIBUJOS
 62
     7
100
AcDbVertex
100
AcDb2dVertex
 10
22.31657994498888
 20
32.46533321617041
 30
0.0
  0
VERTEX
  5
471
330
46F
100
AcDbEntity
  8
DIBUJOS
 62
     7
100
AcDbVertex
100
AcDb2dVertex
 10
22.32234587232063
 20
32.5114653689295
 30
0.0
  0
SEQEND
  5
472
330
46F
100
AcDbEntity
  8
DIBUJOS
 62
     7
  0
POLYLINE
  5
473
330
411
100
AcDbEntity
  8
DIBUJOS
 62
     7
100
AcDb2dPolyline
 66
     1
 10
0.0
 20
0.0
 30
0.0
  0
VERTEX
  5
474
330
473
100
AcDbEntity
  8
DIBUJOS
 62
     7
100
AcDbVertex
100
AcDb2dVertex
 10
22.36847949923759
 20
32.46533321617041
 30
0.0
  0
VERTEX
  5
475
330
473
100
AcDbEntity
  8
DIBUJOS
 62
     7
100
AcDbVertex
100
AcDb2dVertex
 10
22.41703279794731
 20
32.70718439888208
 30
0.0
  0
VERTEX
  5
476
330
473
100
AcDbEntity
  8
DIBUJOS
 62
     7
100
AcDbVertex
100
AcDb2dVertex
 10
22.48584522167882
 20
32.99535087851916
 30
0.0
  0
VERTEX
  5
477
330
473
100
AcDbEntity
  8
DIBUJOS
 62
     7
100
AcDbVertex
100
AcDb2dVertex
 10
22.53397946241282
 20
33.14636721144313
 30
0.0
  0
VERTEX
  5
478
330
473
100
AcDbEntity
  8
DIBUJOS
 62
     7
100
AcDbVertex
100
AcDb2dVertex
 10
22.61528912621765
 20
33.34819828989638
 30
0.0
  0
VERTEX
  5
479
330
473
100
AcDbEntity
  8
DIBUJOS
 62
     7
100
AcDbVertex
100
AcDb2dVertex
 10
22.78251964362565
 20
33.70572829404123
 30
0.0
  0
VERTEX
  5
47A
330
473
100
AcDbEntity
  8
DIBUJOS
 62
     7
100
AcDbVertex
100
AcDb2dVertex
 10
22.99836709447288
 20
34.13099215003862
 30
0.0
  0
VERTEX
  5
47B
330
473
100
AcDbEntity
  8
DIBUJOS
 62
     7
100
AcDbVertex
100
AcDb2dVertex
 10
23.08814948971829
 20
34.28238718784759
 30
0.0
  0
VERTEX
  5
47C
330
473
100
AcDbEntity
  8
DIBUJOS
 62
     7
100
AcDbVertex
100
AcDb2dVertex
 10
23.23784941514579
 20
34.50198014619659
 30
0.0
  0
VERTEX
  5
47D
330
473
100
AcDbEntity
  8
DIBUJOS
 62
     7
100
AcDbVertex
100
AcDb2dVertex
 10
23.30266681950979
 20
34.58744173242287
 30
0.0
  0
VERTEX
  5
47E
330
473
100
AcDbEntity
  8
DIBUJOS
 62
     7
100
AcDbVertex
100
AcDb2dVertex
 10
23.38916504187918
 20
34.67394010087311
 30
0.0
  0
VERTEX
  5
47F
330
473
100
AcDbEntity
  8
DIBUJOS
 62
     7
100
AcDbVertex
100
AcDb2dVertex
 10
23.43633544926925
 20
34.70715593377051
 30
0.0
  0
VERTEX
  5
480
330
473
100
AcDbEntity
  8
DIBUJOS
 62
     7
100
AcDbVertex
100
AcDb2dVertex
 10
23.49961785978932
 20
34.74757491981319
 30
0.0
  0
VERTEX
  5
481
330
473
100
AcDbEntity
  8
DIBUJOS
 62
     7
100
AcDbVertex
100
AcDb2dVertex
 10
23.59733907557303
 20
34.79965149759979
 30
0.0
  0
VERTEX
  5
482
330
473
100
AcDbEntity
  8
DIBUJOS
 62
     7
100
AcDbVertex
100
AcDb2dVertex
 10
23.7230502599955
 20
34.85385751432475
 30
0.0
  0
VERTEX
  5
483
330
473
100
AcDbEntity
  8
DIBUJOS
 62
     7
100
AcDbVertex
100
AcDb2dVertex
 10
23.94218188371844
 20
34.9293998263094
 30
0.0
  0
VERTEX
  5
484
330
473
100
AcDbEntity
  8
DIBUJOS
 62
     7
100
AcDbVertex
100
AcDb2dVertex
 10
24.16188777207481
 20
34.98533640018976
 30
0.0
  0
SEQEND
  5
485
330
473
100
AcDbEntity
  8
DIBUJOS
 62
     7
  0
POLYLINE
  5
486
330
411
100
AcDbEntity
  8
DIBUJOS
 62
     7
100
AcDb2dPolyline
 66
     1
 10
0.0
 20
0.0
 30
0.0
  0
VERTEX
  5
487
330
486
100
AcDbEntity
  8
DIBUJOS
 62
     7
100
AcDbVertex
100
AcDb2dVertex
 10
26.86641810379198
 20
32.45956572703209
 30
0.0
  0
VERTEX
  5
488
330
486
100
AcDbEntity
  8
DIBUJOS
 62
     7
100
AcDbVertex
100
AcDb2dVertex
 10
26.86065217646056
 20
32.5172313059987
 30
0.0
  0
SEQEND
  5
489
330
486
100
AcDbEntity
  8
DIBUJOS
 62
     7
  0
POLYLINE
  5
48A
330
411
100
AcDbEntity
  8
DIBUJOS
 62
     7
100
AcDb2dPolyline
 66
     1
 10
0.0
 20
0.0
 30
0.0
  0
VERTEX
  5
48B
330
48A
100
AcDbEntity
  8
DIBUJOS
 62
     7
100
AcDbVertex
100
AcDb2dVertex
 10
22.31081246559091
 20
32.44226636375598
 30
0.0
  0
VERTEX
  5
48C
330
48A
100
AcDbEntity
  8
DIBUJOS
 62
     7
100
AcDbVertex
100
AcDb2dVertex
 10
22.31081246559091
 20
32.45379978996288
 30
0.0
  0
SEQEND
  5
48D
330
48A
100
AcDbEntity
  8
DIBUJOS
 62
     7
  0
POLYLINE
  5
48E
330
411
100
AcDbEntity
  8
DIBUJOS
 62
     7
100
AcDb2dPolyline
 66
     1
 10
0.0
 20
0.0
 30
0.0
  0
VERTEX
  5
48F
330
48E
100
AcDbEntity
  8
DIBUJOS
 62
     7
100
AcDbVertex
100
AcDb2dVertex
 10
26.87218558318996
 20
32.44226636375598
 30
0.0
  0
VERTEX
  5
490
330
48E
100
AcDbEntity
  8
DIBUJOS
 62
     7
100
AcDbVertex
100
AcDb2dVertex
 10
26.87218558318996
 20
32.44803230082519
 30
0.0
  0
SEQEND
  5
491
330
48E
100
AcDbEntity
  8
DIBUJOS
 62
     7
  0
POLYLINE
  5
492
330
411
100
AcDbEntity
  8
DIBUJOS
 62
     7
100
AcDb2dPolyline
 66
     1
 10
0.0
 20
0.0
 30
0.0
  0
VERTEX
  5
493
330
492
100
AcDbEntity
  8
DIBUJOS
 62
     7
100
AcDbVertex
100
AcDb2dVertex
 10
22.31081246559091
 20
32.42496700047925
 30
0.0
  0
VERTEX
  5
494
330
492
100
AcDbEntity
  8
DIBUJOS
 62
     7
100
AcDbVertex
100
AcDb2dVertex
 10
22.31081246559091
 20
32.4307329375491
 30
0.0
  0
SEQEND
  5
495
330
492
100
AcDbEntity
  8
DIBUJOS
 62
     7
  0
POLYLINE
  5
496
330
411
100
AcDbEntity
  8
DIBUJOS
 62
     7
100
AcDb2dPolyline
 66
     1
 10
0.0
 20
0.0
 30
0.0
  0
VERTEX
  5
497
330
496
100
AcDbEntity
  8
DIBUJOS
 62
     7
100
AcDbVertex
100
AcDb2dVertex
 10
22.36271201983961
 20
32.41919951134156
 30
0.0
  0
VERTEX
  5
498
330
496
100
AcDbEntity
  8
DIBUJOS
 62
     7
100
AcDbVertex
100
AcDb2dVertex
 10
22.36847949923759
 20
32.45379978996288
 30
0.0
  0
SEQEND
  5
499
330
496
100
AcDbEntity
  8
DIBUJOS
 62
     7
  0
POLYLINE
  5
49A
330
411
100
AcDbEntity
  8
DIBUJOS
 62
     7
100
AcDb2dPolyline
 66
     1
 10
0.0
 20
0.0
 30
0.0
  0
VERTEX
  5
49B
330
49A
100
AcDbEntity
  8
DIBUJOS
 62
     7
100
AcDbVertex
100
AcDb2dVertex
 10
26.82028602894158
 20
32.41919951134156
 30
0.0
  0
VERTEX
  5
49C
330
49A
100
AcDbEntity
  8
DIBUJOS
 62
     7
100
AcDbVertex
100
AcDb2dVertex
 10
26.76635171541157
 20
32.7127873686855
 30
0.0
  0
VERTEX
  5
49D
330
49A
100
AcDbEntity
  8
DIBUJOS
 62
     7
100
AcDbVertex
100
AcDb2dVertex
 10
26.70091814061643
 20
32.99066983781937
 30
0.0
  0
VERTEX
  5
49E
330
49A
100
AcDbEntity
  8
DIBUJOS
 62
     7
100
AcDbVertex
100
AcDb2dVertex
 10
26.64325110697039
 20
33.16943406385755
 30
0.0
  0
VERTEX
  5
49F
330
49A
100
AcDbEntity
  8
DIBUJOS
 62
     7
100
AcDbVertex
100
AcDb2dVertex
 10
26.56770892256354
 20
33.35396577903406
 30
0.0
  0
VERTEX
  5
4A0
330
49A
100
AcDbEntity
  8
DIBUJOS
 62
     7
100
AcDbVertex
100
AcDb2dVertex
 10
26.38894499842614
 20
33.73456108352486
 30
0.0
  0
VERTEX
  5
4A1
330
49A
100
AcDbEntity
  8
DIBUJOS
 62
     7
100
AcDbVertex
100
AcDb2dVertex
 10
26.20769621570023
 20
34.09639342348643
 30
0.0
  0
VERTEX
  5
4A2
330
49A
100
AcDbEntity
  8
DIBUJOS
 62
     7
100
AcDbVertex
100
AcDb2dVertex
 10
26.11809230811121
 20
34.24809887513443
 30
0.0
  0
VERTEX
  5
4A3
330
49A
100
AcDbEntity
  8
DIBUJOS
 62
     7
100
AcDbVertex
100
AcDb2dVertex
 10
25.99427930111135
 20
34.43647196157456
 30
0.0
  0
VERTEX
  5
4A4
330
49A
100
AcDbEntity
  8
DIBUJOS
 62
     7
100
AcDbVertex
100
AcDb2dVertex
 10
25.9105716944462
 20
34.54820076690027
 30
0.0
  0
VERTEX
  5
4A5
330
49A
100
AcDbEntity
  8
DIBUJOS
 62
     7
100
AcDbVertex
100
AcDb2dVertex
 10
25.88609870866938
 20
34.58167424328518
 30
0.0
  0
VERTEX
  5
4A6
330
49A
100
AcDbEntity
  8
DIBUJOS
 62
     7
100
AcDbVertex
100
AcDb2dVertex
 10
25.78806707957059
 20
34.67970603794232
 30
0.0
  0
VERTEX
  5
4A7
330
49A
100
AcDbEntity
  8
DIBUJOS
 62
     7
100
AcDbVertex
100
AcDb2dVertex
 10
25.71221448184832
 20
34.73027555653709
 30
0.0
  0
VERTEX
  5
4A8
330
49A
100
AcDbEntity
  8
DIBUJOS
 62
     7
100
AcDbVertex
100
AcDb2dVertex
 10
25.58565897320816
 20
34.79965149759979
 30
0.0
  0
VERTEX
  5
4A9
330
49A
100
AcDbEntity
  8
DIBUJOS
 62
     7
100
AcDbVertex
100
AcDb2dVertex
 10
25.58104623134296
 20
34.80195787242734
 30
0.0
  0
VERTEX
  5
4AA
330
49A
100
AcDbEntity
  8
DIBUJOS
 62
     7
100
AcDbVertex
100
AcDb2dVertex
 10
25.41381416186841
 20
34.87115842966998
 30
0.0
  0
VERTEX
  5
4AB
330
49A
100
AcDbEntity
  8
DIBUJOS
 62
     7
100
AcDbVertex
100
AcDb2dVertex
 10
25.27534809432113
 20
34.91817215773417
 30
0.0
  0
VERTEX
  5
4AC
330
49A
100
AcDbEntity
  8
DIBUJOS
 62
     7
100
AcDbVertex
100
AcDb2dVertex
 10
25.23505023773133
 20
34.9293998263094
 30
0.0
  0
VERTEX
  5
4AD
330
49A
100
AcDbEntity
  8
DIBUJOS
 62
     7
100
AcDbVertex
100
AcDb2dVertex
 10
25.05621802266475
 20
34.97583928876991
 30
0.0
  0
VERTEX
  5
4AE
330
49A
100
AcDbEntity
  8
DIBUJOS
 62
     7
100
AcDbVertex
100
AcDb2dVertex
 10
25.01534434937496
 20
34.98533640018976
 30
0.0
  0
SEQEND
  5
4AF
330
49A
100
AcDbEntity
  8
DIBUJOS
 62
     7
  0
POLYLINE
  5
4B0
330
411
100
AcDbEntity
  8
DIBUJOS
 62
     7
100
AcDb2dPolyline
 66
     1
 10
0.0
 20
0.0
 30
0.0
  0
VERTEX
  5
4B1
330
4B0
100
AcDbEntity
  8
DIBUJOS
 62
     7
100
AcDbVertex
100
AcDb2dVertex
 10
26.82028602894158
 20
32.39036672185793
 30
0.0
  0
VERTEX
  5
4B2
330
4B0
100
AcDbEntity
  8
DIBUJOS
 62
     7
100
AcDbVertex
100
AcDb2dVertex
 10
26.71648692044449
 20
32.48839851651507
 30
0.0
  0
VERTEX
  5
4B3
330
4B0
100
AcDbEntity
  8
DIBUJOS
 62
     7
100
AcDbVertex
100
AcDb2dVertex
 10
26.57947358721261
 20
32.6624351397778
 30
0.0
  0
VERTEX
  5
4B4
330
4B0
100
AcDbEntity
  8
DIBUJOS
 62
     7
100
AcDbVertex
100
AcDb2dVertex
 10
26.56788741021992
 20
32.67958395234175
 30
0.0
  0
VERTEX
  5
4B5
330
4B0
100
AcDbEntity
  8
DIBUJOS
 62
     7
100
AcDbVertex
100
AcDb2dVertex
 10
26.52157684771281
 20
32.76000596988312
 30
0.0
  0
VERTEX
  5
4B6
330
4B0
100
AcDbEntity
  8
DIBUJOS
 62
     7
100
AcDbVertex
100
AcDb2dVertex
 10
26.47313684986341
 20
32.85688457712681
 30
0.0
  0
VERTEX
  5
4B7
330
4B0
100
AcDbEntity
  8
DIBUJOS
 62
     7
100
AcDbVertex
100
AcDb2dVertex
 10
26.36645555373421
 20
33.14060127437392
 30
0.0
  0
VERTEX
  5
4B8
330
4B0
100
AcDbEntity
  8
DIBUJOS
 62
     7
100
AcDbVertex
100
AcDb2dVertex
 10
26.3260894062149
 20
33.2501664952386
 30
0.0
  0
VERTEX
  5
4B9
330
4B0
100
AcDbEntity
  8
DIBUJOS
 62
     7
100
AcDbVertex
100
AcDb2dVertex
 10
26.27361403526653
 20
33.37703263144849
 30
0.0
  0
VERTEX
  5
4BA
330
4B0
100
AcDbEntity
  8
DIBUJOS
 62
     7
100
AcDbVertex
100
AcDb2dVertex
 10
26.2276573439394
 20
33.46960735080697
 30
0.0
  0
VERTEX
  5
4BB
330
4B0
100
AcDbEntity
  8
DIBUJOS
 62
     7
100
AcDbVertex
100
AcDb2dVertex
 10
26.13844455712742
 20
33.61184828448803
 30
0.0
  0
VERTEX
  5
4BC
330
4B0
100
AcDbEntity
  8
DIBUJOS
 62
     7
100
AcDbVertex
100
AcDb2dVertex
 10
26.12391255777247
 20
33.63122431635033
 30
0.0
  0
VERTEX
  5
4BD
330
4B0
100
AcDbEntity
  8
DIBUJOS
 62
     7
100
AcDbVertex
100
AcDb2dVertex
 10
25.97259693103909
 20
33.8204836343023
 30
0.0
  0
VERTEX
  5
4BE
330
4B0
100
AcDbEntity
  8
DIBUJOS
 62
     7
100
AcDbVertex
100
AcDb2dVertex
 10
25.84573256115039
 20
33.94734821844371
 30
0.0
  0
VERTEX
  5
4BF
330
4B0
100
AcDbEntity
  8
DIBUJOS
 62
     7
100
AcDbVertex
100
AcDb2dVertex
 10
25.66062534091503
 20
34.05576025189365
 30
0.0
  0
VERTEX
  5
4C0
330
4B0
100
AcDbEntity
  8
DIBUJOS
 62
     7
100
AcDbVertex
100
AcDb2dVertex
 10
25.56432271398213
 20
34.10535351896415
 30
0.0
  0
VERTEX
  5
4C1
330
4B0
100
AcDbEntity
  8
DIBUJOS
 62
     7
100
AcDbVertex
100
AcDb2dVertex
 10
25.42996186252924
 20
34.16474965508616
 30
0.0
  0
VERTEX
  5
4C2
330
4B0
100
AcDbEntity
  8
DIBUJOS
 62
     7
100
AcDbVertex
100
AcDb2dVertex
 10
25.40112912173966
 20
34.17685889896586
 30
0.0
  0
VERTEX
  5
4C3
330
4B0
100
AcDbEntity
  8
DIBUJOS
 62
     7
100
AcDbVertex
100
AcDb2dVertex
 10
25.26849727245299
 20
34.22241523405278
 30
0.0
  0
VERTEX
  5
4C4
330
4B0
100
AcDbEntity
  8
DIBUJOS
 62
     7
100
AcDbVertex
100
AcDb2dVertex
 10
25.24081771712931
 20
34.23164228543276
 30
0.0
  0
VERTEX
  5
4C5
330
4B0
100
AcDbEntity
  8
DIBUJOS
 62
     7
100
AcDbVertex
100
AcDb2dVertex
 10
25.13023142149391
 20
34.26229410001508
 30
0.0
  0
VERTEX
  5
4C6
330
4B0
100
AcDbEntity
  8
DIBUJOS
 62
     7
100
AcDbVertex
100
AcDb2dVertex
 10
25.03891868860425
 20
34.28384613289271
 30
0.0
  0
VERTEX
  5
4C7
330
4B0
100
AcDbEntity
  8
DIBUJOS
 62
     7
100
AcDbVertex
100
AcDb2dVertex
 10
24.83106903682483
 20
34.31321438624934
 30
0.0
  0
VERTEX
  5
4C8
330
4B0
100
AcDbEntity
  8
DIBUJOS
 62
     7
100
AcDbVertex
100
AcDb2dVertex
 10
24.56554924726624
 20
34.32794352293451
 30
0.0
  0
VERTEX
  5
4C9
330
4B0
100
AcDbEntity
  8
DIBUJOS
 62
     7
100
AcDbVertex
100
AcDb2dVertex
 10
24.30056802480962
 20
34.30811273479689
 30
0.0
  0
VERTEX
  5
4CA
330
4B0
100
AcDbEntity
  8
DIBUJOS
 62
     7
100
AcDbVertex
100
AcDb2dVertex
 10
24.26026706408671
 20
34.30245544257154
 30
0.0
  0
VERTEX
  5
4CB
330
4B0
100
AcDbEntity
  8
DIBUJOS
 62
     7
100
AcDbVertex
100
AcDb2dVertex
 10
24.0527666272876
 20
34.26229410001508
 30
0.0
  0
VERTEX
  5
4CC
330
4B0
100
AcDbEntity
  8
DIBUJOS
 62
     7
100
AcDbVertex
100
AcDb2dVertex
 10
24.04604773107815
 20
34.2607808325474
 30
0.0
  0
VERTEX
  5
4CD
330
4B0
100
AcDbEntity
  8
DIBUJOS
 62
     7
100
AcDbVertex
100
AcDb2dVertex
 10
23.82223662662707
 20
34.19358244456915
 30
0.0
  0
VERTEX
  5
4CE
330
4B0
100
AcDbEntity
  8
DIBUJOS
 62
     7
100
AcDbVertex
100
AcDb2dVertex
 10
23.69537070467182
 20
34.14168280267173
 30
0.0
  0
VERTEX
  5
4CF
330
4B0
100
AcDbEntity
  8
DIBUJOS
 62
     7
100
AcDbVertex
100
AcDb2dVertex
 10
23.60310500290413
 20
34.09612646758482
 30
0.0
  0
VERTEX
  5
4D0
330
4B0
100
AcDbEntity
  8
DIBUJOS
 62
     7
100
AcDbVertex
100
AcDb2dVertex
 10
23.50392018833912
 20
34.04653475258343
 30
0.0
  0
VERTEX
  5
4D1
330
4B0
100
AcDbEntity
  8
DIBUJOS
 62
     7
100
AcDbVertex
100
AcDb2dVertex
 10
23.33149956029937
 20
33.94158228137451
 30
0.0
  0
VERTEX
  5
4D2
330
4B0
100
AcDbEntity
  8
DIBUJOS
 62
     7
100
AcDbVertex
100
AcDb2dVertex
 10
23.2277004518026
 20
33.83778299757904
 30
0.0
  0
VERTEX
  5
4D3
330
4B0
100
AcDbEntity
  8
DIBUJOS
 62
     7
100
AcDbVertex
100
AcDb2dVertex
 10
23.14838674561513
 20
33.74433601533084
 30
0.0
  0
VERTEX
  5
4D4
330
4B0
100
AcDbEntity
  8
DIBUJOS
 62
     7
100
AcDbVertex
100
AcDb2dVertex
 10
23.06756753484864
 20
33.6408316246838
 30
0.0
  0
VERTEX
  5
4D5
330
4B0
100
AcDbEntity
  8
DIBUJOS
 62
     7
100
AcDbVertex
100
AcDb2dVertex
 10
23.03873324199218
 20
33.60046540899263
 30
0.0
  0
VERTEX
  5
4D6
330
4B0
100
AcDbEntity
  8
DIBUJOS
 62
     7
100
AcDbVertex
100
AcDb2dVertex
 10
22.9497517131002
 20
33.45776351076041
 30
0.0
  0
VERTEX
  5
4D7
330
4B0
100
AcDbEntity
  8
DIBUJOS
 62
     7
100
AcDbVertex
100
AcDb2dVertex
 10
22.90361808618324
 20
33.35973171610327
 30
0.0
  0
VERTEX
  5
4D8
330
4B0
100
AcDbEntity
  8
DIBUJOS
 62
     7
100
AcDbVertex
100
AcDb2dVertex
 10
22.8603697510315
 20
33.25478079696283
 30
0.0
  0
VERTEX
  5
4D9
330
4B0
100
AcDbEntity
  8
DIBUJOS
 62
     7
100
AcDbVertex
100
AcDb2dVertex
 10
22.81423612411422
 20
33.12791466075358
 30
0.0
  0
VERTEX
  5
4DA
330
4B0
100
AcDbEntity
  8
DIBUJOS
 62
     7
100
AcDbVertex
100
AcDb2dVertex
 10
22.71332075531676
 20
32.86380525367924
 30
0.0
  0
VERTEX
  5
4DB
330
4B0
100
AcDbEntity
  8
DIBUJOS
 62
     7
100
AcDbVertex
100
AcDb2dVertex
 10
22.6694950513988
 20
32.77615214574576
 30
0.0
  0
VERTEX
  5
4DC
330
4B0
100
AcDbEntity
  8
DIBUJOS
 62
     7
100
AcDbVertex
100
AcDb2dVertex
 10
22.60929194096656
 20
32.66820107684636
 30
0.0
  0
VERTEX
  5
4DD
330
4B0
100
AcDbEntity
  8
DIBUJOS
 62
     7
100
AcDbVertex
100
AcDb2dVertex
 10
22.57171640915149
 20
32.6199053396256
 30
0.0
  0
VERTEX
  5
4DE
330
4B0
100
AcDbEntity
  8
DIBUJOS
 62
     7
100
AcDbVertex
100
AcDb2dVertex
 10
22.4722770556678
 20
32.4941660056534
 30
0.0
  0
VERTEX
  5
4DF
330
4B0
100
AcDbEntity
  8
DIBUJOS
 62
     7
100
AcDbVertex
100
AcDb2dVertex
 10
22.36271201983961
 20
32.39036672185793
 30
0.0
  0
SEQEND
  5
4E0
330
4B0
100
AcDbEntity
  8
DIBUJOS
 62
     7
  0
POLYLINE
  5
4E1
330
411
100
AcDbEntity
  8
DIBUJOS
 62
     7
100
AcDb2dPolyline
 66
     1
 10
0.0
 20
0.0
 30
0.0
  0
VERTEX
  5
4E2
330
4E1
100
AcDbEntity
  8
DIBUJOS
 62
     7
100
AcDbVertex
100
AcDb2dVertex
 10
26.82605195627268
 20
32.39036672185793
 30
0.0
  0
VERTEX
  5
4E3
330
4E1
100
AcDbEntity
  8
DIBUJOS
 62
     7
100
AcDbVertex
100
AcDb2dVertex
 10
26.82028602894158
 20
32.39036672185793
 30
0.0
  0
SEQEND
  5
4E4
330
4E1
100
AcDbEntity
  8
DIBUJOS
 62
     7
  0
POLYLINE
  5
4E5
330
411
100
AcDbEntity
  8
DIBUJOS
 62
     7
100
AcDb2dPolyline
 66
     1
 10
0.0
 20
0.0
 30
0.0
  0
VERTEX
  5
4E6
330
4E5
100
AcDbEntity
  8
DIBUJOS
 62
     7
100
AcDbVertex
100
AcDb2dVertex
 10
26.82028602894158
 20
32.38460078478937
 30
0.0
  0
VERTEX
  5
4E7
330
4E5
100
AcDbEntity
  8
DIBUJOS
 62
     7
100
AcDbVertex
100
AcDb2dVertex
 10
26.82028602894158
 20
32.39036672185793
 30
0.0
  0
SEQEND
  5
4E8
330
4E5
100
AcDbEntity
  8
DIBUJOS
 62
     7
  0
POLYLINE
  5
4E9
330
411
100
AcDbEntity
  8
DIBUJOS
 62
     7
100
AcDb2dPolyline
 66
     1
 10
0.0
 20
0.0
 30
0.0
  0
VERTEX
  5
4EA
330
4E9
100
AcDbEntity
  8
DIBUJOS
 62
     7
100
AcDbVertex
100
AcDb2dVertex
 10
22.2646803907405
 20
32.30963429047689
 30
0.0
  0
VERTEX
  5
4EB
330
4E9
100
AcDbEntity
  8
DIBUJOS
 62
     7
100
AcDbVertex
100
AcDb2dVertex
 10
22.25891291134284
 20
32.30963429047689
 30
0.0
  0
VERTEX
  5
4EC
330
4E9
100
AcDbEntity
  8
DIBUJOS
 62
     7
100
AcDbVertex
100
AcDb2dVertex
 10
22.25891291134284
 20
32.31540022754609
 30
0.0
  0
SEQEND
  5
4ED
330
4E9
100
AcDbEntity
  8
DIBUJOS
 62
     7
  0
POLYLINE
  5
4EE
330
411
100
AcDbEntity
  8
DIBUJOS
 62
     7
100
AcDb2dPolyline
 66
     1
 10
0.0
 20
0.0
 30
0.0
  0
VERTEX
  5
4EF
330
4EE
100
AcDbEntity
  8
DIBUJOS
 62
     7
100
AcDbVertex
100
AcDb2dVertex
 10
22.32234587232063
 20
32.2808015009939
 30
0.0
  0
VERTEX
  5
4F0
330
4EE
100
AcDbEntity
  8
DIBUJOS
 62
     7
100
AcDbVertex
100
AcDb2dVertex
 10
22.3258954485806
 20
32.29277881899159
 30
0.0
  0
VERTEX
  5
4F1
330
4EE
100
AcDbEntity
  8
DIBUJOS
 62
     7
100
AcDbVertex
100
AcDb2dVertex
 10
22.34541268577911
 20
32.37883329565104
 30
0.0
  0
VERTEX
  5
4F2
330
4EE
100
AcDbEntity
  8
DIBUJOS
 62
     7
100
AcDbVertex
100
AcDb2dVertex
 10
22.35694609250819
 20
32.39036672185793
 30
0.0
  0
VERTEX
  5
4F3
330
4EE
100
AcDbEntity
  8
DIBUJOS
 62
     7
100
AcDbVertex
100
AcDb2dVertex
 10
22.36271201983961
 20
32.39036672185793
 30
0.0
  0
SEQEND
  5
4F4
330
4EE
100
AcDbEntity
  8
DIBUJOS
 62
     7
  0
POLYLINE
  5
4F5
330
411
100
AcDbEntity
  8
DIBUJOS
 62
     7
100
AcDb2dPolyline
 66
     1
 10
0.0
 20
0.0
 30
0.0
  0
VERTEX
  5
4F6
330
4F5
100
AcDbEntity
  8
DIBUJOS
 62
     7
100
AcDbVertex
100
AcDb2dVertex
 10
22.31657994498888
 20
32.27503401185557
 30
0.0
  0
VERTEX
  5
4F7
330
4F5
100
AcDbEntity
  8
DIBUJOS
 62
     7
100
AcDbVertex
100
AcDb2dVertex
 10
22.28579780857932
 20
32.30113981575835
 30
0.0
  0
VERTEX
  5
4F8
330
4F5
100
AcDbEntity
  8
DIBUJOS
 62
     7
100
AcDbVertex
100
AcDb2dVertex
 10
22.26987050137193
 20
32.30848110306343
 30
0.0
  0
VERTEX
  5
4F9
330
4F5
100
AcDbEntity
  8
DIBUJOS
 62
     7
100
AcDbVertex
100
AcDb2dVertex
 10
22.2646803907405
 20
32.30963429047689
 30
0.0
  0
SEQEND
  5
4FA
330
4F5
100
AcDbEntity
  8
DIBUJOS
 62
     7
  0
POLYLINE
  5
4FB
330
411
100
AcDbEntity
  8
DIBUJOS
 62
     7
100
AcDb2dPolyline
 66
     1
 10
0.0
 20
0.0
 30
0.0
  0
VERTEX
  5
4FC
330
4FB
100
AcDbEntity
  8
DIBUJOS
 62
     7
100
AcDbVertex
100
AcDb2dVertex
 10
22.32234587232063
 20
32.27503401185557
 30
0.0
  0
VERTEX
  5
4FD
330
4FB
100
AcDbEntity
  8
DIBUJOS
 62
     7
100
AcDbVertex
100
AcDb2dVertex
 10
22.31657994498888
 20
32.27503401185557
 30
0.0
  0
SEQEND
  5
4FE
330
4FB
100
AcDbEntity
  8
DIBUJOS
 62
     7
  0
POLYLINE
  5
4FF
330
411
100
AcDbEntity
  8
DIBUJOS
 62
     7
100
AcDb2dPolyline
 66
     1
 10
0.0
 20
0.0
 30
0.0
  0
VERTEX
  5
500
330
4FF
100
AcDbEntity
  8
DIBUJOS
 62
     7
100
AcDbVertex
100
AcDb2dVertex
 10
22.32234587232063
 20
32.27503401185557
 30
0.0
  0
VERTEX
  5
501
330
4FF
100
AcDbEntity
  8
DIBUJOS
 62
     7
100
AcDbVertex
100
AcDb2dVertex
 10
22.32234587232063
 20
32.2808015009939
 30
0.0
  0
SEQEND
  5
502
330
4FF
100
AcDbEntity
  8
DIBUJOS
 62
     7
  0
POLYLINE
  5
503
330
411
100
AcDbEntity
  8
DIBUJOS
 62
     7
100
AcDb2dPolyline
 66
     1
 10
0.0
 20
0.0
 30
0.0
  0
VERTEX
  5
504
330
503
100
AcDbEntity
  8
DIBUJOS
 62
     7
100
AcDbVertex
100
AcDb2dVertex
 10
26.86065217646056
 20
32.27503401185557
 30
0.0
  0
VERTEX
  5
505
330
503
100
AcDbEntity
  8
DIBUJOS
 62
     7
100
AcDbVertex
100
AcDb2dVertex
 10
26.85246347320358
 20
32.31505566818439
 30
0.0
  0
VERTEX
  5
506
330
503
100
AcDbEntity
  8
DIBUJOS
 62
     7
100
AcDbVertex
100
AcDb2dVertex
 10
26.83625524194603
 20
32.3779470641392
 30
0.0
  0
VERTEX
  5
507
330
503
100
AcDbEntity
  8
DIBUJOS
 62
     7
100
AcDbVertex
100
AcDb2dVertex
 10
26.82605195627268
 20
32.39036672185793
 30
0.0
  0
SEQEND
  5
508
330
503
100
AcDbEntity
  8
DIBUJOS
 62
     7
  0
POLYLINE
  5
509
330
411
100
AcDbEntity
  8
DIBUJOS
 62
     7
100
AcDb2dPolyline
 66
     1
 10
0.0
 20
0.0
 30
0.0
  0
VERTEX
  5
50A
330
509
100
AcDbEntity
  8
DIBUJOS
 62
     7
100
AcDbVertex
100
AcDb2dVertex
 10
26.86641810379198
 20
32.27503401185557
 30
0.0
  0
VERTEX
  5
50B
330
509
100
AcDbEntity
  8
DIBUJOS
 62
     7
100
AcDbVertex
100
AcDb2dVertex
 10
26.86065217646056
 20
32.27503401185557
 30
0.0
  0
SEQEND
  5
50C
330
509
100
AcDbEntity
  8
DIBUJOS
 62
     7
  0
POLYLINE
  5
50D
330
411
100
AcDbEntity
  8
DIBUJOS
 62
     7
100
AcDb2dPolyline
 66
     1
 10
0.0
 20
0.0
 30
0.0
  0
VERTEX
  5
50E
330
50D
100
AcDbEntity
  8
DIBUJOS
 62
     7
100
AcDbVertex
100
AcDb2dVertex
 10
26.86641810379198
 20
32.27503401185557
 30
0.0
  0
VERTEX
  5
50F
330
50D
100
AcDbEntity
  8
DIBUJOS
 62
     7
100
AcDbVertex
100
AcDb2dVertex
 10
26.89720024020187
 20
32.30113981575835
 30
0.0
  0
VERTEX
  5
510
330
50D
100
AcDbEntity
  8
DIBUJOS
 62
     7
100
AcDbVertex
100
AcDb2dVertex
 10
26.91312754740893
 20
32.30848110306343
 30
0.0
  0
VERTEX
  5
511
330
50D
100
AcDbEntity
  8
DIBUJOS
 62
     7
100
AcDbVertex
100
AcDb2dVertex
 10
26.93561854416743
 20
32.32693365375298
 30
0.0
  0
VERTEX
  5
512
330
50D
100
AcDbEntity
  8
DIBUJOS
 62
     7
100
AcDbVertex
100
AcDb2dVertex
 10
26.93765330344937
 20
32.3437254904016
 30
0.0
  0
VERTEX
  5
513
330
50D
100
AcDbEntity
  8
DIBUJOS
 62
     7
100
AcDbVertex
100
AcDb2dVertex
 10
26.94138447149885
 20
32.35000050616741
 30
0.0
  0
VERTEX
  5
514
330
50D
100
AcDbEntity
  8
DIBUJOS
 62
     7
100
AcDbVertex
100
AcDb2dVertex
 10
26.94138447149885
 20
32.43649887461766
 30
0.0
  0
VERTEX
  5
515
330
50D
100
AcDbEntity
  8
DIBUJOS
 62
     7
100
AcDbVertex
100
AcDb2dVertex
 10
26.91021431844503
 20
32.63794038370139
 30
0.0
  0
VERTEX
  5
516
330
50D
100
AcDbEntity
  8
DIBUJOS
 62
     7
100
AcDbVertex
100
AcDb2dVertex
 10
26.89170282038815
 20
32.73680563951821
 30
0.0
  0
VERTEX
  5
517
330
50D
100
AcDbEntity
  8
DIBUJOS
 62
     7
100
AcDbVertex
100
AcDb2dVertex
 10
26.81230219847247
 20
33.09344786008274
 30
0.0
  0
VERTEX
  5
518
330
50D
100
AcDbEntity
  8
DIBUJOS
 62
     7
100
AcDbVertex
100
AcDb2dVertex
 10
26.73751897462135
 20
33.35864681973386
 30
0.0
  0
VERTEX
  5
519
330
50D
100
AcDbEntity
  8
DIBUJOS
 62
     7
100
AcDbVertex
100
AcDb2dVertex
 10
26.63460143993998
 20
33.65844140179892
 30
0.0
  0
VERTEX
  5
51A
330
50D
100
AcDbEntity
  8
DIBUJOS
 62
     7
100
AcDbVertex
100
AcDb2dVertex
 10
26.55617706790101
 20
33.82682694111344
 30
0.0
  0
VERTEX
  5
51B
330
50D
100
AcDbEntity
  8
DIBUJOS
 62
     7
100
AcDbVertex
100
AcDb2dVertex
 10
26.48449332100298
 20
33.96376135020797
 30
0.0
  0
VERTEX
  5
51C
330
50D
100
AcDbEntity
  8
DIBUJOS
 62
     7
100
AcDbVertex
100
AcDb2dVertex
 10
26.3531931448386
 20
34.17224614931011
 30
0.0
  0
VERTEX
  5
51D
330
50D
100
AcDbEntity
  8
DIBUJOS
 62
     7
100
AcDbVertex
100
AcDb2dVertex
 10
26.3531931448386
 20
34.19531300172454
 30
0.0
  0
VERTEX
  5
51E
330
50D
100
AcDbEntity
  8
DIBUJOS
 62
     7
100
AcDbVertex
100
AcDb2dVertex
 10
26.41218874747445
 20
34.27515764952462
 30
0.0
  0
VERTEX
  5
51F
330
50D
100
AcDbEntity
  8
DIBUJOS
 62
     7
100
AcDbVertex
100
AcDb2dVertex
 10
26.59817288532491
 20
34.54250156880664
 30
0.0
  0
VERTEX
  5
520
330
50D
100
AcDbEntity
  8
DIBUJOS
 62
     7
100
AcDbVertex
100
AcDb2dVertex
 10
26.60865243884907
 20
34.57533093647404
 30
0.0
  0
VERTEX
  5
521
330
50D
100
AcDbEntity
  8
DIBUJOS
 62
     7
100
AcDbVertex
100
AcDb2dVertex
 10
26.61268936401428
 20
34.58167424328518
 30
0.0
  0
VERTEX
  5
522
330
50D
100
AcDbEntity
  8
DIBUJOS
 62
     7
100
AcDbVertex
100
AcDb2dVertex
 10
26.61268936401428
 20
34.6162745219065
 30
0.0
  0
VERTEX
  5
523
330
50D
100
AcDbEntity
  8
DIBUJOS
 62
     7
100
AcDbVertex
100
AcDb2dVertex
 10
26.60488712533468
 20
34.63883229562368
 30
0.0
  0
VERTEX
  5
524
330
50D
100
AcDbEntity
  8
DIBUJOS
 62
     7
100
AcDbVertex
100
AcDb2dVertex
 10
26.60288495945109
 20
34.64568312906165
 30
0.0
  0
VERTEX
  5
525
330
50D
100
AcDbEntity
  8
DIBUJOS
 62
     7
100
AcDbVertex
100
AcDb2dVertex
 10
26.60115595728488
 20
34.65664073759638
 30
0.0
  0
VERTEX
  5
526
330
50D
100
AcDbEntity
  8
DIBUJOS
 62
     7
100
AcDbVertex
100
AcDb2dVertex
 10
26.54983377180304
 20
34.70392607776956
 30
0.0
  0
VERTEX
  5
527
330
50D
100
AcDbEntity
  8
DIBUJOS
 62
     7
100
AcDbVertex
100
AcDb2dVertex
 10
26.50312432818609
 20
34.7200722536322
 30
0.0
  0
VERTEX
  5
528
330
50D
100
AcDbEntity
  8
DIBUJOS
 62
     7
100
AcDbVertex
100
AcDb2dVertex
 10
26.47378250955914
 20
34.71634107928156
 30
0.0
  0
VERTEX
  5
529
330
50D
100
AcDbEntity
  8
DIBUJOS
 62
     7
100
AcDbVertex
100
AcDb2dVertex
 10
26.43392388781064
 20
34.70854037949443
 30
0.0
  0
VERTEX
  5
52A
330
50D
100
AcDbEntity
  8
DIBUJOS
 62
     7
100
AcDbVertex
100
AcDb2dVertex
 10
26.35895907217002
 20
34.63357388518259
 30
0.0
  0
VERTEX
  5
52B
330
50D
100
AcDbEntity
  8
DIBUJOS
 62
     7
100
AcDbVertex
100
AcDb2dVertex
 10
26.18019514803262
 20
34.43174280672998
 30
0.0
  0
VERTEX
  5
52C
330
50D
100
AcDbEntity
  8
DIBUJOS
 62
     7
100
AcDbVertex
100
AcDb2dVertex
 10
26.17442766863464
 20
34.43174280672998
 30
0.0
  0
VERTEX
  5
52D
330
50D
100
AcDbEntity
  8
DIBUJOS
 62
     7
100
AcDbVertex
100
AcDb2dVertex
 10
26.13539319423827
 20
34.48453023220836
 30
0.0
  0
VERTEX
  5
52E
330
50D
100
AcDbEntity
  8
DIBUJOS
 62
     7
100
AcDbVertex
100
AcDb2dVertex
 10
26.01296307855839
 20
34.63933982225115
 30
0.0
  0
VERTEX
  5
52F
330
50D
100
AcDbEntity
  8
DIBUJOS
 62
     7
100
AcDbVertex
100
AcDb2dVertex
 10
25.8918646360008
 20
34.76043846932272
 30
0.0
  0
VERTEX
  5
530
330
50D
100
AcDbEntity
  8
DIBUJOS
 62
     7
100
AcDbVertex
100
AcDb2dVertex
 10
25.83892830127931
 20
34.79942179135844
 30
0.0
  0
VERTEX
  5
531
330
50D
100
AcDbEntity
  8
DIBUJOS
 62
     7
100
AcDbVertex
100
AcDb2dVertex
 10
25.70214467390055
 20
34.88845779294607
 30
0.0
  0
VERTEX
  5
532
330
50D
100
AcDbEntity
  8
DIBUJOS
 62
     7
100
AcDbVertex
100
AcDb2dVertex
 10
25.68369060230727
 20
34.89768484432605
 30
0.0
  0
VERTEX
  5
533
330
50D
100
AcDbEntity
  8
DIBUJOS
 62
     7
100
AcDbVertex
100
AcDb2dVertex
 10
25.52337919769692
 20
34.96976604199993
 30
0.0
  0
VERTEX
  5
534
330
50D
100
AcDbEntity
  8
DIBUJOS
 62
     7
100
AcDbVertex
100
AcDb2dVertex
 10
25.49454645690669
 20
34.98072365053465
 30
0.0
  0
VERTEX
  5
535
330
50D
100
AcDbEntity
  8
DIBUJOS
 62
     7
100
AcDbVertex
100
AcDb2dVertex
 10
25.29271571931114
 20
35.05049847338097
 30
0.0
  0
VERTEX
  5
536
330
50D
100
AcDbEntity
  8
DIBUJOS
 62
     7
100
AcDbVertex
100
AcDb2dVertex
 10
25.18301875782393
 20
35.07982016466129
 30
0.0
  0
VERTEX
  5
537
330
50D
100
AcDbEntity
  8
DIBUJOS
 62
     7
100
AcDbVertex
100
AcDb2dVertex
 10
25.04386667684946
 20
35.10971767361443
 30
0.0
  0
VERTEX
  5
538
330
50D
100
AcDbEntity
  8
DIBUJOS
 62
     7
100
AcDbVertex
100
AcDb2dVertex
 10
25.00412135596096
 20
35.11468584711575
 30
0.0
  0
VERTEX
  5
539
330
50D
100
AcDbEntity
  8
DIBUJOS
 62
     7
100
AcDbVertex
100
AcDb2dVertex
 10
24.79031021646191
 20
35.13830213202594
 30
0.0
  0
VERTEX
  5
53A
330
50D
100
AcDbEntity
  8
DIBUJOS
 62
     7
100
AcDbVertex
100
AcDb2dVertex
 10
24.6810183443511
 20
35.14376696767086
 30
0.0
  0
VERTEX
  5
53B
330
50D
100
AcDbEntity
  8
DIBUJOS
 62
     7
100
AcDbVertex
100
AcDb2dVertex
 10
24.50211628628878
 20
35.14680126295249
 30
0.0
  0
VERTEX
  5
53C
330
50D
100
AcDbEntity
  8
DIBUJOS
 62
     7
100
AcDbVertex
100
AcDb2dVertex
 10
24.21924284033921
 20
35.12045178418495
 30
0.0
  0
VERTEX
  5
53D
330
50D
100
AcDbEntity
  8
DIBUJOS
 62
     7
100
AcDbVertex
100
AcDb2dVertex
 10
24.17949907151727
 20
35.11548361068299
 30
0.0
  0
VERTEX
  5
53E
330
50D
100
AcDbEntity
  8
DIBUJOS
 62
     7
100
AcDbVertex
100
AcDb2dVertex
 10
24.00669973923294
 20
35.08133343212898
 30
0.0
  0
VERTEX
  5
53F
330
50D
100
AcDbEntity
  8
DIBUJOS
 62
     7
100
AcDbVertex
100
AcDb2dVertex
 10
23.89713315133819
 20
35.05250064264599
 30
0.0
  0
VERTEX
  5
540
330
50D
100
AcDbEntity
  8
DIBUJOS
 62
     7
100
AcDbVertex
100
AcDb2dVertex
 10
23.71267159079888
 20
34.9893733321727
 30
0.0
  0
VERTEX
  5
541
330
50D
100
AcDbEntity
  8
DIBUJOS
 62
     7
100
AcDbVertex
100
AcDb2dVertex
 10
23.69537070467182
 20
34.98360584303501
 30
0.0
  0
VERTEX
  5
542
330
50D
100
AcDbEntity
  8
DIBUJOS
 62
     7
100
AcDbVertex
100
AcDb2dVertex
 10
23.510840853203
 20
34.90345078139462
 30
0.0
  0
VERTEX
  5
543
330
50D
100
AcDbEntity
  8
DIBUJOS
 62
     7
100
AcDbVertex
100
AcDb2dVertex
 10
23.50392018833912
 20
34.89999121915361
 30
0.0
  0
VERTEX
  5
544
330
50D
100
AcDbEntity
  8
DIBUJOS
 62
     7
100
AcDbVertex
100
AcDb2dVertex
 10
23.37097792573704
 20
34.8194357236611
 30
0.0
  0
VERTEX
  5
545
330
50D
100
AcDbEntity
  8
DIBUJOS
 62
     7
100
AcDbVertex
100
AcDb2dVertex
 10
23.29577409184363
 20
34.76184619608544
 30
0.0
  0
VERTEX
  5
546
330
50D
100
AcDbEntity
  8
DIBUJOS
 62
     7
100
AcDbVertex
100
AcDb2dVertex
 10
23.17438386076997
 20
34.64052249897991
 30
0.0
  0
VERTEX
  5
547
330
50D
100
AcDbEntity
  8
DIBUJOS
 62
     7
100
AcDbVertex
100
AcDb2dVertex
 10
23.09366243019759
 20
34.54243327776258
 30
0.0
  0
VERTEX
  5
548
330
50D
100
AcDbEntity
  8
DIBUJOS
 62
     7
100
AcDbVertex
100
AcDb2dVertex
 10
23.00857038014623
 20
34.43174280672998
 30
0.0
  0
VERTEX
  5
549
330
50D
100
AcDbEntity
  8
DIBUJOS
 62
     7
100
AcDbVertex
100
AcDb2dVertex
 10
23.00280290074825
 20
34.43174280672998
 30
0.0
  0
VERTEX
  5
54A
330
50D
100
AcDbEntity
  8
DIBUJOS
 62
     7
100
AcDbVertex
100
AcDb2dVertex
 10
22.92640242352467
 20
34.51693743705399
 30
0.0
  0
VERTEX
  5
54B
330
50D
100
AcDbEntity
  8
DIBUJOS
 62
     7
100
AcDbVertex
100
AcDb2dVertex
 10
22.75484008830196
 20
34.7027728903561
 30
0.0
  0
VERTEX
  5
54C
330
50D
100
AcDbEntity
  8
DIBUJOS
 62
     7
100
AcDbVertex
100
AcDb2dVertex
 10
22.70294053405358
 20
34.7200722536322
 30
0.0
  0
VERTEX
  5
54D
330
50D
100
AcDbEntity
  8
DIBUJOS
 62
     7
100
AcDbVertex
100
AcDb2dVertex
 10
22.65053345403439
 20
34.71057514221235
 30
0.0
  0
VERTEX
  5
54E
330
50D
100
AcDbEntity
  8
DIBUJOS
 62
     7
100
AcDbVertex
100
AcDb2dVertex
 10
22.63374164574438
 20
34.70854037949443
 30
0.0
  0
VERTEX
  5
54F
330
50D
100
AcDbEntity
  8
DIBUJOS
 62
     7
100
AcDbVertex
100
AcDb2dVertex
 10
22.58184209149599
 20
34.65664073759638
 30
0.0
  0
VERTEX
  5
550
330
50D
100
AcDbEntity
  8
DIBUJOS
 62
     7
100
AcDbVertex
100
AcDb2dVertex
 10
22.57780671839734
 20
34.63299651544066
 30
0.0
  0
VERTEX
  5
551
330
50D
100
AcDbEntity
  8
DIBUJOS
 62
     7
100
AcDbVertex
100
AcDb2dVertex
 10
22.5743456099318
 20
34.62261782871635
 30
0.0
  0
VERTEX
  5
552
330
50D
100
AcDbEntity
  8
DIBUJOS
 62
     7
100
AcDbVertex
100
AcDb2dVertex
 10
22.57031023683315
 20
34.6162745219065
 30
0.0
  0
VERTEX
  5
553
330
50D
100
AcDbEntity
  8
DIBUJOS
 62
     7
100
AcDbVertex
100
AcDb2dVertex
 10
22.57031023683315
 20
34.58167424328518
 30
0.0
  0
VERTEX
  5
554
330
50D
100
AcDbEntity
  8
DIBUJOS
 62
     7
100
AcDbVertex
100
AcDb2dVertex
 10
22.58387840284417
 20
34.54181710629062
 30
0.0
  0
VERTEX
  5
555
330
50D
100
AcDbEntity
  8
DIBUJOS
 62
     7
100
AcDbVertex
100
AcDb2dVertex
 10
22.70427220717619
 20
34.36919752220599
 30
0.0
  0
VERTEX
  5
556
330
50D
100
AcDbEntity
  8
DIBUJOS
 62
     7
100
AcDbVertex
100
AcDb2dVertex
 10
22.78805586510363
 20
34.25194024639869
 30
0.0
  0
VERTEX
  5
557
330
50D
100
AcDbEntity
  8
DIBUJOS
 62
     7
100
AcDbVertex
100
AcDb2dVertex
 10
22.83557238334025
 20
34.17801208637931
 30
0.0
  0
VERTEX
  5
558
330
50D
100
AcDbEntity
  8
DIBUJOS
 62
     7
100
AcDbVertex
100
AcDb2dVertex
 10
22.71003813450729
 20
33.98106071348407
 30
0.0
  0
VERTEX
  5
559
330
50D
100
AcDbEntity
  8
DIBUJOS
 62
     7
100
AcDbVertex
100
AcDb2dVertex
 10
22.62336142448152
 20
33.81414032749245
 30
0.0
  0
VERTEX
  5
55A
330
50D
100
AcDbEntity
  8
DIBUJOS
 62
     7
100
AcDbVertex
100
AcDb2dVertex
 10
22.55185616523987
 20
33.66536207835135
 30
0.0
  0
VERTEX
  5
55B
330
50D
100
AcDbEntity
  8
DIBUJOS
 62
     7
100
AcDbVertex
100
AcDb2dVertex
 10
22.44748124004311
 20
33.35973171610327
 30
0.0
  0
VERTEX
  5
55C
330
50D
100
AcDbEntity
  8
DIBUJOS
 62
     7
100
AcDbVertex
100
AcDb2dVertex
 10
22.37221066728707
 20
33.08863334143182
 30
0.0
  0
VERTEX
  5
55D
330
50D
100
AcDbEntity
  8
DIBUJOS
 62
     7
100
AcDbVertex
100
AcDb2dVertex
 10
22.30726444139749
 20
32.80511841317988
 30
0.0
  0
VERTEX
  5
55E
330
50D
100
AcDbEntity
  8
DIBUJOS
 62
     7
100
AcDbVertex
100
AcDb2dVertex
 10
22.2855293010613
 20
32.69643942382769
 30
0.0
  0
VERTEX
  5
55F
330
50D
100
AcDbEntity
  8
DIBUJOS
 62
     7
100
AcDbVertex
100
AcDb2dVertex
 10
22.24998076819571
 20
32.47086323872113
 30
0.0
  0
VERTEX
  5
560
330
50D
100
AcDbEntity
  8
DIBUJOS
 62
     7
100
AcDbVertex
100
AcDb2dVertex
 10
22.24161357728202
 20
32.36153393237494
 30
0.0
  0
VERTEX
  5
561
330
50D
100
AcDbEntity
  8
DIBUJOS
 62
     7
100
AcDbVertex
100
AcDb2dVertex
 10
22.25084061307866
 20
32.33385433030541
 30
0.0
  0
VERTEX
  5
562
330
50D
100
AcDbEntity
  8
DIBUJOS
 62
     7
100
AcDbVertex
100
AcDb2dVertex
 10
22.25891291134284
 20
32.31540022754609
 30
0.0
  0
SEQEND
  5
563
330
50D
100
AcDbEntity
  8
DIBUJOS
 62
     7
  0
POLYLINE
  5
564
330
411
100
AcDbEntity
  8
DIBUJOS
 62
     7
100
AcDb2dPolyline
 66
     1
 10
0.0
 20
0.0
 30
0.0
  0
VERTEX
  5
565
330
564
100
AcDbEntity
  8
DIBUJOS
 62
     7
100
AcDbVertex
100
AcDb2dVertex
 10
22.32234587232063
 20
32.26926807478637
 30
0.0
  0
VERTEX
  5
566
330
564
100
AcDbEntity
  8
DIBUJOS
 62
     7
100
AcDbVertex
100
AcDb2dVertex
 10
22.32234587232063
 20
32.27503401185557
 30
0.0
  0
SEQEND
  5
567
330
564
100
AcDbEntity
  8
DIBUJOS
 62
     7
  0
POLYLINE
  5
568
330
411
100
AcDbEntity
  8
DIBUJOS
 62
     7
100
AcDb2dPolyline
 66
     1
 10
0.0
 20
0.0
 30
0.0
  0
VERTEX
  5
569
330
568
100
AcDbEntity
  8
DIBUJOS
 62
     7
100
AcDbVertex
100
AcDb2dVertex
 10
26.86065217646056
 20
32.26926807478637
 30
0.0
  0
VERTEX
  5
56A
330
568
100
AcDbEntity
  8
DIBUJOS
 62
     7
100
AcDbVertex
100
AcDb2dVertex
 10
26.86065217646056
 20
32.27503401185557
 30
0.0
  0
SEQEND
  5
56B
330
568
100
AcDbEntity
  8
DIBUJOS
 62
     7
  0
POLYLINE
  5
56C
330
411
100
AcDbEntity
  8
DIBUJOS
 62
     7
100
AcDb2dPolyline
 66
     1
 10
0.0
 20
0.0
 30
0.0
  0
VERTEX
  5
56D
330
56C
100
AcDbEntity
  8
DIBUJOS
 62
     7
100
AcDbVertex
100
AcDb2dVertex
 10
22.5126432031871
 20
30.48738864733419
 30
0.0
  0
VERTEX
  5
56E
330
56C
100
AcDbEntity
  8
DIBUJOS
 62
     7
100
AcDbVertex
100
AcDb2dVertex
 10
22.50687727585568
 20
30.48738864733419
 30
0.0
  0
VERTEX
  5
56F
330
56C
100
AcDbEntity
  8
DIBUJOS
 62
     7
100
AcDbVertex
100
AcDb2dVertex
 10
22.42481330769479
 20
30.60760106289391
 30
0.0
  0
VERTEX
  5
570
330
56C
100
AcDbEntity
  8
DIBUJOS
 62
     7
100
AcDbVertex
100
AcDb2dVertex
 10
22.41594169514405
 20
30.62090850419425
 30
0.0
  0
VERTEX
  5
571
330
56C
100
AcDbEntity
  8
DIBUJOS
 62
     7
100
AcDbVertex
100
AcDb2dVertex
 10
22.38750783546431
 20
30.6840296063904
 30
0.0
  0
VERTEX
  5
572
330
56C
100
AcDbEntity
  8
DIBUJOS
 62
     7
100
AcDbVertex
100
AcDb2dVertex
 10
22.34368213154634
 20
30.79820912897931
 30
0.0
  0
VERTEX
  5
573
330
56C
100
AcDbEntity
  8
DIBUJOS
 62
     7
100
AcDbVertex
100
AcDb2dVertex
 10
22.3017018347877
 20
30.98942871032801
 30
0.0
  0
VERTEX
  5
574
330
56C
100
AcDbEntity
  8
DIBUJOS
 62
     7
100
AcDbVertex
100
AcDb2dVertex
 10
22.2762137974699
 20
31.26588017166164
 30
0.0
  0
VERTEX
  5
575
330
56C
100
AcDbEntity
  8
DIBUJOS
 62
     7
100
AcDbVertex
100
AcDb2dVertex
 10
22.27914875536594
 20
31.28322920115229
 30
0.0
  0
VERTEX
  5
576
330
56C
100
AcDbEntity
  8
DIBUJOS
 62
     7
100
AcDbVertex
100
AcDb2dVertex
 10
22.28481224630326
 20
31.60605959424736
 30
0.0
  0
VERTEX
  5
577
330
56C
100
AcDbEntity
  8
DIBUJOS
 62
     7
100
AcDbVertex
100
AcDb2dVertex
 10
22.30197189437196
 20
31.86543829440799
 30
0.0
  0
VERTEX
  5
578
330
56C
100
AcDbEntity
  8
DIBUJOS
 62
     7
100
AcDbVertex
100
AcDb2dVertex
 10
22.32483073090914
 20
32.07866000870161
 30
0.0
  0
VERTEX
  5
579
330
56C
100
AcDbEntity
  8
DIBUJOS
 62
     7
100
AcDbVertex
100
AcDb2dVertex
 10
22.32562849312946
 20
32.08504677344952
 30
0.0
  0
VERTEX
  5
57A
330
56C
100
AcDbEntity
  8
DIBUJOS
 62
     7
100
AcDbVertex
100
AcDb2dVertex
 10
22.36847949923759
 20
32.38460078478937
 30
0.0
  0
VERTEX
  5
57B
330
56C
100
AcDbEntity
  8
DIBUJOS
 62
     7
100
AcDbVertex
100
AcDb2dVertex
 10
22.36271201983961
 20
32.39036672185793
 30
0.0
  0
SEQEND
  5
57C
330
56C
100
AcDbEntity
  8
DIBUJOS
 62
     7
  0
POLYLINE
  5
57D
330
411
100
AcDbEntity
  8
DIBUJOS
 62
     7
100
AcDb2dPolyline
 66
     1
 10
0.0
 20
0.0
 30
0.0
  0
VERTEX
  5
57E
330
57D
100
AcDbEntity
  8
DIBUJOS
 62
     7
100
AcDbVertex
100
AcDb2dVertex
 10
22.51841068258508
 20
30.48162271026562
 30
0.0
  0
VERTEX
  5
57F
330
57D
100
AcDbEntity
  8
DIBUJOS
 62
     7
100
AcDbVertex
100
AcDb2dVertex
 10
22.51841068258508
 20
30.48738864733419
 30
0.0
  0
VERTEX
  5
580
330
57D
100
AcDbEntity
  8
DIBUJOS
 62
     7
100
AcDbVertex
100
AcDb2dVertex
 10
22.5126432031871
 20
30.48738864733419
 30
0.0
  0
SEQEND
  5
581
330
57D
100
AcDbEntity
  8
DIBUJOS
 62
     7
  0
POLYLINE
  5
582
330
411
100
AcDbEntity
  8
DIBUJOS
 62
     7
100
AcDb2dPolyline
 66
     1
 10
0.0
 20
0.0
 30
0.0
  0
VERTEX
  5
583
330
582
100
AcDbEntity
  8
DIBUJOS
 62
     7
100
AcDbVertex
100
AcDb2dVertex
 10
22.51841068258508
 20
30.48162271026562
 30
0.0
  0
VERTEX
  5
584
330
582
100
AcDbEntity
  8
DIBUJOS
 62
     7
100
AcDbVertex
100
AcDb2dVertex
 10
22.58184209149599
 20
30.41242370509147
 30
0.0
  0
VERTEX
  5
585
330
582
100
AcDbEntity
  8
DIBUJOS
 62
     7
100
AcDbVertex
100
AcDb2dVertex
 10
22.70397886659324
 20
30.32730823029602
 30
0.0
  0
VERTEX
  5
586
330
582
100
AcDbEntity
  8
DIBUJOS
 62
     7
100
AcDbVertex
100
AcDb2dVertex
 10
22.7441944636542
 20
30.30418860752944
 30
0.0
  0
VERTEX
  5
587
330
582
100
AcDbEntity
  8
DIBUJOS
 62
     7
100
AcDbVertex
100
AcDb2dVertex
 10
22.87074842022781
 20
30.24115597327724
 30
0.0
  0
VERTEX
  5
588
330
582
100
AcDbEntity
  8
DIBUJOS
 62
     7
100
AcDbVertex
100
AcDb2dVertex
 10
22.92149478900997
 20
30.22097131336253
 30
0.0
  0
VERTEX
  5
589
330
582
100
AcDbEntity
  8
DIBUJOS
 62
     7
100
AcDbVertex
100
AcDb2dVertex
 10
22.9974808644578
 20
30.1955096181766
 30
0.0
  0
VERTEX
  5
58A
330
582
100
AcDbEntity
  8
DIBUJOS
 62
     7
100
AcDbVertex
100
AcDb2dVertex
 10
23.10039219087294
 20
30.17377444113394
 30
0.0
  0
VERTEX
  5
58B
330
582
100
AcDbEntity
  8
DIBUJOS
 62
     7
100
AcDbVertex
100
AcDb2dVertex
 10
23.27925389520444
 20
30.14473833058601
 30
0.0
  0
VERTEX
  5
58C
330
582
100
AcDbEntity
  8
DIBUJOS
 62
     7
100
AcDbVertex
100
AcDb2dVertex
 10
23.45801781934183
 20
30.12167147817094
 30
0.0
  0
VERTEX
  5
58D
330
582
100
AcDbEntity
  8
DIBUJOS
 62
     7
100
AcDbVertex
100
AcDb2dVertex
 10
23.92559494821629
 20
30.08069219514734
 30
0.0
  0
VERTEX
  5
58E
330
582
100
AcDbEntity
  8
DIBUJOS
 62
     7
100
AcDbVertex
100
AcDb2dVertex
 10
24.03488682032711
 20
30.07522735950306
 30
0.0
  0
VERTEX
  5
58F
330
582
100
AcDbEntity
  8
DIBUJOS
 62
     7
100
AcDbVertex
100
AcDb2dVertex
 10
24.38678532312917
 20
30.06066119008366
 30
0.0
  0
VERTEX
  5
590
330
582
100
AcDbEntity
  8
DIBUJOS
 62
     7
100
AcDbVertex
100
AcDb2dVertex
 10
24.77891339159152
 20
30.06066119008366
 30
0.0
  0
VERTEX
  5
591
330
582
100
AcDbEntity
  8
DIBUJOS
 62
     7
100
AcDbVertex
100
AcDb2dVertex
 10
24.78467931892262
 20
30.06642712715287
 30
0.0
  0
VERTEX
  5
592
330
582
100
AcDbEntity
  8
DIBUJOS
 62
     7
100
AcDbVertex
100
AcDb2dVertex
 10
25.02701278589649
 20
30.06946142243385
 30
0.0
  0
VERTEX
  5
593
330
582
100
AcDbEntity
  8
DIBUJOS
 62
     7
100
AcDbVertex
100
AcDb2dVertex
 10
25.1363046580073
 20
30.07492625807878
 30
0.0
  0
VERTEX
  5
594
330
582
100
AcDbEntity
  8
DIBUJOS
 62
     7
100
AcDbVertex
100
AcDb2dVertex
 10
25.47688859546717
 20
30.09840130469221
 30
0.0
  0
VERTEX
  5
595
330
582
100
AcDbEntity
  8
DIBUJOS
 62
     7
100
AcDbVertex
100
AcDb2dVertex
 10
25.53988387367053
 20
30.10365195478703
 30
0.0
  0
VERTEX
  5
596
330
582
100
AcDbEntity
  8
DIBUJOS
 62
     7
100
AcDbVertex
100
AcDb2dVertex
 10
25.80505600031568
 20
30.13234350597391
 30
0.0
  0
VERTEX
  5
597
330
582
100
AcDbEntity
  8
DIBUJOS
 62
     7
100
AcDbVertex
100
AcDb2dVertex
 10
26.01834098924556
 20
30.16103040095278
 30
0.0
  0
VERTEX
  5
598
330
582
100
AcDbEntity
  8
DIBUJOS
 62
     7
100
AcDbVertex
100
AcDb2dVertex
 10
26.21537118492049
 20
30.20367195008643
 30
0.0
  0
VERTEX
  5
599
330
582
100
AcDbEntity
  8
DIBUJOS
 62
     7
100
AcDbVertex
100
AcDb2dVertex
 10
26.26611755370266
 20
30.22385505793201
 30
0.0
  0
VERTEX
  5
59A
330
582
100
AcDbEntity
  8
DIBUJOS
 62
     7
100
AcDbVertex
100
AcDb2dVertex
 10
26.35407937485367
 20
30.26116059316515
 30
0.0
  0
VERTEX
  5
59B
330
582
100
AcDbEntity
  8
DIBUJOS
 62
     7
100
AcDbVertex
100
AcDb2dVertex
 10
26.39990103638899
 20
30.28440438146812
 30
0.0
  0
VERTEX
  5
59C
330
582
100
AcDbEntity
  8
DIBUJOS
 62
     7
100
AcDbVertex
100
AcDb2dVertex
 10
26.50208599564642
 20
30.34460759357212
 30
0.0
  0
VERTEX
  5
59D
330
582
100
AcDbEntity
  8
DIBUJOS
 62
     7
100
AcDbVertex
100
AcDb2dVertex
 10
26.53861077838905
 20
30.37072581402918
 30
0.0
  0
VERTEX
  5
59E
330
582
100
AcDbEntity
  8
DIBUJOS
 62
     7
100
AcDbVertex
100
AcDb2dVertex
 10
26.5825389187011
 20
30.40232594289218
 30
0.0
  0
VERTEX
  5
59F
330
582
100
AcDbEntity
  8
DIBUJOS
 62
     7
100
AcDbVertex
100
AcDb2dVertex
 10
26.66458736619611
 20
30.47585522112729
 30
0.0
  0
VERTEX
  5
5A0
330
582
100
AcDbEntity
  8
DIBUJOS
 62
     7
100
AcDbVertex
100
AcDb2dVertex
 10
26.72686714170767
 20
30.55716502224963
 30
0.0
  0
VERTEX
  5
5A1
330
582
100
AcDbEntity
  8
DIBUJOS
 62
     7
100
AcDbVertex
100
AcDb2dVertex
 10
26.77858976036654
 20
30.63820786747035
 30
0.0
  0
VERTEX
  5
5A2
330
582
100
AcDbEntity
  8
DIBUJOS
 62
     7
100
AcDbVertex
100
AcDb2dVertex
 10
26.80702362004596
 20
30.70709645880418
 30
0.0
  0
VERTEX
  5
5A3
330
582
100
AcDbEntity
  8
DIBUJOS
 62
     7
100
AcDbVertex
100
AcDb2dVertex
 10
26.83643217753586
 20
30.78206140104754
 30
0.0
  0
VERTEX
  5
5A4
330
582
100
AcDbEntity
  8
DIBUJOS
 62
     7
100
AcDbVertex
100
AcDb2dVertex
 10
26.8757336073837
 20
30.94916027499683
 30
0.0
  0
VERTEX
  5
5A5
330
582
100
AcDbEntity
  8
DIBUJOS
 62
     7
100
AcDbVertex
100
AcDb2dVertex
 10
26.88150108678136
 20
30.97799306447981
 30
0.0
  0
VERTEX
  5
5A6
330
582
100
AcDbEntity
  8
DIBUJOS
 62
     7
100
AcDbVertex
100
AcDb2dVertex
 10
26.89835497773464
 20
31.15650430323915
 30
0.0
  0
VERTEX
  5
5A7
330
582
100
AcDbEntity
  8
DIBUJOS
 62
     7
100
AcDbVertex
100
AcDb2dVertex
 10
26.90368167022476
 20
31.23109054059814
 30
0.0
  0
VERTEX
  5
5A8
330
582
100
AcDbEntity
  8
DIBUJOS
 62
     7
100
AcDbVertex
100
AcDb2dVertex
 10
26.90678425131096
 20
31.47924467632114
 30
0.0
  0
VERTEX
  5
5A9
330
582
100
AcDbEntity
  8
DIBUJOS
 62
     7
100
AcDbVertex
100
AcDb2dVertex
 10
26.88102615440922
 20
31.91157044716772
 30
0.0
  0
VERTEX
  5
5AA
330
582
100
AcDbEntity
  8
DIBUJOS
 62
     7
100
AcDbVertex
100
AcDb2dVertex
 10
26.83505394241588
 20
32.28052057646887
 30
0.0
  0
VERTEX
  5
5AB
330
582
100
AcDbEntity
  8
DIBUJOS
 62
     7
100
AcDbVertex
100
AcDb2dVertex
 10
26.81740228924259
 20
32.37883329565104
 30
0.0
  0
VERTEX
  5
5AC
330
582
100
AcDbEntity
  8
DIBUJOS
 62
     7
100
AcDbVertex
100
AcDb2dVertex
 10
26.82028602894158
 20
32.38460078478937
 30
0.0
  0
SEQEND
  5
5AD
330
582
100
AcDbEntity
  8
DIBUJOS
 62
     7
  0
POLYLINE
  5
5AE
330
411
100
AcDbEntity
  8
DIBUJOS
 62
     7
100
AcDb2dPolyline
 66
     1
 10
0.0
 20
0.0
 30
0.0
  0
VERTEX
  5
5AF
330
5AE
100
AcDbEntity
  8
DIBUJOS
 62
     7
100
AcDbVertex
100
AcDb2dVertex
 10
22.32234587232063
 20
32.26926807478637
 30
0.0
  0
VERTEX
  5
5B0
330
5AE
100
AcDbEntity
  8
DIBUJOS
 62
     7
100
AcDbVertex
100
AcDb2dVertex
 10
22.31415716906333
 20
32.18888175483679
 30
0.0
  0
VERTEX
  5
5B1
330
5AE
100
AcDbEntity
  8
DIBUJOS
 62
     7
100
AcDbVertex
100
AcDb2dVertex
 10
22.27890663298004
 20
31.89427108389162
 30
0.0
  0
VERTEX
  5
5B2
330
5AE
100
AcDbEntity
  8
DIBUJOS
 62
     7
100
AcDbVertex
100
AcDb2dVertex
 10
22.26776745116113
 20
31.72162045842194
 30
0.0
  0
VERTEX
  5
5B3
330
5AE
100
AcDbEntity
  8
DIBUJOS
 62
     7
100
AcDbVertex
100
AcDb2dVertex
 10
22.25314698401142
 20
31.41004411907851
 30
0.0
  0
VERTEX
  5
5B4
330
5AE
100
AcDbEntity
  8
DIBUJOS
 62
     7
100
AcDbVertex
100
AcDb2dVertex
 10
22.25314698401142
 20
31.24281331924722
 30
0.0
  0
VERTEX
  5
5B5
330
5AE
100
AcDbEntity
  8
DIBUJOS
 62
     7
100
AcDbVertex
100
AcDb2dVertex
 10
22.27307241471911
 20
31.00083486686091
 30
0.0
  0
VERTEX
  5
5B6
330
5AE
100
AcDbEntity
  8
DIBUJOS
 62
     7
100
AcDbVertex
100
AcDb2dVertex
 10
22.28996510733699
 20
30.91456154844463
 30
0.0
  0
VERTEX
  5
5B7
330
5AE
100
AcDbEntity
  8
DIBUJOS
 62
     7
100
AcDbVertex
100
AcDb2dVertex
 10
22.30738395052372
 20
30.82224136843413
 30
0.0
  0
VERTEX
  5
5B8
330
5AE
100
AcDbEntity
  8
DIBUJOS
 62
     7
100
AcDbVertex
100
AcDb2dVertex
 10
22.36732631377137
 20
30.65404362949267
 30
0.0
  0
VERTEX
  5
5B9
330
5AE
100
AcDbEntity
  8
DIBUJOS
 62
     7
100
AcDbVertex
100
AcDb2dVertex
 10
22.37251487233624
 20
30.64251020328578
 30
0.0
  0
VERTEX
  5
5BA
330
5AE
100
AcDbEntity
  8
DIBUJOS
 62
     7
100
AcDbVertex
100
AcDb2dVertex
 10
22.43324258127143
 20
30.54017607281256
 30
0.0
  0
VERTEX
  5
5BB
330
5AE
100
AcDbEntity
  8
DIBUJOS
 62
     7
100
AcDbVertex
100
AcDb2dVertex
 10
22.4434443148779
 20
30.52775486302471
 30
0.0
  0
VERTEX
  5
5BC
330
5AE
100
AcDbEntity
  8
DIBUJOS
 62
     7
100
AcDbVertex
100
AcDb2dVertex
 10
22.4434443148779
 20
30.51622143681782
 30
0.0
  0
VERTEX
  5
5BD
330
5AE
100
AcDbEntity
  8
DIBUJOS
 62
     7
100
AcDbVertex
100
AcDb2dVertex
 10
22.34402824239257
 20
30.39039518697015
 30
0.0
  0
VERTEX
  5
5BE
330
5AE
100
AcDbEntity
  8
DIBUJOS
 62
     7
100
AcDbVertex
100
AcDb2dVertex
 10
22.31657994498888
 20
30.33169127371043
 30
0.0
  0
VERTEX
  5
5BF
330
5AE
100
AcDbEntity
  8
DIBUJOS
 62
     7
100
AcDbVertex
100
AcDb2dVertex
 10
22.31657994498888
 20
30.2913250580199
 30
0.0
  0
VERTEX
  5
5C0
330
5AE
100
AcDbEntity
  8
DIBUJOS
 62
     7
100
AcDbVertex
100
AcDb2dVertex
 10
22.32811335171829
 20
30.25095884232938
 30
0.0
  0
VERTEX
  5
5C1
330
5AE
100
AcDbEntity
  8
DIBUJOS
 62
     7
100
AcDbVertex
100
AcDb2dVertex
 10
22.38001135390043
 20
30.19905920043197
 30
0.0
  0
VERTEX
  5
5C2
330
5AE
100
AcDbEntity
  8
DIBUJOS
 62
     7
100
AcDbVertex
100
AcDb2dVertex
 10
22.41986997564893
 20
30.19125694857508
 30
0.0
  0
VERTEX
  5
5C3
330
5AE
100
AcDbEntity
  8
DIBUJOS
 62
     7
100
AcDbVertex
100
AcDb2dVertex
 10
22.44921024220932
 20
30.18752577422443
 30
0.0
  0
VERTEX
  5
5C4
330
5AE
100
AcDbEntity
  8
DIBUJOS
 62
     7
100
AcDbVertex
100
AcDb2dVertex
 10
22.46593375957015
 20
30.19502226844838
 30
0.0
  0
VERTEX
  5
5C5
330
5AE
100
AcDbEntity
  8
DIBUJOS
 62
     7
100
AcDbVertex
100
AcDb2dVertex
 10
22.49988987212854
 20
30.20624993702362
 30
0.0
  0
VERTEX
  5
5C6
330
5AE
100
AcDbEntity
  8
DIBUJOS
 62
     7
100
AcDbVertex
100
AcDb2dVertex
 10
22.63950912514235
 20
30.3259237845721
 30
0.0
  0
VERTEX
  5
5C7
330
5AE
100
AcDbEntity
  8
DIBUJOS
 62
     7
100
AcDbVertex
100
AcDb2dVertex
 10
22.65680845920286
 20
30.3259237845721
 30
0.0
  0
VERTEX
  5
5C8
330
5AE
100
AcDbEntity
  8
DIBUJOS
 62
     7
100
AcDbVertex
100
AcDb2dVertex
 10
22.66745408385063
 20
30.31882617213113
 30
0.0
  0
VERTEX
  5
5C9
330
5AE
100
AcDbEntity
  8
DIBUJOS
 62
     7
100
AcDbVertex
100
AcDb2dVertex
 10
22.68076150267641
 20
30.309954544598
 30
0.0
  0
VERTEX
  5
5CA
330
5AE
100
AcDbEntity
  8
DIBUJOS
 62
     7
100
AcDbVertex
100
AcDb2dVertex
 10
22.7842501978581
 20
30.25211202974284
 30
0.0
  0
VERTEX
  5
5CB
330
5AE
100
AcDbEntity
  8
DIBUJOS
 62
     7
100
AcDbVertex
100
AcDb2dVertex
 10
22.8000859331373
 20
30.24386122988905
 30
0.0
  0
VERTEX
  5
5CC
330
5AE
100
AcDbEntity
  8
DIBUJOS
 62
     7
100
AcDbVertex
100
AcDb2dVertex
 10
22.8649824928967
 20
30.21232163172512
 30
0.0
  0
VERTEX
  5
5CD
330
5AE
100
AcDbEntity
  8
DIBUJOS
 62
     7
100
AcDbVertex
100
AcDb2dVertex
 10
22.88689456882241
 20
30.20367195008643
 30
0.0
  0
VERTEX
  5
5CE
330
5AE
100
AcDbEntity
  8
DIBUJOS
 62
     7
100
AcDbVertex
100
AcDb2dVertex
 10
22.99171338505982
 20
30.16667682869361
 30
0.0
  0
VERTEX
  5
5CF
330
5AE
100
AcDbEntity
  8
DIBUJOS
 62
     7
100
AcDbVertex
100
AcDb2dVertex
 10
23.01389396850323
 20
30.1622410149264
 30
0.0
  0
VERTEX
  5
5D0
330
5AE
100
AcDbEntity
  8
DIBUJOS
 62
     7
100
AcDbVertex
100
AcDb2dVertex
 10
23.23377834451567
 20
30.12081007976702
 30
0.0
  0
VERTEX
  5
5D1
330
5AE
100
AcDbEntity
  8
DIBUJOS
 62
     7
100
AcDbVertex
100
AcDb2dVertex
 10
23.27352211333793
 20
30.11584190626506
 30
0.0
  0
VERTEX
  5
5D2
330
5AE
100
AcDbEntity
  8
DIBUJOS
 62
     7
100
AcDbVertex
100
AcDb2dVertex
 10
23.5681664322028
 20
30.08056026926597
 30
0.0
  0
VERTEX
  5
5D3
330
5AE
100
AcDbEntity
  8
DIBUJOS
 62
     7
100
AcDbVertex
100
AcDb2dVertex
 10
23.7580090075624
 20
30.06380257814002
 30
0.0
  0
VERTEX
  5
5D4
330
5AE
100
AcDbEntity
  8
DIBUJOS
 62
     7
100
AcDbVertex
100
AcDb2dVertex
 10
24.01785444171775
 20
30.04610122894141
 30
0.0
  0
VERTEX
  5
5D5
330
5AE
100
AcDbEntity
  8
DIBUJOS
 62
     7
100
AcDbVertex
100
AcDb2dVertex
 10
24.13292465769245
 20
30.0406208726046
 30
0.0
  0
VERTEX
  5
5D6
330
5AE
100
AcDbEntity
  8
DIBUJOS
 62
     7
100
AcDbVertex
100
AcDb2dVertex
 10
24.30028710075946
 20
30.03182684853155
 30
0.0
  0
VERTEX
  5
5D7
330
5AE
100
AcDbEntity
  8
DIBUJOS
 62
     7
100
AcDbVertex
100
AcDb2dVertex
 10
24.87694502069031
 20
30.03182684853155
 30
0.0
  0
VERTEX
  5
5D8
330
5AE
100
AcDbEntity
  8
DIBUJOS
 62
     7
100
AcDbVertex
100
AcDb2dVertex
 10
25.044080862037
 20
30.04037409360224
 30
0.0
  0
VERTEX
  5
5D9
330
5AE
100
AcDbEntity
  8
DIBUJOS
 62
     7
100
AcDbVertex
100
AcDb2dVertex
 10
25.16514360706344
 20
30.04610122894141
 30
0.0
  0
VERTEX
  5
5DA
330
5AE
100
AcDbEntity
  8
DIBUJOS
 62
     7
100
AcDbVertex
100
AcDb2dVertex
 10
25.48842200219626
 20
30.06956851520858
 30
0.0
  0
VERTEX
  5
5DB
330
5AE
100
AcDbEntity
  8
DIBUJOS
 62
     7
100
AcDbVertex
100
AcDb2dVertex
 10
25.61483316864494
 20
30.08056026926597
 30
0.0
  0
VERTEX
  5
5DC
330
5AE
100
AcDbEntity
  8
DIBUJOS
 62
     7
100
AcDbVertex
100
AcDb2dVertex
 10
25.99605331320838
 20
30.12752122697672
 30
0.0
  0
VERTEX
  5
5DD
330
5AE
100
AcDbEntity
  8
DIBUJOS
 62
     7
100
AcDbVertex
100
AcDb2dVertex
 10
26.20851881098548
 20
30.17226117366626
 30
0.0
  0
VERTEX
  5
5DE
330
5AE
100
AcDbEntity
  8
DIBUJOS
 62
     7
100
AcDbVertex
100
AcDb2dVertex
 10
26.31224962855306
 20
30.21174581405231
 30
0.0
  0
VERTEX
  5
5DF
330
5AE
100
AcDbEntity
  8
DIBUJOS
 62
     7
100
AcDbVertex
100
AcDb2dVertex
 10
26.42873532924545
 20
30.26710501819202
 30
0.0
  0
VERTEX
  5
5E0
330
5AE
100
AcDbEntity
  8
DIBUJOS
 62
     7
100
AcDbVertex
100
AcDb2dVertex
 10
26.50208599564642
 20
30.31000886701992
 30
0.0
  0
VERTEX
  5
5E1
330
5AE
100
AcDbEntity
  8
DIBUJOS
 62
     7
100
AcDbVertex
100
AcDb2dVertex
 10
26.52042366224659
 20
30.3259237845721
 30
0.0
  0
VERTEX
  5
5E2
330
5AE
100
AcDbEntity
  8
DIBUJOS
 62
     7
100
AcDbVertex
100
AcDb2dVertex
 10
26.53772299630741
 20
30.3259237845721
 30
0.0
  0
VERTEX
  5
5E3
330
5AE
100
AcDbEntity
  8
DIBUJOS
 62
     7
100
AcDbVertex
100
AcDb2dVertex
 10
26.54807528037191
 20
30.31873925625694
 30
0.0
  0
VERTEX
  5
5E4
330
5AE
100
AcDbEntity
  8
DIBUJOS
 62
     7
100
AcDbVertex
100
AcDb2dVertex
 10
26.57927026649098
 20
30.29274209719737
 30
0.0
  0
VERTEX
  5
5E5
330
5AE
100
AcDbEntity
  8
DIBUJOS
 62
     7
100
AcDbVertex
100
AcDb2dVertex
 10
26.69399747575256
 20
30.20078820551759
 30
0.0
  0
VERTEX
  5
5E6
330
5AE
100
AcDbEntity
  8
DIBUJOS
 62
     7
100
AcDbVertex
100
AcDb2dVertex
 10
26.73378780657187
 20
30.18752577422443
 30
0.0
  0
VERTEX
  5
5E7
330
5AE
100
AcDbEntity
  8
DIBUJOS
 62
     7
100
AcDbVertex
100
AcDb2dVertex
 10
26.80298669488075
 20
30.19905920043197
 30
0.0
  0
VERTEX
  5
5E8
330
5AE
100
AcDbEntity
  8
DIBUJOS
 62
     7
100
AcDbVertex
100
AcDb2dVertex
 10
26.85488624912914
 20
30.25095884232938
 30
0.0
  0
VERTEX
  5
5E9
330
5AE
100
AcDbEntity
  8
DIBUJOS
 62
     7
100
AcDbVertex
100
AcDb2dVertex
 10
26.86930184349097
 20
30.308624421296
 30
0.0
  0
VERTEX
  5
5EA
330
5AE
100
AcDbEntity
  8
DIBUJOS
 62
     7
100
AcDbVertex
100
AcDb2dVertex
 10
26.85222445495048
 20
30.37028192223902
 30
0.0
  0
VERTEX
  5
5EB
330
5AE
100
AcDbEntity
  8
DIBUJOS
 62
     7
100
AcDbVertex
100
AcDb2dVertex
 10
26.79583632416344
 20
30.44598409735056
 30
0.0
  0
VERTEX
  5
5EC
330
5AE
100
AcDbEntity
  8
DIBUJOS
 62
     7
100
AcDbVertex
100
AcDb2dVertex
 10
26.73955373390329
 20
30.51622143681782
 30
0.0
  0
VERTEX
  5
5ED
330
5AE
100
AcDbEntity
  8
DIBUJOS
 62
     7
100
AcDbVertex
100
AcDb2dVertex
 10
26.73955373390329
 20
30.52775486302471
 30
0.0
  0
VERTEX
  5
5EE
330
5AE
100
AcDbEntity
  8
DIBUJOS
 62
     7
100
AcDbVertex
100
AcDb2dVertex
 10
26.74975701957632
 20
30.54017607281256
 30
0.0
  0
VERTEX
  5
5EF
330
5AE
100
AcDbEntity
  8
DIBUJOS
 62
     7
100
AcDbVertex
100
AcDb2dVertex
 10
26.81567328707638
 20
30.65404362949267
 30
0.0
  0
VERTEX
  5
5F0
330
5AE
100
AcDbEntity
  8
DIBUJOS
 62
     7
100
AcDbVertex
100
AcDb2dVertex
 10
26.82489877080646
 20
30.67826366932119
 30
0.0
  0
VERTEX
  5
5F1
330
5AE
100
AcDbEntity
  8
DIBUJOS
 62
     7
100
AcDbVertex
100
AcDb2dVertex
 10
26.8757336073837
 20
30.82229569085606
 30
0.0
  0
VERTEX
  5
5F2
330
5AE
100
AcDbEntity
  8
DIBUJOS
 62
     7
100
AcDbVertex
100
AcDb2dVertex
 10
26.89747029978613
 20
30.93097312813977
 30
0.0
  0
VERTEX
  5
5F3
330
5AE
100
AcDbEntity
  8
DIBUJOS
 62
     7
100
AcDbVertex
100
AcDb2dVertex
 10
26.90995201919355
 20
30.99508600255272
 30
0.0
  0
VERTEX
  5
5F4
330
5AE
100
AcDbEntity
  8
DIBUJOS
 62
     7
100
AcDbVertex
100
AcDb2dVertex
 10
26.91515144222465
 20
31.05227975248365
 30
0.0
  0
VERTEX
  5
5F5
330
5AE
100
AcDbEntity
  8
DIBUJOS
 62
     7
100
AcDbVertex
100
AcDb2dVertex
 10
26.92985106476977
 20
31.23704738217801
 30
0.0
  0
VERTEX
  5
5F6
330
5AE
100
AcDbEntity
  8
DIBUJOS
 62
     7
100
AcDbVertex
100
AcDb2dVertex
 10
26.92985106476977
 20
31.46771125011425
 30
0.0
  0
VERTEX
  5
5F7
330
5AE
100
AcDbEntity
  8
DIBUJOS
 62
     7
100
AcDbVertex
100
AcDb2dVertex
 10
26.90987286379815
 20
31.80776185095686
 30
0.0
  0
VERTEX
  5
5F8
330
5AE
100
AcDbEntity
  8
DIBUJOS
 62
     7
100
AcDbVertex
100
AcDb2dVertex
 10
26.9040929678677
 20
31.90003702096018
 30
0.0
  0
VERTEX
  5
5F9
330
5AE
100
AcDbEntity
  8
DIBUJOS
 62
     7
100
AcDbVertex
100
AcDb2dVertex
 10
26.86393479726971
 20
32.22859144525681
 30
0.0
  0
VERTEX
  5
5FA
330
5AE
100
AcDbEntity
  8
DIBUJOS
 62
     7
100
AcDbVertex
100
AcDb2dVertex
 10
26.86065217646056
 20
32.26926807478637
 30
0.0
  0
SEQEND
  5
5FB
330
5AE
100
AcDbEntity
  8
DIBUJOS
 62
     7
  0
ENDBLK
  5
414
330
411
100
AcDbEntity
  8
0
100
AcDbBlockEnd
  0
ENDSEC
  0
SECTION
  2
ENTITIES
  0
MTEXT
  5
41
330
1F
100
AcDbEntity
  8
REFERENCIAS
 62
   255
100
AcDbMText
 10
20.93094777802549
 20
54.85563098807646
 30
0.0
 40
1.49859999962535
 41
0.0
 71
     7
 72
     1
  1
\fMyriad Pro|b0|i0|c0|p34;\W1;TULIP_2323__CHAIR
  0
MTEXT
  5
43
330
1F
100
AcDbEntity
  8
M_U_00C1RGENES
 62
   255
100
AcDbMText
 10
50.14411571096793
 20
23.75824243163504
 30
0.0
 40
1.748366666229575
 41
0.0
 71
     7
 72
     1
  1
\fMyriad Pro|b0|i0|c0|p34;\W1;400
  0
MTEXT
  5
44
330
1F
100
AcDbEntity
  8
M_U_00C1RGENES
 62
   255
100
AcDbMText
 10
44.21460038245357
 20
20.50605109814752
 30
0.0
 40
1.748366666229575
 41
0.0
 71
     7
 72
     1
  1
\fMyriad Pro|b0|i0|c0|p34;\W1;400
  0
POLYLINE
  5
45
330
1F
100
AcDbEntity
  8
M_U_00C1RGENES
 62
   255
100
AcDb2dPolyline
 66
     1
 10
0.0
 20
0.0
 30
0.0
  0
VERTEX
  5
46
330
45
100
AcDbEntity
  8
M_U_00C1RGENES
 62
   255
100
AcDbVertex
100
AcDb2dVertex
 10
44.41949854309821
 20
24.76587593802794
 30
0.0
  0
VERTEX
  5
47
330
45
100
AcDbEntity
  8
M_U_00C1RGENES
 62
   255
100
AcDbVertex
100
AcDb2dVertex
 10
55.00283187378571
 20
19.74999894270961
 30
0.0
  0
SEQEND
  5
48
330
45
100
AcDbEntity
  8
M_U_00C1RGENES
 62
   255
  0
POLYLINE
  5
49
330
1F
100
AcDbEntity
  8
M_U_00C1RGENES
 62
   254
100
AcDb2dPolyline
 66
     1
 10
0.0
 20
0.0
 30
0.0
  0
VERTEX
  5
4A
330
49
100
AcDbEntity
  8
M_U_00C1RGENES
 62
   254
100
AcDbVertex
100
AcDb2dVertex
 10
14.99999791907867
 20
20.88258920325216
 30
0.0
  0
VERTEX
  5
4B
330
49
100
AcDbEntity
  8
M_U_00C1RGENES
 62
   254
100
AcDbVertex
100
AcDb2dVertex
 10
14.99999791907867
 20
19.74726776251925
 30
0.0
  0
SEQEND
  5
4C
330
49
100
AcDbEntity
  8
M_U_00C1RGENES
 62
   254
  0
POLYLINE
  5
4D
330
1F
100
AcDbEntity
  8
M_U_00C1RGENES
 62
   255
100
AcDb2dPolyline
 66
     1
 10
0.0
 20
0.0
 30
0.0
  0
VERTEX
  5
4E
330
4D
100
AcDbEntity
  8
M_U_00C1RGENES
 62
   255
100
AcDbVertex
100
AcDb2dVertex
 10
55.00283187378571
 20
59.74999886675599
 30
0.0
  0
VERTEX
  5
4F
330
4D
100
AcDbEntity
  8
M_U_00C1RGENES
 62
   255
100
AcDbVertex
100
AcDb2dVertex
 10
53.86751043305279
 20
59.7499988667053
 30
0.0
  0
SEQEND
  5
50
330
4D
100
AcDbEntity
  8
M_U_00C1RGENES
 62
   255
  0
INSERT
  5
53
330
1F
100
AcDbEntity
  8
DIBUJOS
100
AcDbBlockReference
  2
BLOCK_2
 10
0.0
 20
0.0
 30
0.0
  0
INSERT
  5
312
330
1F
100
AcDbEntity
  8
DIBUJOS
100
AcDbBlockReference
  2
BLOCK_3
 10
0.0
 20
0.0
 30
0.0
  0
INSERT
  5
412
330
1F
100
AcDbEntity
  8
DIBUJOS
100
AcDbBlockReference
  2
BLOCK_4
 10
0.0
 20
0.0
 30
0.0
  0
POLYLINE
  5
5FD
330
1F
100
AcDbEntity
  8
COTAS_LINEA
 62
     7
100
AcDb2dPolyline
 66
     1
 10
0.0
 20
0.0
 30
0.0
  0
VERTEX
  5
5FE
330
5FD
100
AcDbEntity
  8
COTAS_LINEA
 62
     7
100
AcDbVertex
100
AcDb2dVertex
 10
43.77967151601376
 20
47.88880749299484
 30
0.0
  0
VERTEX
  5
5FF
330
5FD
100
AcDbEntity
  8
COTAS_LINEA
 62
     7
100
AcDbVertex
100
AcDb2dVertex
 10
43.77967151732025
 20
43.38977093731017
 30
0.0
  0
SEQEND
  5
600
330
5FD
100
AcDbEntity
  8
COTAS_LINEA
 62
     7
  0
POLYLINE
  5
601
330
1F
100
AcDbEntity
  8
COTAS_LINEA
 62
     7
100
AcDb2dPolyline
 66
     1
 10
0.0
 20
0.0
 30
0.0
  0
VERTEX
  5
602
330
601
100
AcDbEntity
  8
COTAS_LINEA
 62
     7
100
AcDbVertex
100
AcDb2dVertex
 10
35.1013889148593
 20
39.71952908938052
 30
0.0
  0
VERTEX
  5
603
330
601
100
AcDbEntity
  8
COTAS_LINEA
 62
     7
100
AcDbVertex
100
AcDb2dVertex
 10
41.84955001316695
 20
39.71952908938052
 30
0.0
  0
SEQEND
  5
604
330
601
100
AcDbEntity
  8
COTAS_LINEA
 62
     7
  0
POLYLINE
  5
605
330
1F
100
AcDbEntity
  8
COTAS_LINEA
 62
     7
100
AcDb2dPolyline
 66
     1
 10
0.0
 20
0.0
 30
0.0
  0
VERTEX
  5
606
330
605
100
AcDbEntity
  8
COTAS_LINEA
 62
     7
100
AcDbVertex
100
AcDb2dVertex
 10
21.43124999464219
 20
39.71952908938052
 30
0.0
  0
VERTEX
  5
607
330
605
100
AcDbEntity
  8
COTAS_LINEA
 62
     7
100
AcDbVertex
100
AcDb2dVertex
 10
27.54350285962578
 20
39.71952908938052
 30
0.0
  0
SEQEND
  5
608
330
605
100
AcDbEntity
  8
COTAS_LINEA
 62
     7
  0
POLYLINE
  5
609
330
1F
100
AcDbEntity
  8
COTAS_LINEA
 62
     7
100
AcDb2dPolyline
 66
     1
 10
0.0
 20
0.0
 30
0.0
  0
VERTEX
  5
60A
330
609
100
AcDbEntity
  8
COTAS_LINEA
 62
     7
100
AcDbVertex
100
AcDb2dVertex
 10
29.544663160243
 20
52.25412231531498
 30
0.0
  0
VERTEX
  5
60B
330
609
100
AcDbEntity
  8
COTAS_LINEA
 62
     7
100
AcDbVertex
100
AcDb2dVertex
 10
29.54466316119785
 20
43.389773768795
 30
0.0
  0
SEQEND
  5
60C
330
609
100
AcDbEntity
  8
COTAS_LINEA
 62
     7
  0
MTEXT
  5
60E
330
1F
100
AcDbEntity
  8
COTAS_N_U_00DAMERO
 62
     7
100
AcDbMText
 10
44.53822538533965
 20
44.76742247415971
 30
0.0
 40
1.998533025814148
 41
0.0
 71
     7
 72
     1
  1
\fMyriad Pro|b0|i0|c0|p34;\W1;49
  0
MTEXT
  5
60F
330
1F
100
AcDbEntity
  8
COTAS_N_U_00DAMERO
 62
     7
100
AcDbMText
 10
37.25150392448771
 20
40.27467345184539
 30
0.0
 40
1.998533025814148
 41
0.0
 71
     7
 72
     1
  1
\fMyriad Pro|b0|i0|c0|p34;\W1;58
  0
MTEXT
  5
610
330
1F
100
AcDbEntity
  8
COTAS_N_U_00DAMERO
 62
     7
100
AcDbMText
 10
22.98174616980863
 20
40.27450119707113
 30
0.0
 40
1.998533025814148
 41
0.0
 71
     7
 72
     1
  1
\fMyriad Pro|b0|i0|c0|p34;\W1;49
  0
MTEXT
  5
611
330
1F
100
AcDbEntity
  8
COTAS_N_U_00DAMERO
 62
     7
100
AcDbMText
 10
29.96719403047546
 20
46.14029302503177
 30
0.0
 40
1.998533025814148
 41
0.0
 71
     7
 72
     1
  1
\fMyriad Pro|b0|i0|c0|p34;\W1;82
  0
ENDSEC
  0
SECTION
  2
OBJECTS
  0
DICTIONARY
  5
C
330
0
100
AcDbDictionary
  3
ACAD_GROUP
350
D
  3
ACAD_LAYOUT
350
1A
  3
ACAD_MATERIAL
350
3B
  3
ACAD_MLEADERSTYLE
350
634
  3
ACAD_MLINESTYLE
350
17
  3
ACAD_PLOTSETTINGS
350
19
  3
ACAD_VISUALSTYLE
350
2A
  3
ACDBHEADERROUNDTRIPXREC
350
612
  3
ACDBVARIABLEDICTIONARY
350
632
  0
DICTIONARY
  5
D
102
{ACAD_REACTORS
330
C
102
}
330
C
100
AcDbDictionary
  0
DICTIONARY
  5
1A
102
{ACAD_REACTORS
330
C
102
}
330
C
100
AcDbDictionary
  0
DICTIONARY
  5
3B
102
{ACAD_REACTORS
330
C
102
}
330
C
100
AcDbDictionary
  3
BYBLOCK
350
3D
  3
BYLAYER
350
3C
  3
GLOBAL
350
3E
  0
DICTIONARY
  5
634
102
{ACAD_REACTORS
330
C
102
}
330
C
100
AcDbDictionary
  0
DICTIONARY
  5
17
102
{ACAD_REACTORS
330
C
102
}
330
C
100
AcDbDictionary
  3
STANDARD
350
18
  0
DICTIONARY
  5
19
102
{ACAD_REACTORS
330
C
102
}
330
C
100
AcDbDictionary
  0
DICTIONARY
  5
2A
102
{ACAD_REACTORS
330
C
102
}
330
C
100
AcDbDictionary
  3
2DWIREFRAME
350
2F
  3
3D_HIDDEN
350
31
  3
3DWIREFRAME
350
30
  3
BASIC
350
32
  3
BRIGHTEN
350
36
  3
COLORCHANGE
350
3A
  3
CONCEPTUAL
350
34
  3
DIM
350
35
  3
FACEPATTERN
350
39
  3
FLAT
350
2B
  3
FLATWITHEDGES
350
2C
  3
GOURAUD
350
2D
  3
GOURAUDWITHEDGES
350
2E
  3
LINEPATTERN
350
38
  3
REALISTIC
350
33
  3
THICKEN
350
37
  0
DICTIONARY
  5
612
102
{ACAD_REACTORS
330
C
102
}
330
C
100
AcDbDictionary
  3
CEPSNTYPE
350
61B
  3
DIMSTYLEDATA
350
631
  3
FINGERPRINTGUID
350
61C
  3
HYPERLINKBASE
350
615
  3
INSUNITS
350
61A
  3
LAYOUTDICT
350
617
  3
LWETCUNION
350
619
  3
PLOTSETDICT
350
618
  3
PSVPSCALE
350
61E
  3
PUCSBASE
350
621
  3
PUCSORGBACK
350
627
  3
PUCSORGBOTTOM
350
623
  3
PUCSORGFRONT
350
626
  3
PUCSORGLEFT
350
624
  3
PUCSORGRIGHT
350
625
  3
PUCSORGTOP
350
622
  3
PUCSORTHOREF
350
61F
  3
PUCSORTHOVIEW
350
620
  3
STYLESHEET
350
616
  3
TSTACKALIGN
350
613
  3
TSTACKSIZE
350
614
  3
UCSBASE
350
62A
  3
UCSORGBACK
350
630
  3
UCSORGBOTTOM
350
62C
  3
UCSORGFRONT
350
62F
  3
UCSORGLEFT
350
62D
  3
UCSORGRIGHT
350
62E
  3
UCSORGTOP
350
62B
  3
UCSORTHOREF
350
628
  3
UCSORTHOVIEW
350
629
  3
VERSIONGUID
350
61D
  0
DICTIONARY
  5
632
102
{ACAD_REACTORS
330
C
102
}
330
C
100
AcDbDictionary
  3
DIMASSOC
350
635
  3
HIDETEXT
350
636
  0
MATERIAL
  5
3D
102
{ACAD_REACTORS
330
3B
102
}
102
{ACAD_XDICTIONARY
360
639
102
}
330
3B
100
AcDbMaterial
  1
ByBlock
  0
MATERIAL
  5
3C
102
{ACAD_REACTORS
330
3B
102
}
102
{ACAD_XDICTIONARY
360
637
102
}
330
3B
100
AcDbMaterial
  1
ByLayer
  0
MATERIAL
  5
3E
102
{ACAD_REACTORS
330
3B
102
}
102
{ACAD_XDICTIONARY
360
63B
102
}
330
3B
100
AcDbMaterial
  1
Global
  0
MLINESTYLE
  5
18
102
{ACAD_REACTORS
330
17
102
}
330
17
100
AcDbMlineStyle
  2
Standard
 70
     0
  3

 62
   256
 51
90.0
 52
90.0
 71
     2
 49
0.5
 62
   256
  6
BYLAYER
 49
-0.5
 62
   256
  6
BYLAYER
  0
ACAD_PROXY_OBJECT
  5
2F
102
{ACAD_REACTORS
330
2A
102
}
330
2A
100
AcDbProxyObject
 90
      499
 91
      501
 93
      436
310
42CC9915DA5C99599C985B595049028333333333333E3BF0000000000000FB0107901411070040501600405405064090741402480A0340
1001
ACAD
1000
AcDbSavedByObjectVersion
1070
     0
  0
ACAD_PROXY_OBJECT
  5
31
102
{ACAD_REACTORS
330
2A
102
}
330
2A
100
AcDbProxyObject
 90
      499
 91
      501
 93
      500
310
424CD108121A5919195B90640502408333333333333E3BF0000000000000FB01079024090700405020000000000001110200405405064090740C02480A0340
1001
ACAD
1000
AcDbSavedByObjectVersion
1070
     0
  0
ACAD_PROXY_OBJECT
  5
30
102
{ACAD_REACTORS
330
2A
102
}
330
2A
100
AcDbProxyObject
 90
      499
 91
      501
 93
      436
310
42CCD915DA5C99599C985B595059028333333333333E3BF0000000000000FB0107901411070040501600405405064090741402480A0340
1001
ACAD
1000
AcDbSavedByObjectVersion
1070
     0
  0
ACAD_PROXY_OBJECT
  5
32
102
{ACAD_REACTORS
330
2A
102
}
330
2A
100
AcDbProxyObject
 90
      499
 91
      501
 93
      388
310
4150985CDA58D07406404333333333333E3BF0000000000000FB0107A41107004050150841D405064090741402480A0350
1001
ACAD
1000
AcDbSavedByObjectVersion
1070
     0
  0
ACAD_PROXY_OBJECT
  5
36
102
{ACAD_REACTORS
330
2A
102
}
330
2A
100
AcDbProxyObject
 90
      499
 91
      501
 93
      428
310
42109C9A59DA1D195B90C409028333333333333E3BF0000000000000FB010790141107004050150841D405064090741402480A029950
1001
ACAD
1000
AcDbSavedByObjectVersion
1070
     0
  0
ACAD_PROXY_OBJECT
  5
3A
102
{ACAD_REACTORS
330
2A
102
}
330
2A
100
AcDbProxyObject
 90
      499
 91
      501
 93
      452
310
42D0DBDB1BDC90DA185B99D95104090240C333333333333E3BF0000000000000FB0108901411070040501508421405064090741402480A0350
1001
ACAD
1000
AcDbSavedByObjectVersion
1070
     0
  0
ACAD_PROXY_OBJECT
  5
34
102
{ACAD_REACTORS
330
2A
102
}
330
2A
100
AcDbProxyObject
 90
      499
 91
      501
 93
      500
310
4290DBDB98D95C1D1D585B10940D028333333333333E3BF0000000000000FB0107902409070040501000000000000111010841D405064090740C02480A0340
1001
ACAD
1000
AcDbSavedByObjectVersion
1070
     0
  0
ACAD_PROXY_OBJECT
  5
35
102
{ACAD_REACTORS
330
2A
102
}
330
2A
100
AcDbProxyObject
 90
      499
 91
      501
 93
      412
310
40D11A5B50B409028333333333333E3BF0000000000000FB010790141107004050150841D405064090741402480A02677FFFFFD0
1001
ACAD
1000
AcDbSavedByObjectVersion
1070
     0
  0
ACAD_PROXY_OBJECT
  5
39
102
{ACAD_REACTORS
330
2A
102
}
330
2A
100
AcDbProxyObject
 90
      499
 91
      501
 93
      444
310
42D19858D95C185D1D195C9B90F409028333333333333E3BF0000000000000FB010790141107004050150841D405064090741402480A0350
1001
ACAD
1000
AcDbSavedByObjectVersion
1070
     0
  0
ACAD_PROXY_OBJECT
  5
2B
102
{ACAD_REACTORS
330
2A
102
}
330
2A
100
AcDbProxyObject
 90
      499
 91
      501
 93
      388
310
41119B185D240901404333333333333E3BF0000000000000F9010740A41107004050150841D405064090741402480A1B50
1001
ACAD
1000
AcDbSavedByObjectVersion
1070
     0
  0
ACAD_PROXY_OBJECT
  5
2C
102
{ACAD_REACTORS
330
2A
102
}
330
2A
100
AcDbProxyObject
 90
      499
 91
      501
 93
      476
310
43519B185D15DA5D1A115919D95CD0140901404333333333333E3BF0000000000000F9010740901411070040501600405405064090741402480A1B50
1001
ACAD
1000
AcDbSavedByObjectVersion
1070
     0
  0
ACAD_PROXY_OBJECT
  5
2D
102
{ACAD_REACTORS
330
2A
102
}
330
2A
100
AcDbProxyObject
 90
      499
 91
      501
 93
      412
310
41D1DBDD5C985D5910240902404333333333333E3BF0000000000000F9010740A411070040501641D405064090741402480A1B50
1001
ACAD
1000
AcDbSavedByObjectVersion
1070
     0
  0
ACAD_PROXY_OBJECT
  5
2E
102
{ACAD_REACTORS
330
2A
102
}
330
2A
100
AcDbProxyObject
 90
      499
 91
      501
 93
      500
310
4411DBDD5C985D5915DA5D1A115919D95CD0340902404333333333333E3BF0000000000000F9010740901411070040501600405405064090741402480A1B50
1001
ACAD
1000
AcDbSavedByObjectVersion
1070
     0
  0
ACAD_PROXY_OBJECT
  5
38
102
{ACAD_REACTORS
330
2A
102
}
330
2A
100
AcDbProxyObject
 90
      499
 91
      501
 93
      444
310
42D31A5B995C185D1D195C9B90E409028333333333333E3BF0000000000000FB010790141107004050750841D405064090741402483A0350
1001
ACAD
1000
AcDbSavedByObjectVersion
1070
     0
  0
ACAD_PROXY_OBJECT
  5
33
102
{ACAD_REACTORS
330
2A
102
}
330
2A
100
AcDbProxyObject
 90
      499
 91
      501
 93
      420
310
425499585B1A5CDD1A58D08409028333333333333E3BF0000000000000FB01079019070040501508421405064090741402480A1B40
1001
ACAD
1000
AcDbSavedByObjectVersion
1070
     0
  0
ACAD_PROXY_OBJECT
  5
37
102
{ACAD_REACTORS
330
2A
102
}
330
2A
100
AcDbProxyObject
 90
      499
 91
      501
 93
      412
310
41D51A1A58DAD95B90D409028333333333333E3BF0000000000000FB010790141107004050150C41D405064090741402480A0350
1001
ACAD
1000
AcDbSavedByObjectVersion
1070
     0
  0
XRECORD
  5
61B
102
{ACAD_REACTORS
330
612
102
}
330
612
100
AcDbXrecord
 90
        0
  0
XRECORD
  5
631
102
{ACAD_REACTORS
330
612
102
}
330
612
100
AcDbXrecord
1000
DSTYLE
1002
{
1070
   340
340
11
1002
}
  0
XRECORD
  5
61C
102
{ACAD_REACTORS
330
612
102
}
330
612
100
AcDbXrecord
  1
{D2176609-F977-4779-B57B-245724165F07}
  0
XRECORD
  5
615
102
{ACAD_REACTORS
330
612
102
}
330
612
100
AcDbXrecord
  1

  0
XRECORD
  5
61A
102
{ACAD_REACTORS
330
612
102
}
330
612
100
AcDbXrecord
 90
        1
  0
XRECORD
  5
617
102
{ACAD_REACTORS
330
612
102
}
330
612
100
AcDbXrecord
340
1A
  0
XRECORD
  5
619
102
{ACAD_REACTORS
330
612
102
}
330
612
100
AcDbXrecord
 90
    10269
  0
XRECORD
  5
618
102
{ACAD_REACTORS
330
612
102
}
330
612
100
AcDbXrecord
340
19
  0
XRECORD
  5
61E
102
{ACAD_REACTORS
330
612
102
}
330
612
100
AcDbXrecord
 40
0.0
  0
XRECORD
  5
621
102
{ACAD_REACTORS
330
612
102
}
330
612
100
AcDbXrecord
340
0
  0
XRECORD
  5
627
102
{ACAD_REACTORS
330
612
102
}
330
612
100
AcDbXrecord
 10
0.0
 20
0.0
 30
0.0
  0
XRECORD
  5
623
102
{ACAD_REACTORS
330
612
102
}
330
612
100
AcDbXrecord
 10
0.0
 20
0.0
 30
0.0
  0
XRECORD
  5
626
102
{ACAD_REACTORS
330
612
102
}
330
612
100
AcDbXrecord
 10
0.0
 20
0.0
 30
0.0
  0
XRECORD
  5
624
102
{ACAD_REACTORS
330
612
102
}
330
612
100
AcDbXrecord
 10
0.0
 20
0.0
 30
0.0
  0
XRECORD
  5
625
102
{ACAD_REACTORS
330
612
102
}
330
612
100
AcDbXrecord
 10
0.0
 20
0.0
 30
0.0
  0
XRECORD
  5
622
102
{ACAD_REACTORS
330
612
102
}
330
612
100
AcDbXrecord
 10
0.0
 20
0.0
 30
0.0
  0
XRECORD
  5
61F
102
{ACAD_REACTORS
330
612
102
}
330
612
100
AcDbXrecord
340
0
  0
XRECORD
  5
620
102
{ACAD_REACTORS
330
612
102
}
330
612
100
AcDbXrecord
 70
     0
  0
XRECORD
  5
616
102
{ACAD_REACTORS
330
612
102
}
330
612
100
AcDbXrecord
  1

  0
XRECORD
  5
613
102
{ACAD_REACTORS
330
612
102
}
330
612
100
AcDbXrecord
 90
        1
  0
XRECORD
  5
614
102
{ACAD_REACTORS
330
612
102
}
330
612
100
AcDbXrecord
 90
       70
  0
XRECORD
  5
62A
102
{ACAD_REACTORS
330
612
102
}
330
612
100
AcDbXrecord
340
0
  0
XRECORD
  5
630
102
{ACAD_REACTORS
330
612
102
}
330
612
100
AcDbXrecord
 10
0.0
 20
0.0
 30
0.0
  0
XRECORD
  5
62C
102
{ACAD_REACTORS
330
612
102
}
330
612
100
AcDbXrecord
 10
0.0
 20
0.0
 30
0.0
  0
XRECORD
  5
62F
102
{ACAD_REACTORS
330
612
102
}
330
612
100
AcDbXrecord
 10
0.0
 20
0.0
 30
0.0
  0
XRECORD
  5
62D
102
{ACAD_REACTORS
330
612
102
}
330
612
100
AcDbXrecord
 10
0.0
 20
0.0
 30
0.0
  0
XRECORD
  5
62E
102
{ACAD_REACTORS
330
612
102
}
330
612
100
AcDbXrecord
 10
0.0
 20
0.0
 30
0.0
  0
XRECORD
  5
62B
102
{ACAD_REACTORS
330
612
102
}
330
612
100
AcDbXrecord
 10
0.0
 20
0.0
 30
0.0
  0
XRECORD
  5
628
102
{ACAD_REACTORS
330
612
102
}
330
612
100
AcDbXrecord
340
0
  0
XRECORD
  5
629
102
{ACAD_REACTORS
330
612
102
}
330
612
100
AcDbXrecord
 70
     0
  0
XRECORD
  5
61D
102
{ACAD_REACTORS
330
612
102
}
330
612
100
AcDbXrecord
  1
{FAEB1C32-E019-11D5-929B-00C0DF256EC4}
  0
DICTIONARYVAR
  5
635
102
{ACAD_REACTORS
330
632
102
}
330
632
100
DictionaryVariables
280
     0
  1
2
  0
DICTIONARYVAR
  5
636
102
{ACAD_REACTORS
330
632
102
}
330
632
100
DictionaryVariables
280
     0
  1
1
  0
DICTIONARY
  5
639
330
3D
100
AcDbDictionary
280
     1
  3
ACAD_XREC_ROUNDTRIP
360
63A
  0
DICTIONARY
  5
637
330
3C
100
AcDbDictionary
280
     1
  3
ACAD_XREC_ROUNDTRIP
360
638
  0
DICTIONARY
  5
63B
330
3E
100
AcDbDictionary
280
     1
  3
ACAD_XREC_ROUNDTRIP
360
63C
  0
XRECORD
  5
63A
102
{ACAD_REACTORS
330
639
102
}
330
639
100
AcDbXrecord
102
MATERIAL
148
0.0
149
0.0
149
0.0
 93
        0
 94
      127
282
     0
 72
     1
 77
     1
171
     1
175
     1
179
     1
273
     0
  0
XRECORD
  5
638
102
{ACAD_REACTORS
330
637
102
}
330
637
100
AcDbXrecord
102
MATERIAL
148
0.0
149
0.0
149
0.0
 93
        0
 94
      127
282
     0
 72
     1
 77
     1
171
     1
175
     1
179
     1
273
     0
  0
XRECORD
  5
63C
102
{ACAD_REACTORS
330
63B
102
}
330
63B
100
AcDbXrecord
102
MATERIAL
148
0.0
149
0.0
149
0.0
 93
        0
 94
      127
282
     0
 72
     1
 77
     1
171
     1
175
     1
179
     1
273
     0
  0
ENDSEC
  0
EOF
