  0
SECTION
  2
HEADER
  9
$ACADVER
  1
AC1021
  9
$ACADMAINTVER
 70
    50
  9
$DWGCODEPAGE
  3
ANSI_1252
  9
$INSBASE
 10
0.0
 20
0.0
 30
0.0
  9
$EXTMIN
 10
1.000000000000000E+20
 20
1.000000000000000E+20
 30
1.000000000000000E+20
  9
$EXTMAX
 10
-1.000000000000000E+20
 20
-1.000000000000000E+20
 30
-1.000000000000000E+20
  9
$LIMMIN
 10
0.0
 20
0.0
  9
$LIMMAX
 10
12.0
 20
9.0
  9
$ORTHOMODE
 70
     0
  9
$REGENMODE
 70
     1
  9
$FILLMODE
 70
     1
  9
$QTEXTMODE
 70
     0
  9
$MIRRTEXT
 70
     0
  9
$LTSCALE
 40
1.0
  9
$ATTMODE
 70
     1
  9
$TEXTSIZE
 40
0.2
  9
$TRACEWID
 40
0.05
  9
$TEXTSTYLE
  7
Standard
  9
$CLAYER
  8
0
  9
$CELTYPE
  6
ByLayer
  9
$CECOLOR
 62
   256
  9
$CELTSCALE
 40
1.0
  9
$DISPSILH
 70
     0
  9
$DIMSCALE
 40
1.0
  9
$DIMASZ
 40
0.18
  9
$DIMEXO
 40
0.0625
  9
$DIMDLI
 40
0.38
  9
$DIMRND
 40
0.0
  9
$DIMDLE
 40
0.0
  9
$DIMEXE
 40
0.18
  9
$DIMTP
 40
0.0
  9
$DIMTM
 40
0.0
  9
$DIMTXT
 40
0.18
  9
$DIMCEN
 40
0.09
  9
$DIMTSZ
 40
0.0
  9
$DIMTOL
 70
     0
  9
$DIMLIM
 70
     0
  9
$DIMTIH
 70
     1
  9
$DIMTOH
 70
     1
  9
$DIMSE1
 70
     0
  9
$DIMSE2
 70
     0
  9
$DIMTAD
 70
     0
  9
$DIMZIN
 70
     0
  9
$DIMBLK
  1

  9
$DIMASO
 70
     1
  9
$DIMSHO
 70
     1
  9
$DIMPOST
  1

  9
$DIMAPOST
  1

  9
$DIMALT
 70
     0
  9
$DIMALTD
 70
     2
  9
$DIMALTF
 40
25.4
  9
$DIMLFAC
 40
1.0
  9
$DIMTOFL
 70
     0
  9
$DIMTVP
 40
0.0
  9
$DIMTIX
 70
     0
  9
$DIMSOXD
 70
     0
  9
$DIMSAH
 70
     0
  9
$DIMBLK1
  1

  9
$DIMBLK2
  1

  9
$DIMSTYLE
  2
Standard
  9
$DIMCLRD
 70
     0
  9
$DIMCLRE
 70
     0
  9
$DIMCLRT
 70
     0
  9
$DIMTFAC
 40
1.0
  9
$DIMGAP
 40
0.09
  9
$DIMJUST
 70
     0
  9
$DIMSD1
 70
     0
  9
$DIMSD2
 70
     0
  9
$DIMTOLJ
 70
     1
  9
$DIMTZIN
 70
     0
  9
$DIMALTZ
 70
     0
  9
$DIMALTTZ
 70
     0
  9
$DIMUPT
 70
     0
  9
$DIMDEC
 70
     4
  9
$DIMTDEC
 70
     4
  9
$DIMALTU
 70
     2
  9
$DIMALTTD
 70
     2
  9
$DIMTXSTY
  7
Standard
  9
$DIMAUNIT
 70
     0
  9
$DIMADEC
 70
     0
  9
$DIMALTRND
 40
0.0
  9
$DIMAZIN
 70
     0
  9
$DIMDSEP
 70
    46
  9
$DIMATFIT
 70
     3
  9
$DIMFRAC
 70
     0
  9
$DIMLDRBLK
  1

  9
$DIMLUNIT
 70
     2
  9
$DIMLWD
 70
    -2
  9
$DIMLWE
 70
    -2
  9
$DIMTMOVE
 70
     0
  9
$DIMFXL
 40
1.0
  9
$DIMFXLON
 70
     0
  9
$DIMJOGANG
 40
0.7853981633974483
  9
$DIMTFILL
 70
     0
  9
$DIMTFILLCLR
 70
     0
  9
$DIMARCSYM
 70
     0
  9
$DIMLTYPE
  6

  9
$DIMLTEX1
  6

  9
$DIMLTEX2
  6

  9
$LUNITS
 70
     2
  9
$LUPREC
 70
     4
  9
$SKETCHINC
 40
0.1
  9
$FILLETRAD
 40
0.0
  9
$AUNITS
 70
     0
  9
$AUPREC
 70
     0
  9
$MENU
  1
.
  9
$ELEVATION
 40
0.0
  9
$PELEVATION
 40
0.0
  9
$THICKNESS
 40
0.0
  9
$LIMCHECK
 70
     0
  9
$CHAMFERA
 40
0.0
  9
$CHAMFERB
 40
0.0
  9
$CHAMFERC
 40
0.0
  9
$CHAMFERD
 40
0.0
  9
$SKPOLY
 70
     0
  9
$TDCREATE
 40
2460692.484166667
  9
$TDUCREATE
 40
2460692.442500000
  9
$TDUPDATE
 40
2460692.484166667
  9
$TDUUPDATE
 40
2460692.442500000
  9
$TDINDWG
 40
0.0000000000
  9
$TDUSRTIMER
 40
0.0000000000
  9
$USRTIMER
 70
     1
  9
$ANGBASE
 50
0.0
  9
$ANGDIR
 70
     0
  9
$PDMODE
 70
     0
  9
$PDSIZE
 40
0.0
  9
$PLINEWID
 40
0.0
  9
$SPLFRAME
 70
     0
  9
$SPLINETYPE
 70
     6
  9
$SPLINESEGS
 70
     8
  9
$HANDSEED
  5
246
  9
$SURFTAB1
 70
     6
  9
$SURFTAB2
 70
     6
  9
$SURFTYPE
 70
     6
  9
$SURFU
 70
     6
  9
$SURFV
 70
     6
  9
$UCSBASE
  2

  9
$UCSNAME
  2

  9
$UCSORG
 10
0.0
 20
0.0
 30
0.0
  9
$UCSXDIR
 10
1.0
 20
0.0
 30
0.0
  9
$UCSYDIR
 10
0.0
 20
1.0
 30
0.0
  9
$UCSORTHOREF
  2

  9
$UCSORTHOVIEW
 70
     0
  9
$UCSORGTOP
 10
0.0
 20
0.0
 30
0.0
  9
$UCSORGBOTTOM
 10
0.0
 20
0.0
 30
0.0
  9
$UCSORGLEFT
 10
0.0
 20
0.0
 30
0.0
  9
$UCSORGRIGHT
 10
0.0
 20
0.0
 30
0.0
  9
$UCSORGFRONT
 10
0.0
 20
0.0
 30
0.0
  9
$UCSORGBACK
 10
0.0
 20
0.0
 30
0.0
  9
$PUCSBASE
  2

  9
$PUCSNAME
  2

  9
$PUCSORG
 10
0.0
 20
0.0
 30
0.0
  9
$PUCSXDIR
 10
1.0
 20
0.0
 30
0.0
  9
$PUCSYDIR
 10
0.0
 20
1.0
 30
0.0
  9
$PUCSORTHOREF
  2

  9
$PUCSORTHOVIEW
 70
     0
  9
$PUCSORGTOP
 10
0.0
 20
0.0
 30
0.0
  9
$PUCSORGBOTTOM
 10
0.0
 20
0.0
 30
0.0
  9
$PUCSORGLEFT
 10
0.0
 20
0.0
 30
0.0
  9
$PUCSORGRIGHT
 10
0.0
 20
0.0
 30
0.0
  9
$PUCSORGFRONT
 10
0.0
 20
0.0
 30
0.0
  9
$PUCSORGBACK
 10
0.0
 20
0.0
 30
0.0
  9
$USERI1
 70
     0
  9
$USERI2
 70
     0
  9
$USERI3
 70
     0
  9
$USERI4
 70
     0
  9
$USERI5
 70
     0
  9
$USERR1
 40
0.0
  9
$USERR2
 40
0.0
  9
$USERR3
 40
0.0
  9
$USERR4
 40
0.0
  9
$USERR5
 40
0.0
  9
$WORLDVIEW
 70
     1
  9
$SHADEDGE
 70
     3
  9
$SHADEDIF
 70
    70
  9
$TILEMODE
 70
     1
  9
$MAXACTVP
 70
    64
  9
$PINSBASE
 10
0.0
 20
0.0
 30
0.0
  9
$PLIMCHECK
 70
     0
  9
$PEXTMIN
 10
1.000000000000000E+20
 20
1.000000000000000E+20
 30
1.000000000000000E+20
  9
$PEXTMAX
 10
-1.000000000000000E+20
 20
-1.000000000000000E+20
 30
-1.000000000000000E+20
  9
$PLIMMIN
 10
0.0
 20
0.0
  9
$PLIMMAX
 10
12.0
 20
9.0
  9
$UNITMODE
 70
     0
  9
$VISRETAIN
 70
     1
  9
$PLINEGEN
 70
     0
  9
$PSLTSCALE
 70
     1
  9
$TREEDEPTH
 70
  3020
  9
$CMLSTYLE
  2
Standard
  9
$CMLJUST
 70
     0
  9
$CMLSCALE
 40
1.0
  9
$PROXYGRAPHICS
 70
     1
  9
$MEASUREMENT
 70
     0
  9
$CELWEIGHT
370
    -1
  9
$ENDCAPS
280
     0
  9
$JOINSTYLE
280
     0
  9
$LWDISPLAY
290
     1
  9
$INSUNITS
 70
     4
  9
$HYPERLINKBASE
  1

  9
$STYLESHEET
  1

  9
$XEDIT
290
     1
  9
$CEPSNTYPE
380
     0
  9
$PSTYLEMODE
290
     1
  9
$FINGERPRINTGUID
  2
{AA6DCA4B-956D-C04C-A50C-BC1AE6A2D1A8}
  9
$VERSIONGUID
  2
{C836A2D1-28E1-B841-A90F-9B2C79D360F1}
  9
$EXTNAMES
290
     1
  9
$PSVPSCALE
 40
0.0
  9
$OLESTARTUP
290
     0
  9
$SORTENTS
280
   127
  9
$INDEXCTL
280
     0
  9
$HIDETEXT
280
     1
  9
$XCLIPFRAME
290
     0
  9
$HALOGAP
280
     0
  9
$OBSCOLOR
 70
   257
  9
$OBSLTYPE
280
     0
  9
$INTERSECTIONDISPLAY
280
     0
  9
$INTERSECTIONCOLOR
 70
   257
  9
$DIMASSOC
280
     2
  9
$PROJECTNAME
  1

  9
$CAMERADISPLAY
290
     0
  9
$LENSLENGTH
 40
50.0
  9
$CAMERAHEIGHT
 40
0.0
  9
$STEPSPERSEC
 40
2.0
  9
$STEPSIZE
 40
6.0
  9
$3DDWFPREC
 40
2.0
  9
$PSOLWIDTH
 40
0.25
  9
$PSOLHEIGHT
 40
4.0
  9
$LOFTANG1
 40
1.570796326794896
  9
$LOFTANG2
 40
1.570796326794896
  9
$LOFTMAG1
 40
0.0
  9
$LOFTMAG2
 40
0.0
  9
$LOFTPARAM
 70
     7
  9
$LOFTNORMALS
280
     1
  9
$LATITUDE
 40
37.795
  9
$LONGITUDE
 40
-122.394
  9
$NORTHDIRECTION
 40
0.0
  9
$TIMEZONE
 70
 -8000
  9
$LIGHTGLYPHDISPLAY
280
     1
  9
$TILEMODELIGHTSYNCH
280
     1
  9
$CMATERIAL
347
11
  9
$SOLIDHIST
280
     0
  9
$SHOWHIST
280
     1
  9
$DWFFRAME
280
     2
  9
$DGNFRAME
280
     0
  9
$REALWORLDSCALE
290
     1
  9
$INTERFERECOLOR
 62
     1
  9
$INTERFEREOBJVS
345
33
  9
$INTERFEREVPVS
346
30
  9
$CSHADOW
280
     0
  9
$SHADOWPLANELOCATION
 40
0.0
  0
ENDSEC
  0
SECTION
  2
CLASSES
  0
CLASS
  1
ACDBDICTIONARYWDFLT
  2
AcDbDictionaryWithDefault
  3
ObjectDBX Classes
 90
        0
 91
        1
280
     0
281
     0
  0
CLASS
  1
MATERIAL
  2
AcDbMaterial
  3
ObjectDBX Classes
 90
     1153
 91
        3
280
     0
281
     0
  0
CLASS
  1
VISUALSTYLE
  2
AcDbVisualStyle
  3
ObjectDBX Classes
 90
     4095
 91
       24
280
     0
281
     0
  0
CLASS
  1
SCALE
  2
AcDbScale
  3
ObjectDBX Classes
 90
     1153
 91
       17
280
     0
281
     0
  0
CLASS
  1
TABLESTYLE
  2
AcDbTableStyle
  3
ObjectDBX Classes
 90
     4095
 91
        1
280
     0
281
     0
  0
CLASS
  1
MLEADERSTYLE
  2
AcDbMLeaderStyle
  3
ACDB_MLEADERSTYLE_CLASS
 90
     4095
 91
        1
280
     0
281
     0
  0
CLASS
  1
ACDBSECTIONVIEWSTYLE
  2
AcDbSectionViewStyle
  3
ObjectDBX Classes
 90
     1025
 91
        1
280
     0
281
     0
  0
CLASS
  1
ACDBDETAILVIEWSTYLE
  2
AcDbDetailViewStyle
  3
ObjectDBX Classes
 90
     1025
 91
        1
280
     0
281
     0
  0
CLASS
  1
DICTIONARYVAR
  2
AcDbDictionaryVar
  3
ObjectDBX Classes
 90
        0
 91
        6
280
     0
281
     0
  0
CLASS
  1
CELLSTYLEMAP
  2
AcDbCellStyleMap
  3
ObjectDBX Classes
 90
     1152
 91
        1
280
     0
281
     0
  0
ENDSEC
  0
SECTION
  2
TABLES
  0
TABLE
  2
VPORT
  5
8
330
0
100
AcDbSymbolTable
 70
     1
  0
VPORT
  5
57
330
8
100
AcDbSymbolTableRecord
100
AcDbViewportTableRecord
  2
*Active
 70
     0
 10
0.0
 20
0.0
 11
1.0
 21
1.0
 12
0.0
 22
0.0
 13
0.0
 23
0.0
 14
1.0
 24
1.0
 15
0.0
 25
0.0
 16
0.0
 26
0.0
 36
1.0
 17
74.93068922643996
 27
39.79561380238035
 37
0.0
 40
41.06120725698136
 41
0.9989585508168884
 42
50.0
 43
0.0
 44
0.0
 50
0.0
 51
0.0
 71
     0
 72
   100
 73
     1
 74
     1
 75
     0
 76
     0
 77
     0
 78
     0
281
     0
 65
     1
110
0.0
120
0.0
130
0.0
111
1.0
121
0.0
131
0.0
112
0.0
122
1.0
132
0.0
 79
     0
146
0.0
 60
     3
 61
     5
292
     1
282
     1
141
0.0
142
0.0
 63
   250
421
  3355443
  0
ENDTAB
  0
TABLE
  2
LTYPE
  5
5
330
0
100
AcDbSymbolTable
 70
     1
  0
LTYPE
  5
5B
330
5
100
AcDbSymbolTableRecord
100
AcDbLinetypeTableRecord
  2
ByBlock
 70
     0
  3

 72
    65
 73
     0
 40
0.0
  0
LTYPE
  5
5C
330
5
100
AcDbSymbolTableRecord
100
AcDbLinetypeTableRecord
  2
ByLayer
 70
     0
  3

 72
    65
 73
     0
 40
0.0
  0
LTYPE
  5
5D
330
5
100
AcDbSymbolTableRecord
100
AcDbLinetypeTableRecord
  2
Continuous
 70
     0
  3
Solid line
 72
    65
 73
     0
 40
0.0
  0
ENDTAB
  0
TABLE
  2
LAYER
  5
2
330
0
100
AcDbSymbolTable
 70
     6
  0
LAYER
  5
54
330
2
100
AcDbSymbolTableRecord
100
AcDbLayerTableRecord
  2
0
 70
     0
 62
     7
  6
Continuous
370
    -3
390
F
347
21
  0
LAYER
  5
78
330
2
100
AcDbSymbolTableRecord
100
AcDbLayerTableRecord
  2
REFERENCIAS
 70
     0
 62
     7
  6
Continuous
370
     0
390
F
347
21
  0
LAYER
  5
7A
330
2
100
AcDbSymbolTableRecord
100
AcDbLayerTableRecord
  2
MÁRGENES
 70
     0
 62
     7
  6
Continuous
370
     0
390
F
347
21
  0
LAYER
  5
80
330
2
100
AcDbSymbolTableRecord
100
AcDbLayerTableRecord
  2
DIBUJOS
 70
     0
 62
     7
  6
Continuous
370
     0
390
F
347
21
  0
LAYER
  5
1F7
330
2
100
AcDbSymbolTableRecord
100
AcDbLayerTableRecord
  2
COTAS LINEA
 70
     0
 62
     7
  6
Continuous
370
     0
390
F
347
21
  0
LAYER
  5
1FD
330
2
100
AcDbSymbolTableRecord
100
AcDbLayerTableRecord
  2
COTAS NÚMERO
 70
     0
 62
     7
  6
Continuous
370
     0
390
F
347
21
  0
ENDTAB
  0
TABLE
  2
STYLE
  5
3
330
0
100
AcDbSymbolTable
 70
     2
  0
STYLE
  5
55
330
3
100
AcDbSymbolTableRecord
100
AcDbTextStyleTableRecord
  2
Standard
 70
     0
 40
0.0
 41
1.0
 50
0.0
 71
     0
 42
0.2
  3
txt
  4

  0
STYLE
  5
5A
330
3
100
AcDbSymbolTableRecord
100
AcDbTextStyleTableRecord
  2
Annotative
 70
     0
 40
0.0
 41
1.0
 50
0.0
 71
     0
 42
0.2
  3
txt
  4

1001
AcadAnnotative
1000
AnnotativeData
1002
{
1070
     1
1070
     1
1002
}
  0
ENDTAB
  0
TABLE
  2
VIEW
  5
6
330
0
100
AcDbSymbolTable
 70
     0
  0
ENDTAB
  0
TABLE
  2
UCS
  5
7
330
0
100
AcDbSymbolTable
 70
     0
  0
ENDTAB
  0
TABLE
  2
APPID
  5
9
330
0
100
AcDbSymbolTable
 70
     3
  0
APPID
  5
56
330
9
100
AcDbSymbolTableRecord
100
AcDbRegAppTableRecord
  2
ACAD
 70
     0
  0
APPID
  5
5E
330
9
100
AcDbSymbolTableRecord
100
AcDbRegAppTableRecord
  2
AcadAnnotative
 70
     0
  0
APPID
  5
23F
330
9
100
AcDbSymbolTableRecord
100
AcDbRegAppTableRecord
  2
ACAD_MLEADERVER
 70
     0
  0
ENDTAB
  0
TABLE
  2
DIMSTYLE
  5
A
330
0
100
AcDbSymbolTable
 70
     2
100
AcDbDimStyleTable
 71
     0
  0
DIMSTYLE
105
58
330
A
100
AcDbSymbolTableRecord
100
AcDbDimStyleTableRecord
  2
Standard
 70
     0
340
55
  0
DIMSTYLE
105
59
330
A
100
AcDbSymbolTableRecord
100
AcDbDimStyleTableRecord
  2
Annotative
 70
     0
340
55
1001
AcadAnnotative
1000
AnnotativeData
1002
{
1070
     1
1070
     1
1002
}
  0
ENDTAB
  0
TABLE
  2
BLOCK_RECORD
  5
1
330
0
100
AcDbSymbolTable
 70
     4
  0
BLOCK_RECORD
  5
70
330
1
100
AcDbSymbolTableRecord
100
AcDbBlockTableRecord
  2
*Model_Space
340
73
 70
     0
280
     1
281
     0
  0
BLOCK_RECORD
  5
6C
330
1
100
AcDbSymbolTableRecord
100
AcDbBlockTableRecord
  2
*Paper_Space
340
6F
 70
     0
280
     1
281
     0
  0
BLOCK_RECORD
  5
74
330
1
100
AcDbSymbolTableRecord
100
AcDbBlockTableRecord
  2
*Paper_Space0
340
77
 70
     0
280
     1
281
     0
  0
BLOCK_RECORD
  5
81
330
1
100
AcDbSymbolTableRecord
100
AcDbBlockTableRecord
  2
Block_0
340
0
102
{BLKREFS
331
82
102
}
 70
     0
280
     1
281
     0
  0
BLOCK_RECORD
  5
112
330
1
100
AcDbSymbolTableRecord
100
AcDbBlockTableRecord
  2
Block_1
340
0
102
{BLKREFS
331
113
102
}
 70
     0
280
     1
281
     0
  0
BLOCK_RECORD
  5
165
330
1
100
AcDbSymbolTableRecord
100
AcDbBlockTableRecord
  2
Block_2
340
0
102
{BLKREFS
331
166
102
}
 70
     0
280
     1
281
     0
  0
ENDTAB
  0
ENDSEC
  0
SECTION
  2
BLOCKS
  0
BLOCK
  5
71
330
70
100
AcDbEntity
  8
0
100
AcDbBlockBegin
  2
*Model_Space
 70
     0
 10
0.0
 20
0.0
 30
0.0
  3
*Model_Space
  1

  0
ENDBLK
  5
72
330
70
100
AcDbEntity
  8
0
100
AcDbBlockEnd
  0
BLOCK
  5
6D
330
6C
100
AcDbEntity
 67
     1
  8
0
100
AcDbBlockBegin
  2
*Paper_Space
 70
     0
 10
0.0
 20
0.0
 30
0.0
  3
*Paper_Space
  1

  0
ENDBLK
  5
6E
330
6C
100
AcDbEntity
 67
     1
  8
0
100
AcDbBlockEnd
  0
BLOCK
  5
75
330
74
100
AcDbEntity
 67
     1
  8
0
100
AcDbBlockBegin
  2
*Paper_Space0
 70
     0
 10
0.0
 20
0.0
 30
0.0
  3
*Paper_Space0
  1

  0
ENDBLK
  5
76
330
74
100
AcDbEntity
 67
     1
  8
0
100
AcDbBlockEnd
  0
BLOCK
  5
83
330
81
100
AcDbEntity
  8
0
100
AcDbBlockBegin
  2
Block_0
 70
     0
 10
0.0
 20
0.0
 30
0.0
  3
Block_0
  1

  0
LINE
  5
85
330
81
100
AcDbEntity
  8
DIBUJOS
 62
     7
370
    18
100
AcDbLine
 10
62.36764653548014
 20
49.62879477630432
 30
0.0
 11
62.36159623813332
 21
49.62879477630432
 31
0.0
  0
LWPOLYLINE
  5
86
330
81
100
AcDbEntity
  8
DIBUJOS
 62
     7
370
    18
100
AcDbPolyline
 90
       21
 70
     0
 43
0.0
 10
66.82722869297932
 20
49.62879477630432
 10
66.72496645322508
 20
49.6723663521575
 10
66.58579332812429
 20
49.72138803989104
 10
66.44056990567765
 20
49.76375101352822
 10
66.27012741071045
 20
49.80789594245376
 10
65.97972616698027
 20
49.8562237426621
 10
65.65911740906942
 20
49.89238082082207
 10
65.53861470355982
 20
49.90385765534394
 10
64.98785686898037
 20
49.93426817202385
 10
64.69727973504522
 20
49.94349068650948
 10
64.5096374580386
 20
49.94040239836619
 10
64.21931113050746
 20
49.93447666404981
 10
63.96525890063422
 20
49.92247534177391
 10
63.65623935292988
 20
49.90382507846485
 10
63.46917523354328
 20
49.88629545979837
 10
63.22130196144485
 20
49.85643875006439
 10
62.92474618913577
 20
49.80789594245376
 10
62.74334149997231
 20
49.75979943808822
 10
62.59818973649792
 20
49.71775571786697
 10
62.46506853735686
 20
49.66994589003761
 10
62.36764653548014
 20
49.62879477630432
  0
LINE
  5
87
330
81
100
AcDbEntity
  8
DIBUJOS
 62
     7
370
    18
100
AcDbLine
 10
66.83327899032581
 20
49.62879477630432
 30
0.0
 11
66.82722869297932
 21
49.62879477630432
 31
0.0
  0
LINE
  5
88
330
81
100
AcDbEntity
  8
DIBUJOS
 62
     7
370
    18
100
AcDbLine
 10
66.83933091628522
 20
49.62879477630432
 30
0.0
 11
66.83327899032581
 21
49.62879477630432
 31
0.0
  0
LINE
  5
89
330
81
100
AcDbEntity
  8
DIBUJOS
 62
     7
370
    18
100
AcDbLine
 10
62.36764653548014
 20
49.62274199215972
 30
0.0
 11
62.36764653548014
 21
49.62879477630432
 31
0.0
  0
LINE
  5
8A
330
81
100
AcDbEntity
  8
DIBUJOS
 62
     7
370
    18
100
AcDbLine
 10
66.83327899032581
 20
49.62274199215972
 30
0.0
 11
66.83327899032581
 21
49.62879477630432
 31
0.0
  0
LWPOLYLINE
  5
8B
330
81
100
AcDbEntity
  8
DIBUJOS
 62
     7
370
    18
100
AcDbPolyline
 90
        3
 70
     0
 43
0.0
 10
66.84538121363203
 20
49.60458689741344
 10
66.83327899032581
 20
49.61668920801511
 10
66.83327899032581
 20
49.62274199215972
  0
LINE
  5
8C
330
81
100
AcDbEntity
  8
DIBUJOS
 62
     7
370
    18
100
AcDbLine
 10
66.85143151097822
 20
49.60458689741344
 30
0.0
 11
66.84538121363203
 21
49.60458689741344
 31
0.0
  0
LINE
  5
8D
330
81
100
AcDbEntity
  8
DIBUJOS
 62
     7
370
    18
100
AcDbLine
 10
62.34344208886801
 20
49.59853411326915
 30
0.0
 11
62.33739179152119
 21
49.59853411326915
 31
0.0
  0
LINE
  5
8E
330
81
100
AcDbEntity
  8
DIBUJOS
 62
     7
370
    18
100
AcDbLine
 10
62.34344208886801
 20
49.59853411326915
 30
0.0
 11
62.36764653548014
 21
49.62274199215972
 31
0.0
  0
LINE
  5
8F
330
81
100
AcDbEntity
  8
DIBUJOS
 62
     7
370
    18
100
AcDbLine
 10
66.85143151097822
 20
49.59853411326915
 30
0.0
 11
66.85143151097822
 21
49.60458689741344
 31
0.0
  0
LWPOLYLINE
  5
90
330
81
100
AcDbEntity
  8
DIBUJOS
 62
     7
370
    18
100
AcDbPolyline
 90
        4
 70
     0
 43
0.0
 10
66.86353373428445
 20
49.59853411326915
 10
66.86353373428445
 20
49.60458689741344
 10
66.85748343693794
 20
49.61063968155835
 10
66.85143151097822
 20
49.60458689741344
  0
LINE
  5
91
330
81
100
AcDbEntity
  8
DIBUJOS
 62
     7
370
    18
100
AcDbLine
 10
62.33739179152119
 20
49.59248458681208
 30
0.0
 11
62.33739179152119
 21
49.59853411326915
 31
0.0
  0
LINE
  5
92
330
81
100
AcDbEntity
  8
DIBUJOS
 62
     7
370
    18
100
AcDbLine
 10
66.85748343693794
 20
49.59248458681208
 30
0.0
 11
66.85143151097822
 21
49.59853411326915
 31
0.0
  0
LINE
  5
93
330
81
100
AcDbEntity
  8
DIBUJOS
 62
     7
370
    18
100
AcDbLine
 10
66.86353373428445
 20
49.59248458681208
 30
0.0
 11
66.85748343693794
 21
49.59248458681208
 31
0.0
  0
LINE
  5
94
330
81
100
AcDbEntity
  8
DIBUJOS
 62
     7
370
    18
100
AcDbLine
 10
66.86353373428445
 20
49.59248458681208
 30
0.0
 11
66.86353373428445
 21
49.59853411326915
 31
0.0
  0
LWPOLYLINE
  5
95
330
81
100
AcDbEntity
  8
DIBUJOS
 62
     7
370
    18
100
AcDbPolyline
 90
        4
 70
     0
 43
0.0
 10
62.3313414941747
 20
49.58643180266811
 10
62.32528956821496
 20
49.59248458681208
 10
62.3313414941747
 20
49.60458689741344
 10
62.33739179152119
 20
49.59853411326915
  0
LINE
  5
96
330
81
100
AcDbEntity
  8
DIBUJOS
 62
     7
370
    18
100
AcDbLine
 10
62.3313414941747
 20
49.58643180266811
 30
0.0
 11
62.33739179152119
 21
49.59248458681208
 31
0.0
  0
LINE
  5
97
330
81
100
AcDbEntity
  8
DIBUJOS
 62
     7
370
    18
100
AcDbLine
 10
66.87563595759067
 20
49.58037901852287
 30
0.0
 11
66.86353373428445
 21
49.59248458681208
 31
0.0
  0
LINE
  5
98
330
81
100
AcDbEntity
  8
DIBUJOS
 62
     7
370
    18
100
AcDbLine
 10
66.8816878835504
 20
49.58037901852287
 30
0.0
 11
66.87563595759067
 21
49.58037901852287
 31
0.0
  0
LINE
  5
99
330
81
100
AcDbEntity
  8
DIBUJOS
 62
     7
370
    18
100
AcDbLine
 10
66.8816878835504
 20
49.57432949206643
 30
0.0
 11
66.8816878835504
 21
49.58037901852287
 31
0.0
  0
LWPOLYLINE
  5
9A
330
81
100
AcDbEntity
  8
DIBUJOS
 62
     7
370
    18
100
AcDbPolyline
 90
        4
 70
     0
 43
0.0
 10
66.89378847824371
 20
49.57432949206643
 10
66.89378847824371
 20
49.58037901852287
 10
66.88773818089689
 20
49.58643180266811
 10
66.8816878835504
 20
49.58037901852287
  0
LINE
  5
9B
330
81
100
AcDbEntity
  8
DIBUJOS
 62
     7
370
    18
100
AcDbLine
 10
66.88773818089689
 20
49.56827670792151
 30
0.0
 11
66.8816878835504
 21
49.57432949206643
 31
0.0
  0
LINE
  5
9C
330
81
100
AcDbEntity
  8
DIBUJOS
 62
     7
370
    18
100
AcDbLine
 10
66.89378847824371
 20
49.56827670792151
 30
0.0
 11
66.88773818089689
 21
49.56827670792151
 31
0.0
  0
LINE
  5
9D
330
81
100
AcDbEntity
  8
DIBUJOS
 62
     7
370
    18
100
AcDbLine
 10
66.89378847824371
 20
49.56827670792151
 30
0.0
 11
66.89378847824371
 21
49.57432949206643
 31
0.0
  0
LINE
  5
9E
330
81
100
AcDbEntity
  8
DIBUJOS
 62
     7
370
    18
100
AcDbLine
 10
66.89984040420248
 20
49.56222392377658
 30
0.0
 11
66.89378847824371
 21
49.56827670792151
 31
0.0
  0
LINE
  5
9F
330
81
100
AcDbEntity
  8
DIBUJOS
 62
     7
370
    18
100
AcDbLine
 10
66.90589070154962
 20
49.56222392377658
 30
0.0
 11
66.89984040420248
 21
49.56222392377658
 31
0.0
  0
LINE
  5
A0
330
81
100
AcDbEntity
  8
DIBUJOS
 62
     7
370
    18
100
AcDbLine
 10
66.90589070154962
 20
49.56222392377658
 30
0.0
 11
66.91194262750871
 21
49.56827670792151
 31
0.0
  0
LINE
  5
A1
330
81
100
AcDbEntity
  8
DIBUJOS
 62
     7
370
    18
100
AcDbLine
 10
62.28293260095043
 20
49.55617113963231
 30
0.0
 11
62.27688230360426
 21
49.56222392377658
 31
0.0
  0
LINE
  5
A2
330
81
100
AcDbEntity
  8
DIBUJOS
 62
     7
370
    18
100
AcDbLine
 10
62.28898452690984
 20
49.55617113963231
 30
0.0
 11
62.28293260095043
 21
49.55617113963231
 31
0.0
  0
LINE
  5
A3
330
81
100
AcDbEntity
  8
DIBUJOS
 62
     7
370
    18
100
AcDbLine
 10
62.28898452690984
 20
49.55617113963231
 30
0.0
 11
62.3313414941747
 21
49.58643180266811
 31
0.0
  0
LINE
  5
A4
330
81
100
AcDbEntity
  8
DIBUJOS
 62
     7
370
    18
100
AcDbLine
 10
66.90589070154962
 20
49.55617113963231
 30
0.0
 11
66.90589070154962
 21
49.56222392377658
 31
0.0
  0
LINE
  5
A5
330
81
100
AcDbEntity
  8
DIBUJOS
 62
     7
370
    18
100
AcDbLine
 10
62.28293260095043
 20
49.55012161317522
 30
0.0
 11
62.28293260095043
 21
49.55617113963231
 31
0.0
  0
LINE
  5
A6
330
81
100
AcDbEntity
  8
DIBUJOS
 62
     7
370
    18
100
AcDbLine
 10
62.25267785699148
 20
49.53196651842894
 30
0.0
 11
62.24662755964498
 21
49.53801604488602
 31
0.0
  0
LINE
  5
A7
330
81
100
AcDbEntity
  8
DIBUJOS
 62
     7
370
    18
100
AcDbLine
 10
62.25872978295122
 20
49.53196651842894
 30
0.0
 11
62.25267785699148
 21
49.53196651842894
 31
0.0
  0
LINE
  5
A8
330
81
100
AcDbEntity
  8
DIBUJOS
 62
     7
370
    18
100
AcDbLine
 10
62.25872978295122
 20
49.53196651842894
 30
0.0
 11
62.28293260095043
 21
49.55012161317522
 31
0.0
  0
LINE
  5
A9
330
81
100
AcDbEntity
  8
DIBUJOS
 62
     7
370
    18
100
AcDbLine
 10
62.25267785699148
 20
49.52591373428434
 30
0.0
 11
62.25267785699148
 21
49.53196651842894
 31
0.0
  0
LINE
  5
AA
330
81
100
AcDbEntity
  8
DIBUJOS
 62
     7
370
    18
100
AcDbLine
 10
62.23452533633876
 20
49.50775863953838
 30
0.0
 11
62.25267785699148
 21
49.52591373428434
 31
0.0
  0
LWPOLYLINE
  5
AB
330
81
100
AcDbEntity
  8
DIBUJOS
 62
     7
370
    18
100
AcDbPolyline
 90
        4
 70
     0
 43
0.0
 10
62.22847341037935
 20
49.50170585539378
 10
62.22242311303318
 20
49.50775863953838
 10
62.22847341037935
 20
49.51380816599546
 10
62.23452533633876
 20
49.50775863953838
  0
LINE
  5
AC
330
81
100
AcDbEntity
  8
DIBUJOS
 62
     7
370
    18
100
AcDbLine
 10
62.23452533633876
 20
49.50170585539378
 30
0.0
 11
62.22847341037935
 21
49.50170585539378
 31
0.0
  0
LINE
  5
AD
330
81
100
AcDbEntity
  8
DIBUJOS
 62
     7
370
    18
100
AcDbLine
 10
62.23452533633876
 20
49.50170585539378
 30
0.0
 11
62.23452533633876
 21
49.50775863953838
 31
0.0
  0
LWPOLYLINE
  5
AE
330
81
100
AcDbEntity
  8
DIBUJOS
 62
     7
370
    18
100
AcDbPolyline
 90
       11
 70
     0
 43
0.0
 10
67.13582968713985
 20
49.16885485044329
 10
67.12723712487807
 20
49.25926872081519
 10
67.1016581288817
 20
49.42356695308258
 10
67.05716604995567
 20
49.48960028710425
 10
67.03296160334386
 20
49.51380816599546
 10
66.98967469804774
 20
49.5426712809154
 10
66.91076188307373
 20
49.60311116478862
 10
66.87503174216248
 20
49.62153338994369
 10
66.87018987567269
 20
49.62395385206391
 10
66.85143151097822
 20
49.63182116837661
 10
66.83933091628522
 20
49.62879477630432
  0
LINE
  5
AF
330
81
100
AcDbEntity
  8
DIBUJOS
 62
     7
370
    18
100
AcDbLine
 10
67.13582968713985
 20
49.16280206629869
 30
0.0
 11
67.13582968713985
 21
49.16885485044329
 31
0.0
  0
LINE
  5
B0
330
81
100
AcDbEntity
  8
DIBUJOS
 62
     7
370
    18
100
AcDbLine
 10
67.14187998448602
 20
49.16280206629869
 30
0.0
 11
67.13582968713985
 21
49.16280206629869
 31
0.0
  0
LINE
  5
B1
330
81
100
AcDbEntity
  8
DIBUJOS
 62
     7
370
    18
100
AcDbLine
 10
67.13582968713985
 20
49.15674928215409
 30
0.0
 11
67.13582968713985
 21
49.16280206629869
 31
0.0
  0
LWPOLYLINE
  5
B2
330
81
100
AcDbEntity
  8
DIBUJOS
 62
     7
370
    18
100
AcDbPolyline
 90
       11
 70
     0
 43
0.0
 10
62.05904554132025
 20
49.15069975569765
 10
62.06869507342741
 20
49.24793522456109
 10
62.10079829315692
 20
49.43332047069794
 10
62.11205363769579
 20
49.45438142306334
 10
62.14831633506267
 20
49.49693660028756
 10
62.22956295248585
 20
49.5607709949667
 10
62.27797184571011
 20
49.59708444214712
 10
62.33194570960289
 20
49.62698024413652
 10
62.34283787343982
 20
49.63060930847276
 10
62.35615015621502
 20
49.63000337852066
 10
62.36159623813332
 20
49.62879477630432
  0
LINE
  5
B3
330
81
100
AcDbEntity
  8
DIBUJOS
 62
     7
370
    18
100
AcDbLine
 10
62.05904554132025
 20
49.14464697155305
 30
0.0
 11
62.05299524397376
 21
49.14464697155305
 31
0.0
  0
LINE
  5
B4
330
81
100
AcDbEntity
  8
DIBUJOS
 62
     7
370
    18
100
AcDbLine
 10
62.05904554132025
 20
49.14464697155305
 30
0.0
 11
62.05904554132025
 21
49.15069975569765
 31
0.0
  0
LINE
  5
B5
330
81
100
AcDbEntity
  8
DIBUJOS
 62
     7
370
    18
100
AcDbLine
 10
62.05904554132025
 20
49.13859418740781
 30
0.0
 11
62.05904554132025
 21
49.14464697155305
 31
0.0
  0
LINE
  5
B6
330
81
100
AcDbEntity
  8
DIBUJOS
 62
     7
370
    18
100
AcDbLine
 10
61.87146515160844
 20
49.0720233348804
 30
0.0
 11
61.86541485426162
 21
49.0720233348804
 31
0.0
  0
LWPOLYLINE
  5
B7
330
81
100
AcDbEntity
  8
DIBUJOS
 62
     7
370
    18
100
AcDbPolyline
 90
        8
 70
     0
 43
0.0
 10
61.87146515160844
 20
49.0720233348804
 10
61.87630538948532
 20
49.07868204897678
 10
61.88961930087375
 20
49.12043909266184
 10
61.92592434217919
 20
49.15674928215409
 10
61.98643383009645
 20
49.17490437690005
 10
61.9930199411247
 20
49.17098863602732
 10
62.03996308263659
 20
49.1553549917267
 10
62.05299524397376
 20
49.14464697155305
  0
LINE
  5
B8
330
81
100
AcDbEntity
  8
DIBUJOS
 62
     7
370
    18
100
AcDbLine
 10
61.87146515160844
 20
49.06597380842332
 30
0.0
 11
61.87146515160844
 21
49.0720233348804
 31
0.0
  0
LINE
  5
B9
330
81
100
AcDbEntity
  8
DIBUJOS
 62
     7
370
    18
100
AcDbLine
 10
62.40395320539818
 20
48.08557263063061
 30
0.0
 11
62.40395320539818
 21
48.11583329366611
 31
0.0
  0
LWPOLYLINE
  5
BA
330
81
100
AcDbEntity
  8
DIBUJOS
 62
     7
370
    18
100
AcDbPolyline
 90
        3
 70
     0
 43
0.0
 10
66.79697394902037
 20
48.08557263063061
 10
66.79697394902037
 20
48.10978050952182
 10
66.79092202306032
 20
48.11583329366611
  0
LINE
  5
BB
330
81
100
AcDbEntity
  8
DIBUJOS
 62
     7
370
    18
100
AcDbLine
 10
61.87146515160844
 20
48.0008466833566
 30
0.0
 11
61.87146515160844
 21
49.06597380842332
 31
0.0
  0
LWPOLYLINE
  5
BC
330
81
100
AcDbEntity
  8
DIBUJOS
 62
     7
370
    18
100
AcDbPolyline
 90
        6
 70
     0
 43
0.0
 10
61.86541485426162
 20
47.994793899212
 10
61.85331263095571
 20
47.994793899212
 10
61.84726070499598
 20
48.0008466833566
 10
61.84726070499598
 20
49.06597380842332
 10
61.85936292830221
 20
49.078076119025
 10
61.86541485426162
 20
49.0720233348804
  0
LINE
  5
BD
330
81
100
AcDbEntity
  8
DIBUJOS
 62
     7
370
    18
100
AcDbLine
 10
61.87146515160844
 20
47.994793899212
 30
0.0
 11
61.86541485426162
 21
47.994793899212
 31
0.0
  0
LINE
  5
BE
330
81
100
AcDbEntity
  8
DIBUJOS
 62
     7
370
    18
100
AcDbLine
 10
61.87146515160844
 20
47.994793899212
 30
0.0
 11
61.87146515160844
 21
48.0008466833566
 31
0.0
  0
LINE
  5
BF
330
81
100
AcDbEntity
  8
DIBUJOS
 62
     7
370
    18
100
AcDbLine
 10
61.87146515160844
 20
47.98874437275556
 30
0.0
 11
61.87146515160844
 21
47.994793899212
 31
0.0
  0
LWPOLYLINE
  5
C0
330
81
100
AcDbEntity
  8
DIBUJOS
 62
     7
370
    18
100
AcDbPolyline
 90
        9
 70
     0
 43
0.0
 10
62.09535221123829
 20
47.8495498835555
 10
62.08809022580958
 20
47.86104952189293
 10
62.06195098693684
 20
47.95859447110907
 10
62.05299524397376
 20
48.11583329366611
 10
62.05299524397376
 20
48.78153530356644
 10
62.05904554132025
 20
48.78758808771135
 10
62.05299524397376
 20
48.79969039831304
 10
62.06691337079007
 20
49.12104502261394
 10
62.05904554132025
 20
49.13859418740781
  0
LINE
  5
C1
330
81
100
AcDbEntity
  8
DIBUJOS
 62
     7
370
    18
100
AcDbLine
 10
62.10140250858479
 20
47.8495498835555
 30
0.0
 11
62.09535221123829
 21
47.8495498835555
 31
0.0
  0
LINE
  5
C2
330
81
100
AcDbEntity
  8
DIBUJOS
 62
     7
370
    18
100
AcDbLine
 10
62.09535221123829
 20
47.84349709941057
 30
0.0
 11
62.09535221123829
 21
47.8495498835555
 31
0.0
  0
LWPOLYLINE
  5
C3
330
81
100
AcDbEntity
  8
DIBUJOS
 62
     7
370
    18
100
AcDbPolyline
 90
        9
 70
     0
 43
0.0
 10
67.08137049656812
 20
47.83139478880921
 10
67.11949144138397
 20
47.88525740078349
 10
67.13313270398806
 20
47.9466485295275
 10
67.1385250416771
 20
48.00057629525998
 10
67.14485220323613
 20
48.35180391773441
 10
67.14485871768809
 20
48.53345585352109
 10
67.13871070356052
 20
48.92690962674028
 10
67.12372746383298
 20
49.13859418740781
 10
67.13582968713985
 20
49.15674928215409
  0
LINE
  5
C4
330
81
100
AcDbEntity
  8
DIBUJOS
 62
     7
370
    18
100
AcDbLine
 10
67.08137049656812
 20
47.82534200466462
 30
0.0
 11
67.07531857060839
 21
47.82534200466462
 31
0.0
  0
LINE
  5
C5
330
81
100
AcDbEntity
  8
DIBUJOS
 62
     7
370
    18
100
AcDbLine
 10
67.08137049656812
 20
47.82534200466462
 30
0.0
 11
67.08137049656812
 21
47.83139478880921
 31
0.0
  0
LINE
  5
C6
330
81
100
AcDbEntity
  8
DIBUJOS
 62
     7
370
    18
100
AcDbLine
 10
67.08137049656812
 20
47.81929247820754
 30
0.0
 11
67.08137049656812
 21
47.82534200466462
 31
0.0
  0
LWPOLYLINE
  5
C7
330
81
100
AcDbEntity
  8
DIBUJOS
 62
     7
370
    18
100
AcDbPolyline
 90
        6
 70
     0
 43
0.0
 10
62.22847341037935
 20
47.81323969406293
 10
62.23452533633876
 20
49.12043909266184
 10
62.22847341037935
 20
49.12649187680645
 10
62.23160034736628
 20
49.25972479712318
 10
62.24057563368526
 20
49.49565307124918
 10
62.23452533633876
 20
49.50170585539378
  0
LWPOLYLINE
  5
C8
330
81
100
AcDbEntity
  8
DIBUJOS
 62
     7
370
    18
100
AcDbPolyline
 90
        4
 70
     0
 43
0.0
 10
66.96640181807978
 20
47.81323969406293
 10
66.96312667730897
 20
49.43535001026834
 10
66.96034989212006
 20
49.50775863953838
 10
66.90589070154962
 20
49.55617113963231
  0
LINE
  5
C9
330
81
100
AcDbEntity
  8
DIBUJOS
 62
     7
370
    18
100
AcDbLine
 10
62.22847341037935
 20
47.80718690991865
 30
0.0
 11
62.22847341037935
 21
47.81323969406293
 31
0.0
  0
LINE
  5
CA
330
81
100
AcDbEntity
  8
DIBUJOS
 62
     7
370
    18
100
AcDbLine
 10
62.23452533633876
 20
47.80718690991865
 30
0.0
 11
62.22847341037935
 21
47.80718690991865
 31
0.0
  0
LINE
  5
CB
330
81
100
AcDbEntity
  8
DIBUJOS
 62
     7
370
    18
100
AcDbLine
 10
66.96640181807978
 20
47.80718690991865
 30
0.0
 11
66.96034989212006
 21
47.80718690991865
 31
0.0
  0
LINE
  5
CC
330
81
100
AcDbEntity
  8
DIBUJOS
 62
     7
370
    18
100
AcDbLine
 10
66.96640181807978
 20
47.80718690991865
 30
0.0
 11
66.96640181807978
 21
47.81323969406293
 31
0.0
  0
LINE
  5
CD
330
81
100
AcDbEntity
  8
DIBUJOS
 62
     7
370
    18
100
AcDbLine
 10
66.97245211542628
 20
47.80718690991865
 30
0.0
 11
66.96640181807978
 21
47.80718690991865
 31
0.0
  0
LWPOLYLINE
  5
CE
330
81
100
AcDbEntity
  8
DIBUJOS
 62
     7
370
    18
100
AcDbPolyline
 90
        5
 70
     0
 43
0.0
 10
62.10140250858479
 20
47.8495498835555
 10
62.14618122340148
 20
47.81808061830367
 10
62.21032088972695
 20
47.80113412577374
 10
62.22242311303318
 20
47.80113412577374
 10
62.22847341037935
 20
47.80718690991865
  0
LWPOLYLINE
  5
CF
330
81
100
AcDbEntity
  8
DIBUJOS
 62
     7
370
    18
100
AcDbPolyline
 90
       34
 70
     0
 43
0.0
 10
62.23452533633876
 20
47.80718690991865
 10
62.24057563368526
 20
47.80113412577374
 10
62.25304103769343
 20
47.80464591334527
 10
62.28862134620789
 20
47.80972790649139
 10
62.33016074973972
 20
47.82681773728974
 10
62.37974875878605
 20
47.86770497830114
 10
62.38971587043108
 20
47.91665499690112
 10
62.39790127943876
 20
47.95848370971976
 10
62.4160554287044
 20
47.97663880446604
 10
62.44677595598512
 20
47.98641512589663
 10
62.50030357991203
 20
47.99712314607061
 10
62.84608418056548
 20
48.0589117127401
 10
62.87552136079108
 20
48.06381779073904
 10
63.13587469441549
 20
48.08830257310224
 10
63.49328196337465
 20
48.11297304367712
 10
63.601899051109
 20
48.11869028596658
 10
64.16483891103213
 20
48.13706364580301
 10
64.53990523090148
 20
48.14301544162216
 10
64.63676861851472
 20
48.1460906990131
 10
65.59297617735012
 20
48.11869028596658
 10
65.70159326508449
 20
48.11297304367712
 10
66.05247142447113
 20
48.08886941079986
 10
66.31935386766774
 20
48.06381779073904
 10
66.34879104789334
 20
48.0589117127401
 10
66.67043723229433
 20
48.00298372662847
 10
66.71784452851508
 20
47.99246791004123
 10
66.77821558432686
 20
47.9754302022497
 10
66.79697394902037
 20
47.96453649386435
 10
66.80693943205217
 20
47.92163925940994
 10
66.81512646967309
 20
47.87375776244607
 10
66.85748343693794
 20
47.83139478880921
 10
66.9124067822182
 20
47.80951615677726
 10
66.95429959477356
 20
47.80113412577374
 10
66.96034989212006
 20
47.80718690991865
  0
LWPOLYLINE
  5
D0
330
81
100
AcDbEntity
  8
DIBUJOS
 62
     7
370
    18
100
AcDbPolyline
 90
        5
 70
     0
 43
0.0
 10
66.97245211542628
 20
47.80718690991865
 10
66.97850241277278
 20
47.80113412577374
 10
67.04923633319139
 20
47.81762128430751
 10
67.07108254815939
 20
47.82776246678483
 10
67.07531857060839
 20
47.82534200466462
  0
LWPOLYLINE
  5
D1
330
81
100
AcDbEntity
  8
DIBUJOS
 62
     7
370
    18
100
AcDbPolyline
 90
       30
 70
     0
 43
0.0
 10
66.85143151097822
 20
46.65128431112084
 10
66.85748343693794
 20
46.65733709526609
 10
66.85748343693794
 20
46.67549219001172
 10
66.83933091628522
 20
46.69970006890294
 10
66.79697394902037
 20
46.74206304253978
 10
66.75368541511166
 20
46.77092615745972
 10
66.71924187848102
 20
46.79187309074861
 10
66.58458326865531
 20
46.86128464713728
 10
66.45872242633004
 20
46.90727668511068
 10
66.22864500863403
 20
46.96225668403938
 10
65.98654842689573
 20
47.00474344981691
 10
65.53204650727519
 20
47.06011437129542
 10
65.47812638761168
 20
47.06550584479327
 10
64.84855345483866
 20
47.10517145283727
 10
64.3826268149256
 20
47.10517145283727
 10
64.07415773841984
 20
47.0901860884317
 10
63.9895122056369
 20
47.08422126186085
 10
63.63203490631775
 20
47.05340353419191
 10
63.51760529873699
 20
47.04195927654914
 10
63.17283769537809
 20
46.99378458767339
 10
62.93590707411972
 20
46.94996216985097
 10
62.91882129499113
 20
46.94568808330721
 10
62.72405057882286
 20
46.8945684445569
 10
62.62239418311005
 20
46.85523186299236
 10
62.47716913204985
 20
46.7832141562718
 10
62.43327638271328
 20
46.75556290125605
 10
62.41000350274468
 20
46.74206304253978
 10
62.34949401482742
 20
46.68154497415666
 10
62.34344208886801
 20
46.65733709526609
 10
62.34949401482742
 20
46.65128431112084
  0
LINE
  5
D2
330
81
100
AcDbEntity
  8
DIBUJOS
 62
     7
370
    18
100
AcDbLine
 10
62.34949401482742
 20
46.64523152697657
 30
0.0
 11
62.34949401482742
 21
46.65128431112084
 31
0.0
  0
LINE
  5
D3
330
81
100
AcDbEntity
  8
DIBUJOS
 62
     7
370
    18
100
AcDbLine
 10
62.35554431217392
 20
46.64523152697657
 30
0.0
 11
62.34949401482742
 21
46.64523152697657
 31
0.0
  0
LINE
  5
D4
330
81
100
AcDbEntity
  8
DIBUJOS
 62
     7
370
    18
100
AcDbLine
 10
66.85143151097822
 20
46.64523152697657
 30
0.0
 11
66.84538121363203
 21
46.64523152697657
 31
0.0
  0
LINE
  5
D5
330
81
100
AcDbEntity
  8
DIBUJOS
 62
     7
370
    18
100
AcDbLine
 10
66.85143151097822
 20
46.64523152697657
 30
0.0
 11
66.85143151097822
 21
46.65128431112084
 31
0.0
  0
LINE
  5
D6
330
81
100
AcDbEntity
  8
DIBUJOS
 62
     7
370
    18
100
AcDbLine
 10
62.34949401482742
 20
46.63917874283196
 30
0.0
 11
62.34949401482742
 21
46.64523152697657
 31
0.0
  0
LWPOLYLINE
  5
D7
330
81
100
AcDbEntity
  8
DIBUJOS
 62
     7
370
    18
100
AcDbPolyline
 90
       18
 70
     0
 43
0.0
 10
62.35554431217392
 20
46.64523152697657
 10
62.70644527214292
 20
46.65425206481097
 10
62.73675701755728
 20
46.65128431112084
 10
62.74280894351669
 20
46.65733709526609
 10
62.76096146416942
 20
46.65733709526609
 10
62.76701176151592
 20
46.65128431112084
 10
63.64438467880186
 20
46.6482807228641
 10
63.81383371983041
 20
46.63917874283196
 10
63.87434320774798
 20
46.63917874283196
 10
63.88039513370738
 20
46.64523152697657
 10
63.92275210097224
 20
46.64523152697657
 10
63.92880239831875
 20
46.63917874283196
 10
65.38709180597523
 20
46.63917874283196
 10
65.51402590427692
 20
46.64810806540445
 10
65.52021463372952
 20
46.65128431112084
 10
65.53231522842252
 20
46.64523152697657
 10
66.5731634342015
 20
46.6542292609954
 10
66.84538121363203
 20
46.64523152697657
  0
LINE
  5
D8
330
81
100
AcDbEntity
  8
DIBUJOS
 62
     7
370
    18
100
AcDbLine
 10
66.85143151097822
 20
46.63917874283196
 30
0.0
 11
66.85143151097822
 21
46.64523152697657
 31
0.0
  0
LWPOLYLINE
  5
D9
330
81
100
AcDbEntity
  8
DIBUJOS
 62
     7
370
    18
100
AcDbPolyline
 90
        5
 70
     0
 43
0.0
 10
62.39185098209227
 20
46.56050557970256
 10
62.37369846143955
 20
46.57261114799175
 10
62.34344208886801
 20
46.6149741216286
 10
62.34344208886801
 20
46.63312921637489
 10
62.34949401482742
 20
46.63917874283196
  0
LWPOLYLINE
  5
DA
330
81
100
AcDbEntity
  8
DIBUJOS
 62
     7
370
    18
100
AcDbPolyline
 90
        5
 70
     0
 43
0.0
 10
66.80907454371336
 20
46.56050557970256
 10
66.84677693498476
 20
46.60193685459602
 10
66.85748343693794
 20
46.6149741216286
 10
66.85748343693794
 20
46.63312921637489
 10
66.85143151097822
 20
46.63917874283196
  0
LINE
  5
DB
330
81
100
AcDbEntity
  8
DIBUJOS
 62
     7
370
    18
100
AcDbLine
 10
67.08137049656812
 20
46.56050557970256
 30
0.0
 11
67.08137049656812
 21
47.81929247820754
 31
0.0
  0
LINE
  5
DC
330
81
100
AcDbEntity
  8
DIBUJOS
 62
     7
370
    18
100
AcDbLine
 10
62.39185098209227
 20
46.55445605324548
 30
0.0
 11
62.38579905613255
 21
46.55445605324548
 31
0.0
  0
LINE
  5
DD
330
81
100
AcDbEntity
  8
DIBUJOS
 62
     7
370
    18
100
AcDbLine
 10
62.39185098209227
 20
46.55445605324548
 30
0.0
 11
62.39185098209227
 21
46.56050557970256
 31
0.0
  0
LINE
  5
DE
330
81
100
AcDbEntity
  8
DIBUJOS
 62
     7
370
    18
100
AcDbLine
 10
62.39790127943876
 20
46.55445605324548
 30
0.0
 11
62.39185098209227
 21
46.55445605324548
 31
0.0
  0
LINE
  5
DF
330
81
100
AcDbEntity
  8
DIBUJOS
 62
     7
370
    18
100
AcDbLine
 10
66.80907454371336
 20
46.55445605324548
 30
0.0
 11
66.80302424636685
 21
46.55445605324548
 31
0.0
  0
LINE
  5
E0
330
81
100
AcDbEntity
  8
DIBUJOS
 62
     7
370
    18
100
AcDbLine
 10
66.80907454371336
 20
46.55445605324548
 30
0.0
 11
66.80907454371336
 21
46.56050557970256
 31
0.0
  0
LINE
  5
E1
330
81
100
AcDbEntity
  8
DIBUJOS
 62
     7
370
    18
100
AcDbLine
 10
66.81512646967309
 20
46.55445605324548
 30
0.0
 11
66.80907454371336
 21
46.55445605324548
 31
0.0
  0
LINE
  5
E2
330
81
100
AcDbEntity
  8
DIBUJOS
 62
     7
370
    18
100
AcDbLine
 10
67.08137049656812
 20
46.55445605324548
 30
0.0
 11
67.07531857060839
 21
46.55445605324548
 31
0.0
  0
LINE
  5
E3
330
81
100
AcDbEntity
  8
DIBUJOS
 62
     7
370
    18
100
AcDbLine
 10
67.08137049656812
 20
46.55445605324548
 30
0.0
 11
67.08137049656812
 21
46.56050557970256
 31
0.0
  0
LINE
  5
E4
330
81
100
AcDbEntity
  8
DIBUJOS
 62
     7
370
    18
100
AcDbLine
 10
67.08742079391462
 20
46.55445605324548
 30
0.0
 11
67.08137049656812
 21
46.55445605324548
 31
0.0
  0
LWPOLYLINE
  5
E5
330
81
100
AcDbEntity
  8
DIBUJOS
 62
     7
370
    18
100
AcDbPolyline
 90
        5
 70
     0
 43
0.0
 10
62.09535221123829
 20
47.84349709941057
 10
62.09535221123829
 20
46.56050557970256
 10
62.10745443454452
 20
46.54840326910119
 10
62.37974875878605
 20
46.54840326910119
 10
62.38579905613255
 20
46.55445605324548
  0
LWPOLYLINE
  5
E6
330
81
100
AcDbEntity
  8
DIBUJOS
 62
     7
370
    18
100
AcDbPolyline
 90
        4
 70
     0
 43
0.0
 10
66.81512646967309
 20
46.55445605324548
 10
66.8211767670196
 20
46.54840326910119
 10
67.06926827326189
 20
46.54840326910119
 10
67.07531857060839
 20
46.55445605324548
  0
LINE
  5
E7
330
81
100
AcDbEntity
  8
DIBUJOS
 62
     7
370
    18
100
AcDbLine
 10
67.09347109126143
 20
46.54840326910119
 30
0.0
 11
67.08742079391462
 21
46.55445605324548
 31
0.0
  0
LINE
  5
E8
330
81
100
AcDbEntity
  8
DIBUJOS
 62
     7
370
    18
100
AcDbLine
 10
62.06509746727967
 20
46.53629770081167
 30
0.0
 11
62.05904554132025
 21
46.53629770081167
 31
0.0
  0
LINE
  5
E9
330
81
100
AcDbEntity
  8
DIBUJOS
 62
     7
370
    18
100
AcDbLine
 10
67.11162524052674
 20
46.53629770081167
 30
0.0
 11
67.10557331456733
 21
46.53629770081167
 31
0.0
  0
LWPOLYLINE
  5
EA
330
81
100
AcDbEntity
  8
DIBUJOS
 62
     7
370
    18
100
AcDbPolyline
 90
        7
 70
     0
 43
0.0
 10
62.39790127943876
 20
46.55445605324548
 10
62.4093992873168
 20
46.55263826338983
 10
62.61579830040401
 20
46.5332094126687
 10
62.90612462793482
 20
46.52728367835296
 10
66.33716763681282
 20
46.52729345141682
 10
66.58511908233674
 20
46.53319963960516
 10
66.80302424636685
 20
46.55445605324548
  0
LINE
  5
EB
330
81
100
AcDbEntity
  8
DIBUJOS
 62
     7
370
    18
100
AcDbLine
 10
62.03484272332103
 20
46.43341665879201
 30
0.0
 11
62.03484272332103
 21
46.49998751131942
 31
0.0
  0
LINE
  5
EC
330
81
100
AcDbEntity
  8
DIBUJOS
 62
     7
370
    18
100
AcDbLine
 10
67.14187998448602
 20
46.42736713233493
 30
0.0
 11
67.14187998448602
 21
46.49998751131942
 31
0.0
  0
LINE
  5
ED
330
81
100
AcDbEntity
  8
DIBUJOS
 62
     7
370
    18
100
AcDbLine
 10
62.04089302066753
 20
46.41526156404573
 30
0.0
 11
62.03484272332103
 21
46.41526156404573
 31
0.0
  0
LINE
  5
EE
330
81
100
AcDbEntity
  8
DIBUJOS
 62
     7
370
    18
100
AcDbLine
 10
67.13582968713985
 20
46.41526156404573
 30
0.0
 11
67.12977776117947
 21
46.41526156404573
 31
0.0
  0
LWPOLYLINE
  5
EF
330
81
100
AcDbEntity
  8
DIBUJOS
 62
     7
370
    18
100
AcDbPolyline
 90
        3
 70
     0
 43
0.0
 10
62.09535221123829
 20
46.33658840091665
 10
62.08324998793239
 20
46.34869071151832
 10
62.08324998793239
 20
46.36079627980785
  0
LINE
  5
F0
330
81
100
AcDbEntity
  8
DIBUJOS
 62
     7
370
    18
100
AcDbLine
 10
67.08137049656812
 20
46.33658840091665
 30
0.0
 11
67.09347109126143
 21
46.36079627980785
 31
0.0
  0
LINE
  5
F1
330
81
100
AcDbEntity
  8
DIBUJOS
 62
     7
370
    18
100
AcDbLine
 10
62.09535221123829
 20
46.33053561677204
 30
0.0
 11
62.09535221123829
 21
46.33658840091665
 31
0.0
  0
LINE
  5
F2
330
81
100
AcDbEntity
  8
DIBUJOS
 62
     7
370
    18
100
AcDbLine
 10
62.10140250858479
 20
46.33053561677204
 30
0.0
 11
62.09535221123829
 21
46.33053561677204
 31
0.0
  0
LINE
  5
F3
330
81
100
AcDbEntity
  8
DIBUJOS
 62
     7
370
    18
100
AcDbLine
 10
67.07531857060839
 20
46.33053561677204
 30
0.0
 11
62.10140250858479
 21
46.33053561677204
 31
0.0
  0
LINE
  5
F4
330
81
100
AcDbEntity
  8
DIBUJOS
 62
     7
370
    18
100
AcDbLine
 10
67.08137049656812
 20
46.33053561677204
 30
0.0
 11
67.07531857060839
 21
46.33053561677204
 31
0.0
  0
LINE
  5
F5
330
81
100
AcDbEntity
  8
DIBUJOS
 62
     7
370
    18
100
AcDbLine
 10
67.08137049656812
 20
46.33053561677204
 30
0.0
 11
67.08137049656812
 21
46.33658840091665
 31
0.0
  0
LINE
  5
F6
330
81
100
AcDbEntity
  8
DIBUJOS
 62
     7
370
    18
100
AcDbLine
 10
62.09535221123829
 20
46.32448283262776
 30
0.0
 11
62.09535221123829
 21
46.33053561677204
 31
0.0
  0
LINE
  5
F7
330
81
100
AcDbEntity
  8
DIBUJOS
 62
     7
370
    18
100
AcDbLine
 10
67.08137049656812
 20
46.32448283262776
 30
0.0
 11
67.08137049656812
 21
46.33053561677204
 31
0.0
  0
LINE
  5
F8
330
81
100
AcDbEntity
  8
DIBUJOS
 62
     7
370
    18
100
AcDbLine
 10
62.09535221123829
 20
46.28817264313552
 30
0.0
 11
62.09535221123829
 21
46.32448283262776
 31
0.0
  0
LINE
  5
F9
330
81
100
AcDbEntity
  8
DIBUJOS
 62
     7
370
    18
100
AcDbLine
 10
67.08137049656812
 20
46.28817264313552
 30
0.0
 11
67.08137049656812
 21
46.32448283262776
 31
0.0
  0
LINE
  5
FA
330
81
100
AcDbEntity
  8
DIBUJOS
 62
     7
370
    18
100
AcDbLine
 10
62.09535221123829
 20
46.28211985899059
 30
0.0
 11
62.09535221123829
 21
46.28817264313552
 31
0.0
  0
LINE
  5
FB
330
81
100
AcDbEntity
  8
DIBUJOS
 62
     7
370
    18
100
AcDbLine
 10
62.10140250858479
 20
46.28211985899059
 30
0.0
 11
62.09535221123829
 21
46.28211985899059
 31
0.0
  0
LINE
  5
FC
330
81
100
AcDbEntity
  8
DIBUJOS
 62
     7
370
    18
100
AcDbLine
 10
67.07531857060839
 20
46.28211985899059
 30
0.0
 11
62.10140250858479
 21
46.28211985899059
 31
0.0
  0
LINE
  5
FD
330
81
100
AcDbEntity
  8
DIBUJOS
 62
     7
370
    18
100
AcDbLine
 10
67.08137049656812
 20
46.28211985899059
 30
0.0
 11
67.07531857060839
 21
46.28211985899059
 31
0.0
  0
LINE
  5
FE
330
81
100
AcDbEntity
  8
DIBUJOS
 62
     7
370
    18
100
AcDbLine
 10
67.08137049656812
 20
46.28211985899059
 30
0.0
 11
67.08137049656812
 21
46.28817264313552
 31
0.0
  0
LINE
  5
FF
330
81
100
AcDbEntity
  8
DIBUJOS
 62
     7
370
    18
100
AcDbLine
 10
62.09535221123829
 20
46.27607033253351
 30
0.0
 11
62.09535221123829
 21
46.28211985899059
 31
0.0
  0
LINE
  5
100
330
81
100
AcDbEntity
  8
DIBUJOS
 62
     7
370
    18
100
AcDbLine
 10
67.08137049656812
 20
46.27607033253351
 30
0.0
 11
67.08137049656812
 21
46.28211985899059
 31
0.0
  0
LWPOLYLINE
  5
101
330
81
100
AcDbEntity
  8
DIBUJOS
 62
     7
370
    18
100
AcDbPolyline
 90
        3
 70
     0
 43
0.0
 10
62.08930191389211
 20
42.62075228915986
 10
62.09535221123829
 20
42.62680344446151
 10
62.09535221123829
 20
46.27607033253351
  0
LWPOLYLINE
  5
102
330
81
100
AcDbEntity
  8
DIBUJOS
 62
     7
370
    18
100
AcDbPolyline
 90
        3
 70
     0
 43
0.0
 10
61.87751707756785
 20
42.61469950501623
 10
61.87146515160844
 20
42.62075228915986
 10
61.87146515160844
 20
47.98874437275556
  0
LINE
  5
103
330
81
100
AcDbEntity
  8
DIBUJOS
 62
     7
370
    18
100
AcDbLine
 10
61.88356737491434
 20
42.61469950501623
 30
0.0
 11
61.87751707756785
 21
42.61469950501623
 31
0.0
  0
LWPOLYLINE
  5
104
330
81
100
AcDbEntity
  8
DIBUJOS
 62
     7
370
    18
100
AcDbPolyline
 90
        6
 70
     0
 43
0.0
 10
62.08324998793239
 20
42.61469950501623
 10
62.04664853905851
 20
42.63019795526741
 10
61.97433160679055
 20
42.63890738390679
 10
61.92016882378822
 20
42.63019795526741
 10
61.89692200162812
 20
42.62367280637526
 10
61.88356737491434
 20
42.61469950501623
  0
LINE
  5
105
330
81
100
AcDbEntity
  8
DIBUJOS
 62
     7
370
    18
100
AcDbLine
 10
62.08930191389211
 20
42.61469950501623
 30
0.0
 11
62.08324998793239
 21
42.61469950501623
 31
0.0
  0
LINE
  5
106
330
81
100
AcDbEntity
  8
DIBUJOS
 62
     7
370
    18
100
AcDbLine
 10
62.08930191389211
 20
42.61469950501623
 30
0.0
 11
62.08930191389211
 21
42.62075228915986
 31
0.0
  0
LWPOLYLINE
  5
107
330
81
100
AcDbEntity
  8
DIBUJOS
 62
     7
370
    18
100
AcDbPolyline
 90
        3
 70
     0
 43
0.0
 10
67.08742079391462
 20
42.61469950501623
 10
67.08137049656812
 20
42.62075228915986
 10
67.08137049656812
 20
46.27607033253351
  0
LINE
  5
108
330
81
100
AcDbEntity
  8
DIBUJOS
 62
     7
370
    18
100
AcDbLine
 10
67.09347109126143
 20
42.61469950501623
 30
0.0
 11
67.08742079391462
 21
42.61469950501623
 31
0.0
  0
LWPOLYLINE
  5
109
330
81
100
AcDbEntity
  8
DIBUJOS
 62
     7
370
    18
100
AcDbPolyline
 90
        7
 70
     0
 43
0.0
 10
67.28710340693267
 20
42.61469950501623
 10
67.27375040883211
 20
42.62367280637526
 10
67.19633917505646
 20
42.63890738390679
 10
67.1839666019903
 20
42.63555196535504
 10
67.13004811094004
 20
42.6301588630123
 10
67.1068257179749
 20
42.62367280637526
 10
67.09347109126143
 20
42.61469950501623
  0
LINE
  5
10A
330
81
100
AcDbEntity
  8
DIBUJOS
 62
     7
370
    18
100
AcDbLine
 10
67.2931553328924
 20
42.61469950501623
 30
0.0
 11
67.28710340693267
 21
42.61469950501623
 31
0.0
  0
LWPOLYLINE
  5
10B
330
81
100
AcDbEntity
  8
DIBUJOS
 62
     7
370
    18
100
AcDbPolyline
 90
        9
 70
     0
 43
0.0
 10
67.2931553328924
 20
42.61469950501623
 10
67.30222833599246
 20
47.98268833092279
 10
67.3064676156676
 20
47.99419122694775
 10
67.31130785354512
 20
48.0008466833566
 10
67.31130785354512
 20
49.06597380842332
 10
67.26895088627994
 20
49.13859418740781
 10
67.22107617812421
 20
49.16493910957057
 10
67.21449169570886
 20
49.16885485044329
 10
67.14187998448602
 20
49.16280206629869
  0
LINE
  5
10C
330
81
100
AcDbEntity
  8
DIBUJOS
 62
     7
370
    18
100
AcDbLine
 10
61.87751707756785
 20
42.60864834971491
 30
0.0
 11
61.87751707756785
 21
42.61469950501623
 31
0.0
  0
LINE
  5
10D
330
81
100
AcDbEntity
  8
DIBUJOS
 62
     7
370
    18
100
AcDbLine
 10
62.08930191389211
 20
42.60864834971491
 30
0.0
 11
62.08930191389211
 21
42.61469950501623
 31
0.0
  0
LINE
  5
10E
330
81
100
AcDbEntity
  8
DIBUJOS
 62
     7
370
    18
100
AcDbLine
 10
67.08742079391462
 20
42.60864834971491
 30
0.0
 11
67.08742079391462
 21
42.61469950501623
 31
0.0
  0
LINE
  5
10F
330
81
100
AcDbEntity
  8
DIBUJOS
 62
     7
370
    18
100
AcDbLine
 10
67.2931553328924
 20
42.60864834971491
 30
0.0
 11
67.2931553328924
 21
42.61469950501623
 31
0.0
  0
LWPOLYLINE
  5
110
330
81
100
AcDbEntity
  8
DIBUJOS
 62
     7
370
    18
100
AcDbPolyline
 90
       15
 70
     0
 43
0.0
 10
61.87751707756785
 20
42.60864834971491
 10
61.87146515160844
 20
42.60259556556966
 10
61.88235731544504
 20
42.54147319607933
 10
61.88961930087375
 20
42.52392240244121
 10
61.91382211887265
 20
42.49971452355032
 10
61.94407686283192
 20
42.48761058410536
 10
62.02274050001481
 20
42.48761058410536
 10
62.03423687927993
 20
42.49487359930991
 10
62.04149886470863
 20
42.49850429248943
 10
62.05904554132025
 20
42.50576567885069
 10
62.07719969058557
 20
42.52392240244121
 10
62.08716517361769
 20
42.54866291330574
 10
62.09143702555331
 20
42.56575111525921
 10
62.09535221123829
 20
42.60259556556966
 10
62.08930191389211
 20
42.60864834971491
  0
LWPOLYLINE
  5
111
330
81
100
AcDbEntity
  8
DIBUJOS
 62
     7
370
    18
100
AcDbPolyline
 90
       16
 70
     0
 43
0.0
 10
67.08742079391462
 20
42.60864834971491
 10
67.08137049656812
 20
42.60259556556966
 10
67.08137049656812
 20
42.56023259193313
 10
67.08923669742502
 20
42.54268342713959
 10
67.09226103179182
 20
42.53542041193376
 10
67.12372746383298
 20
42.49971452355032
 10
67.15398220779192
 20
42.48761058410536
 10
67.23264421636159
 20
42.48761058410536
 10
67.23930035774952
 20
42.4924531371897
 10
67.25684866297403
 20
42.49971452355032
 10
67.28710340693267
 20
42.5299735577419
 10
67.29194364480986
 20
42.54268342713959
 10
67.2943653923617
 20
42.54752435137969
 10
67.29920563023888
 20
42.55418143663246
 10
67.29920563023888
 20
42.60259556556966
 10
67.2931553328924
 20
42.60864834971491
  0
ENDBLK
  5
84
330
81
100
AcDbEntity
  8
0
100
AcDbBlockEnd
  0
BLOCK
  5
114
330
112
100
AcDbEntity
  8
0
100
AcDbBlockBegin
  2
Block_1
 70
     0
 10
0.0
 20
0.0
 30
0.0
  3
Block_1
  1

  0
LWPOLYLINE
  5
116
330
112
100
AcDbEntity
  8
DIBUJOS
 62
     7
370
    18
100
AcDbPolyline
 90
       34
 70
     0
 43
0.0
 10
83.73374968514653
 20
48.29738749881485
 10
83.73616980408447
 20
48.30828120720051
 10
83.7821585783708
 20
48.44868429861627
 10
83.7821585783708
 20
48.60603062487477
 10
83.7739731693631
 20
48.62970424294744
 10
83.75562521514854
 20
48.70844907521042
 10
83.73858992302308
 20
48.7506719682667
 10
83.72285752130927
 20
48.78214123351884
 10
83.683832696271
 20
48.85274836137216
 10
83.60062685739256
 20
48.94493441396954
 10
83.53499701015879
 20
48.98869493572161
 10
83.52103328217808
 20
48.99800540778068
 10
83.44995735302633
 20
49.03752767755626
 10
83.34007157575467
 20
49.06948233830734
 10
83.30449289585377
 20
49.07456433145345
 10
83.29807941780499
 20
49.078076119025
 10
83.17100851601043
 20
49.078076119025
 10
83.05052046801831
 20
49.0456816704058
 10
82.97193011842058
 20
49.00424388013664
 10
82.95256590968596
 20
48.99456203165549
 10
82.92419872820968
 20
48.97975258239711
 10
82.88533025002111
 20
48.94642969272205
 10
82.80794833127979
 20
48.87231403498569
 10
82.76093678802114
 20
48.79875869956934
 10
82.74380703634108
 20
48.76822113306089
 10
82.72504867164789
 20
48.70830899462985
 10
82.71326728510535
 20
48.67206721658429
 10
82.69902995013827
 20
48.58182600367205
 10
82.70508187609769
 20
48.57577321952681
 10
82.69902995013827
 20
48.5636676512376
 10
82.69902995013827
 20
48.47289217750748
 10
82.72078170555133
 20
48.38775576155595
 10
82.72444608483228
 20
48.34519732664452
 10
82.72323439675007
 20
48.33975047245169
  0
LINE
  5
117
330
112
100
AcDbEntity
  8
DIBUJOS
 62
     7
370
    18
100
AcDbLine
 10
83.73374968514653
 20
48.29133471467024
 30
0.0
 11
83.72769775918648
 21
48.29133471467024
 31
0.0
  0
LINE
  5
118
330
112
100
AcDbEntity
  8
DIBUJOS
 62
     7
370
    18
100
AcDbLine
 10
83.73374968514653
 20
48.29133471467024
 30
0.0
 11
83.73374968514653
 21
48.29738749881485
 31
0.0
  0
LINE
  5
119
330
112
100
AcDbEntity
  8
DIBUJOS
 62
     7
370
    18
100
AcDbLine
 10
83.73374968514653
 20
48.28528518821316
 30
0.0
 11
83.73374968514653
 21
48.29133471467024
 31
0.0
  0
LWPOLYLINE
  5
11A
330
112
100
AcDbEntity
  8
DIBUJOS
 62
     7
370
    18
100
AcDbPolyline
 90
       14
 70
     0
 43
0.0
 10
82.72323439675007
 20
48.33975047245169
 10
82.81260290727358
 20
48.18752197390689
 10
82.90476286050248
 20
48.0916254147749
 10
82.95410332037093
 20
48.06276229985527
 10
83.03129957722822
 20
48.02291751897561
 10
83.10391291706492
 20
48.00476242422965
 10
83.12865154874558
 20
47.994793899212
 10
83.28597556588617
 20
47.994793899212
 10
83.4367167292237
 20
48.03324113197612
 10
83.5569898002981
 20
48.09917021998449
 10
83.59585827848794
 20
48.13249310965922
 10
83.67929212318868
 20
48.21266155154115
 10
83.71438547641128
 20
48.27378554987638
 10
83.72769775918648
 20
48.29133471467024
  0
LINE
  5
11B
330
112
100
AcDbEntity
  8
DIBUJOS
 62
     7
370
    18
100
AcDbLine
 10
82.36622613797884
 20
47.95848370971976
 30
0.0
 11
82.36017421201943
 21
47.95848370971976
 31
0.0
  0
LINE
  5
11C
330
112
100
AcDbEntity
  8
DIBUJOS
 62
     7
370
    18
100
AcDbLine
 10
82.36622613797884
 20
47.95848370971976
 30
0.0
 11
82.36622613797884
 21
47.96453649386435
 31
0.0
  0
LINE
  5
11D
330
112
100
AcDbEntity
  8
DIBUJOS
 62
     7
370
    18
100
AcDbLine
 10
82.36622613797884
 20
47.95243092557515
 30
0.0
 11
82.36622613797884
 21
47.95848370971976
 31
0.0
  0
LWPOLYLINE
  5
11E
330
112
100
AcDbEntity
  8
DIBUJOS
 62
     7
370
    18
100
AcDbPolyline
 90
        3
 70
     0
 43
0.0
 10
82.59616349495551
 20
47.94032861497347
 10
82.71426073904336
 20
48.32639395200351
 10
82.72323439675007
 20
48.33975047245169
  0
LINE
  5
11F
330
112
100
AcDbEntity
  8
DIBUJOS
 62
     7
370
    18
100
AcDbLine
 10
82.59616349495551
 20
47.93427583082919
 30
0.0
 11
82.59616349495551
 21
47.94032861497347
 31
0.0
  0
LINE
  5
120
330
112
100
AcDbEntity
  8
DIBUJOS
 62
     7
370
    18
100
AcDbLine
 10
82.60221542091491
 20
47.93427583082919
 30
0.0
 11
82.59616349495551
 21
47.93427583082919
 31
0.0
  0
LWPOLYLINE
  5
121
330
112
100
AcDbEntity
  8
DIBUJOS
 62
     7
370
    18
100
AcDbPolyline
 90
        4
 70
     0
 43
0.0
 10
83.86687251289986
 20
47.81323969406293
 10
83.8645435962907
 20
47.83698172358197
 10
83.73798733620812
 20
48.27862647411711
 10
83.73374968514653
 20
48.28528518821316
  0
LWPOLYLINE
  5
122
330
112
100
AcDbEntity
  8
DIBUJOS
 62
     7
370
    18
100
AcDbPolyline
 90
        6
 70
     0
 43
0.0
 10
83.86082058694045
 20
47.80718690991865
 10
83.63113077914231
 20
47.82807194713656
 10
82.75378391966453
 20
47.91272622527605
 10
82.74714243579346
 20
47.91346246274485
 10
82.60862889896369
 20
47.9307673009455
 10
82.60221542091491
 20
47.93427583082919
  0
LINE
  5
123
330
112
100
AcDbEntity
  8
DIBUJOS
 62
     7
370
    18
100
AcDbLine
 10
83.86687251289986
 20
47.80718690991865
 30
0.0
 11
83.86082058694045
 21
47.80718690991865
 31
0.0
  0
LINE
  5
124
330
112
100
AcDbEntity
  8
DIBUJOS
 62
     7
370
    18
100
AcDbLine
 10
83.86687251289986
 20
47.80718690991865
 30
0.0
 11
83.86687251289986
 21
47.81323969406293
 31
0.0
  0
LWPOLYLINE
  5
125
330
112
100
AcDbEntity
  8
DIBUJOS
 62
     7
370
    18
100
AcDbPolyline
 90
       23
 70
     0
 43
0.0
 10
84.10286179583659
 20
47.80718690991865
 10
83.94161933578486
 20
48.37054213861755
 10
83.82330385755279
 20
48.7809293736153
 10
83.80757145583899
 20
48.81239863886617
 10
83.76255333490993
 20
48.90753615671444
 10
83.74730300264735
 20
48.92787064467459
 10
83.64903575061617
 20
49.03571314538815
 10
83.61179914266719
 20
49.05852347616349
 10
83.54523772879053
 20
49.10088644980033
 10
83.46690144282298
 20
49.13072687109477
 10
83.40155171702852
 20
49.15251428786544
 10
83.24361859862069
 20
49.17490437690005
 10
83.07455553887646
 20
49.15420828558104
 10
83.00823515972538
 20
49.13072687109477
 10
82.94651724095173
 20
49.1101513142286
 10
82.80794833127979
 20
49.02966036124323
 10
82.69448286260304
 20
48.90726902630533
 10
82.63973215030258
 20
48.80513725250555
 10
82.63126010540457
 20
48.78819401766345
 10
82.55199225279348
 20
48.54611848644374
 10
82.54957213385489
 20
48.53885710008279
 10
82.37106637585602
 20
47.9711919502732
 10
82.36622613797884
 20
47.96453649386435
  0
LINE
  5
126
330
112
100
AcDbEntity
  8
DIBUJOS
 62
     7
370
    18
100
AcDbLine
 10
84.10286179583659
 20
47.80113412577374
 30
0.0
 11
84.10286179583659
 21
47.80718690991865
 31
0.0
  0
LINE
  5
127
330
112
100
AcDbEntity
  8
DIBUJOS
 62
     7
370
    18
100
AcDbLine
 10
84.10891046457017
 20
47.80113412577374
 30
0.0
 11
84.10286179583659
 21
47.80113412577374
 31
0.0
  0
LWPOLYLINE
  5
128
330
112
100
AcDbEntity
  8
DIBUJOS
 62
     7
370
    18
100
AcDbPolyline
 90
       41
 70
     0
 43
0.0
 10
84.10891046457017
 20
47.80113412577374
 10
84.11549657559779
 20
47.80505312433462
 10
84.23039848095324
 20
47.82906879963813
 10
84.3073830181186
 20
47.84712942143497
 10
84.3984290000464
 20
47.90541271590893
 10
84.50827894783207
 20
47.98269158861064
 10
84.55208538067957
 20
48.04817111568703
 10
84.63221965541389
 20
48.16550000360685
 10
84.65563585332732
 20
48.24843748021518
 10
84.6898074115845
 20
48.3700111354875
 10
84.66895790778064
 20
48.59971071032106
 10
84.64019008750383
 20
48.67804833159468
 10
84.61840575983
 20
48.73372547573708
 10
84.58543611797756
 20
48.81044076842965
 10
84.43566560799537
 20
48.97519507700566
 10
84.33219330877184
 20
49.0284517590272
 10
84.30798886216001
 20
49.04055406962825
 10
84.20633409506013
 20
49.08594343533771
 10
84.09741571391796
 20
49.11620409837352
 10
82.63905464728921
 20
49.45542714088356
 10
82.52308762902318
 20
49.48122151378921
 10
81.44594252500329
 20
49.73559155919701
 10
81.42885511726147
 20
49.73986238805292
 10
81.01638932814275
 20
49.84433318177487
 10
80.99311644817447
 20
49.84898841780456
 10
80.61721953566753
 20
49.94079332091599
 10
80.55698039751083
 20
49.94954347065313
 10
80.53882461963198
 20
49.94954347065313
 10
80.52527130213054
 20
49.93247644367066
 10
80.50251957832653
 20
49.901127712872
 10
80.51727806945853
 20
49.75012736267061
 10
80.55325413093477
 20
49.55663698900384
 10
80.59095652220648
 20
49.37415108511139
 10
80.77695064284281
 20
48.54604681730921
 10
80.83350911558815
 20
48.35125011078912
 10
80.85627061107025
 20
48.28714532801272
 10
80.92608925097506
 20
48.20055924093948
 10
81.00414867272977
 20
48.15698440739875
 10
81.03440178807581
 20
48.14427616684499
 10
81.37955048687965
 20
48.09513394465891
 10
82.36017421201943
 20
47.95848370971976
  0
LINE
  5
129
330
112
100
AcDbEntity
  8
DIBUJOS
 62
     7
370
    18
100
AcDbLine
 10
84.10286179583659
 20
47.79508459931665
 30
0.0
 11
84.10286179583659
 21
47.80113412577374
 31
0.0
  0
LWPOLYLINE
  5
12A
330
112
100
AcDbEntity
  8
DIBUJOS
 62
     7
370
    18
100
AcDbPolyline
 90
        3
 70
     0
 43
0.0
 10
84.07865734922413
 20
47.07491404748963
 10
83.87584291338075
 20
47.79383038946983
 10
83.86687251289986
 20
47.80718690991865
  0
LINE
  5
12B
330
112
100
AcDbEntity
  8
DIBUJOS
 62
     7
370
    18
100
AcDbLine
 10
84.07865734922413
 20
47.06886126334599
 30
0.0
 11
84.07260542326472
 21
47.06886126334599
 31
0.0
  0
LINE
  5
12C
330
112
100
AcDbEntity
  8
DIBUJOS
 62
     7
370
    18
100
AcDbLine
 10
84.07865734922413
 20
47.06886126334599
 30
0.0
 11
84.07865734922413
 21
47.07491404748963
 31
0.0
  0
LINE
  5
12D
330
112
100
AcDbEntity
  8
DIBUJOS
 62
     7
370
    18
100
AcDbLine
 10
84.07865734922413
 20
47.06280847920075
 30
0.0
 11
84.07865734922413
 21
47.06886126334599
 31
0.0
  0
LWPOLYLINE
  5
12E
330
112
100
AcDbEntity
  8
DIBUJOS
 62
     7
370
    18
100
AcDbPolyline
 90
        4
 70
     0
 43
0.0
 10
82.31781724475458
 20
47.04465338445414
 10
82.31995398502867
 20
47.0622774760707
 10
82.59132325707831
 20
47.9276203744197
 10
82.59616349495551
 20
47.93427583082919
  0
LINE
  5
12F
330
112
100
AcDbEntity
  8
DIBUJOS
 62
     7
370
    18
100
AcDbLine
 10
82.31781724475458
 20
47.03860385799738
 30
0.0
 11
82.31781724475458
 21
47.04465338445414
 31
0.0
  0
LINE
  5
130
330
112
100
AcDbEntity
  8
DIBUJOS
 62
     7
370
    18
100
AcDbLine
 10
82.323869170714
 20
47.03860385799738
 30
0.0
 11
82.31781724475458
 21
47.03860385799738
 31
0.0
  0
LWPOLYLINE
  5
131
330
112
100
AcDbEntity
  8
DIBUJOS
 62
     7
370
    18
100
AcDbPolyline
 90
        8
 70
     0
 43
0.0
 10
82.323869170714
 20
47.03860385799738
 10
82.43237714137624
 20
47.05315920759836
 10
82.61410429591665
 20
47.07164007113593
 10
82.77749326792058
 20
47.08376192786501
 10
83.01973316760342
 20
47.10517145283727
 10
83.54011736947466
 20
47.10517145283727
 10
83.97557591712429
 20
47.07818802384396
 10
84.07260542326472
 20
47.06886126334599
  0
LINE
  5
132
330
112
100
AcDbEntity
  8
DIBUJOS
 62
     7
370
    18
100
AcDbLine
 10
82.03342232582006
 20
46.87520148990675
 30
0.0
 11
82.02737039986001
 21
46.87520148990675
 31
0.0
  0
LWPOLYLINE
  5
133
330
112
100
AcDbEntity
  8
DIBUJOS
 62
     7
370
    18
100
AcDbPolyline
 90
       12
 70
     0
 43
0.0
 10
85.34936636716912
 20
46.65733709526609
 10
85.35541503590208
 20
46.66338662172253
 10
85.33121384651607
 20
46.72995747424994
 10
85.2888536220254
 20
46.77232044788678
 10
85.23984214198554
 20
46.80136925101808
 10
85.17328072810888
 20
46.83767944051097
 10
85.02200537970249
 20
46.89154205248461
 10
84.99296069521284
 20
46.90122715865392
 10
84.75690301053001
 20
46.96206448045264
 10
84.72557826782173
 20
46.96989596219842
 10
84.32069530089444
 20
47.04465338445414
 10
84.10286179583659
 20
47.79508459931665
  0
LINE
  5
134
330
112
100
AcDbEntity
  8
DIBUJOS
 62
     7
370
    18
100
AcDbLine
 10
85.34936636716912
 20
46.65128431112084
 30
0.0
 11
85.34331444120907
 21
46.65128431112084
 31
0.0
  0
LINE
  5
135
330
112
100
AcDbEntity
  8
DIBUJOS
 62
     7
370
    18
100
AcDbLine
 10
85.34936636716912
 20
46.65128431112084
 30
0.0
 11
85.34936636716912
 21
46.65733709526609
 31
0.0
  0
LWPOLYLINE
  5
136
330
112
100
AcDbEntity
  8
DIBUJOS
 62
     7
370
    18
100
AcDbPolyline
 90
        5
 70
     0
 43
0.0
 10
84.19362439909923
 20
46.64523152697657
 10
84.19967632505928
 20
46.65128431112084
 10
84.19967632505928
 20
46.66338662172253
 10
84.08349758710134
 20
47.0561530227919
 10
84.07865734922413
 20
47.06280847920075
  0
LWPOLYLINE
  5
137
330
112
100
AcDbEntity
  8
DIBUJOS
 62
     7
370
    18
100
AcDbPolyline
 90
        4
 70
     0
 43
0.0
 10
84.43566560799537
 20
46.64523152697657
 10
84.43082537011816
 20
46.65189024107294
 10
84.35881787432288
 20
46.90001529874973
 10
84.35700359942506
 20
46.91151493708717
  0
LINE
  5
138
330
112
100
AcDbEntity
  8
DIBUJOS
 62
     7
370
    18
100
AcDbLine
 10
84.44171753395478
 20
46.64523152697657
 30
0.0
 11
84.43566560799537
 21
46.64523152697657
 31
0.0
  0
LINE
  5
139
330
112
100
AcDbEntity
  8
DIBUJOS
 62
     7
370
    18
100
AcDbLine
 10
84.44776620268838
 20
46.64523152697657
 30
0.0
 11
84.44171753395478
 21
46.64523152697657
 31
0.0
  0
LWPOLYLINE
  5
13A
330
112
100
AcDbEntity
  8
DIBUJOS
 62
     7
370
    18
100
AcDbPolyline
 90
        4
 70
     0
 43
0.0
 10
84.44776620268838
 20
46.64523152697657
 10
84.72605056559483
 20
46.64819276529035
 10
85.2466660305142
 20
46.65412175729426
 10
85.34331444120907
 20
46.65128431112084
  0
LINE
  5
13B
330
112
100
AcDbEntity
  8
DIBUJOS
 62
     7
370
    18
100
AcDbLine
 10
85.34936636716912
 20
46.64523152697657
 30
0.0
 11
85.34936636716912
 21
46.65128431112084
 31
0.0
  0
LINE
  5
13C
330
112
100
AcDbEntity
  8
DIBUJOS
 62
     7
370
    18
100
AcDbLine
 10
84.19362439909923
 20
46.63917874283196
 30
0.0
 11
84.18757573036629
 21
46.63917874283196
 31
0.0
  0
LINE
  5
13D
330
112
100
AcDbEntity
  8
DIBUJOS
 62
     7
370
    18
100
AcDbLine
 10
84.19362439909923
 20
46.63917874283196
 30
0.0
 11
84.19362439909923
 21
46.64523152697657
 31
0.0
  0
LINE
  5
13E
330
112
100
AcDbEntity
  8
DIBUJOS
 62
     7
370
    18
100
AcDbLine
 10
84.44171753395478
 20
46.63917874283196
 30
0.0
 11
84.44171753395478
 21
46.64523152697657
 31
0.0
  0
LWPOLYLINE
  5
13F
330
112
100
AcDbEntity
  8
DIBUJOS
 62
     7
370
    18
100
AcDbPolyline
 90
        4
 70
     0
 43
0.0
 10
82.18469767422643
 20
46.608921337484
 10
82.18715036542517
 20
46.6387715318423
 10
82.30813676900018
 20
47.02528968749184
 10
82.31781724475458
 20
47.03860385799738
  0
LWPOLYLINE
  5
140
330
112
100
AcDbEntity
  8
DIBUJOS
 62
     7
370
    18
100
AcDbPolyline
 90
        4
 70
     0
 43
0.0
 10
81.9366045393709
 20
46.60286855333939
 10
81.94731104132408
 20
46.61590256268445
 10
82.01768992410626
 20
46.83162991405389
 10
82.02737039986001
 20
46.84494408455975
  0
LINE
  5
141
330
112
100
AcDbEntity
  8
DIBUJOS
 62
     7
370
    18
100
AcDbLine
 10
82.18469767422643
 20
46.60286855333939
 30
0.0
 11
82.18469767422643
 21
46.608921337484
 31
0.0
  0
LINE
  5
142
330
112
100
AcDbEntity
  8
DIBUJOS
 62
     7
370
    18
100
AcDbLine
 10
82.19074634296001
 20
46.60286855333939
 30
0.0
 11
82.18469767422643
 21
46.60286855333939
 31
0.0
  0
LINE
  5
143
330
112
100
AcDbEntity
  8
DIBUJOS
 62
     7
370
    18
100
AcDbLine
 10
82.19074634296001
 20
46.60286855333939
 30
0.0
 11
84.18757573036629
 21
46.63917874283196
 31
0.0
  0
LINE
  5
144
330
112
100
AcDbEntity
  8
DIBUJOS
 62
     7
370
    18
100
AcDbLine
 10
81.9366045393709
 20
46.59681902688297
 30
0.0
 11
81.93055587063794
 21
46.59681902688297
 31
0.0
  0
LINE
  5
145
330
112
100
AcDbEntity
  8
DIBUJOS
 62
     7
370
    18
100
AcDbLine
 10
81.9366045393709
 20
46.59681902688297
 30
0.0
 11
81.9366045393709
 21
46.60286855333939
 31
0.0
  0
LINE
  5
146
330
112
100
AcDbEntity
  8
DIBUJOS
 62
     7
370
    18
100
AcDbLine
 10
81.9366045393709
 20
46.59076624273835
 30
0.0
 11
81.9366045393709
 21
46.59681902688297
 31
0.0
  0
LWPOLYLINE
  5
147
330
112
100
AcDbEntity
  8
DIBUJOS
 62
     7
370
    18
100
AcDbPolyline
 90
       13
 70
     0
 43
0.0
 10
81.1015690459939
 20
46.57261114799175
 10
81.09551712003449
 20
46.57866067444851
 10
81.09975151387025
 20
46.59742169914657
 10
81.12726855935305
 20
46.6560535662277
 10
81.1741791286048
 20
46.71180237950397
 10
81.27765142782768
 20
46.77716137212752
 10
81.38536137811346
 20
46.82255073783699
 10
81.49541653113878
 20
46.86096213603384
 10
81.60924680913073
 20
46.89517437450932
 10
81.89371338703784
 20
46.96206448045264
 10
82.03295654249798
 20
46.99251408938702
 10
82.06972736712485
 20
47.00229041081762
 10
82.36622613797884
 20
47.95243092557515
  0
LINE
  5
148
330
112
100
AcDbEntity
  8
DIBUJOS
 62
     7
370
    18
100
AcDbLine
 10
81.1015690459939
 20
46.56655836384715
 30
0.0
 11
81.1015690459939
 21
46.57261114799175
 31
0.0
  0
LINE
  5
149
330
112
100
AcDbEntity
  8
DIBUJOS
 62
     7
370
    18
100
AcDbLine
 10
81.10762097195332
 20
46.56655836384715
 30
0.0
 11
81.1015690459939
 21
46.56655836384715
 31
0.0
  0
LWPOLYLINE
  5
14A
330
112
100
AcDbEntity
  8
DIBUJOS
 62
     7
370
    18
100
AcDbPolyline
 90
        4
 70
     0
 43
0.0
 10
81.10762097195332
 20
46.56655836384715
 10
81.18608428973626
 20
46.56935346007793
 10
81.70674535581907
 20
46.59387407700807
 10
81.93055587063794
 20
46.59681902688297
  0
LWPOLYLINE
  5
14B
330
112
100
AcDbEntity
  8
DIBUJOS
 62
     7
370
    18
100
AcDbPolyline
 90
        4
 70
     0
 43
0.0
 10
84.22388077167111
 20
46.56050557970256
 10
84.22174403139699
 20
46.57812641363094
 10
84.20910925163516
 20
46.61942412331954
 10
84.19362439909923
 20
46.63917874283196
  0
LWPOLYLINE
  5
14C
330
112
100
AcDbEntity
  8
DIBUJOS
 62
     7
370
    18
100
AcDbPolyline
 90
        4
 70
     0
 43
0.0
 10
84.4659187233414
 20
46.53024817435523
 10
84.46200353765609
 20
46.53683196162956
 10
84.43566560799537
 20
46.62707643223028
 10
84.44171753395478
 20
46.63917874283196
  0
LWPOLYLINE
  5
14D
330
112
100
AcDbEntity
  8
DIBUJOS
 62
     7
370
    18
100
AcDbPolyline
 90
        4
 70
     0
 43
0.0
 10
82.14838937569515
 20
46.52419539020999
 10
82.1526270267574
 20
46.53085084661916
 10
82.17399117227323
 20
46.58983454399434
 10
82.18469767422643
 20
46.60286855333939
  0
LINE
  5
14E
330
112
100
AcDbEntity
  8
DIBUJOS
 62
     7
370
    18
100
AcDbLine
 10
84.4659187233414
 20
46.52419539020999
 30
0.0
 11
84.4659187233414
 21
46.53024817435523
 31
0.0
  0
LINE
  5
14F
330
112
100
AcDbEntity
  8
DIBUJOS
 62
     7
370
    18
100
AcDbLine
 10
84.47197064930081
 20
46.52419539020999
 30
0.0
 11
84.4659187233414
 21
46.52419539020999
 31
0.0
  0
LWPOLYLINE
  5
150
330
112
100
AcDbEntity
  8
DIBUJOS
 62
     7
370
    18
100
AcDbPolyline
 90
        8
 70
     0
 43
0.0
 10
84.47197064930081
 20
46.52419539020999
 10
84.68972598093381
 20
46.53318660885378
 10
85.07123183665946
 20
46.55167724545488
 10
85.20387259496159
 20
46.56320294529573
 10
85.28839109592913
 20
46.58098992130745
 10
85.3242303539125
 20
46.59821331731002
 10
85.34936636716912
 20
46.6149741216286
 10
85.34936636716912
 20
46.64523152697657
  0
LINE
  5
151
330
112
100
AcDbEntity
  8
DIBUJOS
 62
     7
370
    18
100
AcDbLine
 10
84.4659187233414
 20
46.5181426060657
 30
0.0
 11
84.4659187233414
 21
46.52419539020999
 31
0.0
  0
LWPOLYLINE
  5
152
330
112
100
AcDbEntity
  8
DIBUJOS
 62
     7
370
    18
100
AcDbPolyline
 90
        4
 70
     0
 43
0.0
 10
81.90635142402548
 20
46.48183241657346
 10
81.90755985488188
 20
46.48727927076629
 10
81.93427887998755
 20
46.56702421321901
 10
81.9366045393709
 20
46.59076624273835
  0
LWPOLYLINE
  5
153
330
112
100
AcDbEntity
  8
DIBUJOS
 62
     7
370
    18
100
AcDbPolyline
 90
       10
 70
     0
 43
0.0
 10
81.90029949806543
 20
46.47577963242886
 10
81.89424757210668
 20
46.48183241657346
 10
81.60985265317151
 20
46.48183241657346
 10
81.29498638474739
 20
46.48510639292747
 10
81.22280299874679
 20
46.49066075082113
 10
81.13235634640814
 20
46.50817408104805
 10
81.11972156664631
 20
46.51209307960927
 10
81.09551712003449
 20
46.53629770081167
 10
81.09370284513667
 20
46.54779733914942
 10
81.1015690459939
 20
46.56655836384715
  0
LINE
  5
154
330
112
100
AcDbEntity
  8
DIBUJOS
 62
     7
370
    18
100
AcDbLine
 10
81.90635142402548
 20
46.47577963242886
 30
0.0
 11
81.90029949806543
 21
46.47577963242886
 31
0.0
  0
LINE
  5
155
330
112
100
AcDbEntity
  8
DIBUJOS
 62
     7
370
    18
100
AcDbLine
 10
81.90635142402548
 20
46.47577963242886
 30
0.0
 11
81.90635142402548
 21
46.48183241657346
 31
0.0
  0
LINE
  5
156
330
112
100
AcDbEntity
  8
DIBUJOS
 62
     7
370
    18
100
AcDbLine
 10
81.90635142402548
 20
46.46973010597242
 30
0.0
 11
81.90635142402548
 21
46.47577963242886
 31
0.0
  0
LWPOLYLINE
  5
157
330
112
100
AcDbEntity
  8
DIBUJOS
 62
     7
370
    18
100
AcDbPolyline
 90
        4
 70
     0
 43
0.0
 10
80.7143044146508
 20
42.65101132335207
 10
80.71644115492555
 20
42.66863215728014
 10
81.90211377296261
 20
46.46307139187508
 10
81.90635142402548
 20
46.46973010597242
  0
LINE
  5
158
330
112
100
AcDbEntity
  8
DIBUJOS
 62
     7
370
    18
100
AcDbLine
 10
80.7143044146508
 20
42.64495853920683
 30
0.0
 11
80.7143044146508
 21
42.65101132335207
 31
0.0
  0
LINE
  5
159
330
112
100
AcDbEntity
  8
DIBUJOS
 62
     7
370
    18
100
AcDbLine
 10
80.72035634061085
 20
42.64495853920683
 30
0.0
 11
80.7143044146508
 21
42.64495853920683
 31
0.0
  0
LWPOLYLINE
  5
15A
330
112
100
AcDbEntity
  8
DIBUJOS
 62
     7
370
    18
100
AcDbPolyline
 90
        4
 70
     0
 43
0.0
 10
85.56115120349275
 20
42.64495853920683
 10
85.56417390924696
 20
42.65101132335207
 10
84.46983716625252
 20
46.51155881879106
 10
84.4659187233414
 20
46.5181426060657
  0
LINE
  5
15B
330
112
100
AcDbEntity
  8
DIBUJOS
 62
     7
370
    18
100
AcDbLine
 10
85.56115120349275
 20
42.63890738390679
 30
0.0
 11
85.55509927753334
 21
42.63890738390679
 31
0.0
  0
LINE
  5
15C
330
112
100
AcDbEntity
  8
DIBUJOS
 62
     7
370
    18
100
AcDbLine
 10
85.56115120349275
 20
42.63890738390679
 30
0.0
 11
85.56115120349275
 21
42.64495853920683
 31
0.0
  0
LWPOLYLINE
  5
15D
330
112
100
AcDbEntity
  8
DIBUJOS
 62
     7
370
    18
100
AcDbPolyline
 90
       10
 70
     0
 43
0.0
 10
85.36146696186213
 20
42.58444047082401
 10
85.35249656138123
 20
42.59779699127284
 10
85.32092426949445
 20
42.70608253754205
 10
85.31729571969945
 20
42.71697624592738
 10
84.23598136636408
 20
46.5181426060657
 10
82.14838937569515
 20
46.48788520071806
 10
82.13628878100216
 20
46.47577963242886
 10
82.07154164202268
 20
46.26941161843681
 10
80.92366913203647
 20
42.59775464132957
 10
80.91398865628208
 20
42.58444047082401
  0
LINE
  5
15E
330
112
100
AcDbEntity
  8
DIBUJOS
 62
     7
370
    18
100
AcDbLine
 10
85.36146696186213
 20
42.58444047082401
 30
0.0
 11
85.55509927753334
 21
42.63890738390679
 31
0.0
  0
LWPOLYLINE
  5
15F
330
112
100
AcDbEntity
  8
DIBUJOS
 62
     7
370
    18
100
AcDbPolyline
 90
        4
 70
     0
 43
0.0
 10
80.90793673032203
 20
42.57838931552302
 10
80.89462444754683
 20
42.58807116400482
 10
80.72580242252882
 20
42.64374830814689
 10
80.72035634061085
 20
42.64495853920683
  0
LINE
  5
160
330
112
100
AcDbEntity
  8
DIBUJOS
 62
     7
370
    18
100
AcDbLine
 10
80.91398865628208
 20
42.57838931552302
 30
0.0
 11
80.90793673032203
 21
42.57838931552302
 31
0.0
  0
LINE
  5
161
330
112
100
AcDbEntity
  8
DIBUJOS
 62
     7
370
    18
100
AcDbLine
 10
80.91398865628208
 20
42.57838931552302
 30
0.0
 11
80.91398865628208
 21
42.58444047082401
 31
0.0
  0
LINE
  5
162
330
112
100
AcDbEntity
  8
DIBUJOS
 62
     7
370
    18
100
AcDbLine
 10
80.91398865628208
 20
42.57233653137874
 30
0.0
 11
80.91398865628208
 21
42.57838931552302
 31
0.0
  0
LWPOLYLINE
  5
163
330
112
100
AcDbEntity
  8
DIBUJOS
 62
     7
370
    18
100
AcDbPolyline
 90
       12
 70
     0
 43
0.0
 10
80.7143044146508
 20
42.64495853920683
 10
80.6961518939984
 20
42.60864834971491
 10
80.6961518939984
 20
42.56023259193313
 10
80.70341225081419
 20
42.5487345824393
 10
80.707044057835
 20
42.54147319607933
 10
80.72640826657027
 20
42.51786961829629
 10
80.80507027513993
 20
42.48761058410536
 10
80.84742724240541
 20
42.48761058410536
 10
80.86557976305781
 20
42.49366336824933
 10
80.90188480436262
 20
42.5299735577419
 10
80.90672504223981
 20
42.5487345824393
 10
80.91398865628208
 20
42.57233653137874
  0
LWPOLYLINE
  5
164
330
112
100
AcDbEntity
  8
DIBUJOS
 62
     7
370
    18
100
AcDbPolyline
 90
       14
 70
     0
 43
0.0
 10
85.36146696186213
 20
42.58444047082401
 10
85.35541503590208
 20
42.57838931552302
 10
85.35965268696429
 20
42.56567944612597
 10
85.37356755655512
 20
42.52392240244121
 10
85.41592452381996
 20
42.48761058410536
 10
85.47643726896303
 20
42.48761058410536
 10
85.5121364662277
 20
42.50092475461059
 10
85.5193968230435
 20
42.50395114668225
 10
85.54299542561453
 20
42.51181846299561
 10
85.57325179818638
 20
42.54207749718718
 10
85.57930372414515
 20
42.56023259193313
 10
85.57930372414515
 20
42.5965444102693
 10
85.56961999116493
 20
42.6255932134006
 10
85.56115120349275
 20
42.63890738390679
  0
ENDBLK
  5
115
330
112
100
AcDbEntity
  8
0
100
AcDbBlockEnd
  0
BLOCK
  5
167
330
165
100
AcDbEntity
  8
0
100
AcDbBlockBegin
  2
Block_2
 70
     0
 10
0.0
 20
0.0
 30
0.0
  3
Block_2
  1

  0
LINE
  5
169
330
165
100
AcDbEntity
  8
DIBUJOS
 62
     7
370
    18
100
AcDbLine
 10
61.96828130944437
 20
33.4415762227958
 30
0.0
 11
61.96223101209755
 21
33.4415762227958
 31
0.0
  0
LINE
  5
16A
330
165
100
AcDbEntity
  8
DIBUJOS
 62
     7
370
    18
100
AcDbLine
 10
61.97433160679055
 20
33.4415762227958
 30
0.0
 11
61.96828130944437
 21
33.4415762227958
 31
0.0
  0
LWPOLYLINE
  5
16B
330
165
100
AcDbEntity
  8
DIBUJOS
 62
     7
370
    18
100
AcDbPolyline
 90
        3
 70
     0
 43
0.0
 10
61.99248575605619
 20
33.4415762227958
 10
61.98643383009645
 20
33.44762737809647
 10
61.97433160679055
 20
33.4415762227958
  0
LINE
  5
16C
330
165
100
AcDbEntity
  8
DIBUJOS
 62
     7
370
    18
100
AcDbLine
 10
61.99853605340268
 20
33.4415762227958
 30
0.0
 11
61.99248575605619
 21
33.4415762227958
 31
0.0
  0
LINE
  5
16D
330
165
100
AcDbEntity
  8
DIBUJOS
 62
     7
370
    18
100
AcDbLine
 10
67.17818502579082
 20
33.4415762227958
 30
0.0
 11
67.17213472844433
 21
33.4415762227958
 31
0.0
  0
LINE
  5
16E
330
165
100
AcDbEntity
  8
DIBUJOS
 62
     7
370
    18
100
AcDbLine
 10
67.18423695175054
 20
33.4415762227958
 30
0.0
 11
67.17818502579082
 21
33.4415762227958
 31
0.0
  0
LINE
  5
16F
330
165
100
AcDbEntity
  8
DIBUJOS
 62
     7
370
    18
100
AcDbLine
 10
67.19633917505646
 20
33.4415762227958
 30
0.0
 11
67.18423695175054
 21
33.4415762227958
 31
0.0
  0
LINE
  5
170
330
165
100
AcDbEntity
  8
DIBUJOS
 62
     7
370
    18
100
AcDbLine
 10
67.20238947240296
 20
33.4415762227958
 30
0.0
 11
67.19633917505646
 21
33.4415762227958
 31
0.0
  0
LINE
  5
171
330
165
100
AcDbEntity
  8
DIBUJOS
 62
     7
370
    18
100
AcDbLine
 10
67.20844139836237
 20
33.4415762227958
 30
0.0
 11
67.20238947240296
 21
33.4415762227958
 31
0.0
  0
LINE
  5
172
330
165
100
AcDbEntity
  8
DIBUJOS
 62
     7
370
    18
100
AcDbLine
 10
61.96828130944437
 20
33.43552343865119
 30
0.0
 11
61.96828130944437
 21
33.4415762227958
 31
0.0
  0
LINE
  5
173
330
165
100
AcDbEntity
  8
DIBUJOS
 62
     7
370
    18
100
AcDbLine
 10
61.99248575605619
 20
33.43552343865119
 30
0.0
 11
61.99248575605619
 21
33.4415762227958
 31
0.0
  0
LINE
  5
174
330
165
100
AcDbEntity
  8
DIBUJOS
 62
     7
370
    18
100
AcDbLine
 10
67.15398220779192
 20
33.43552343865119
 30
0.0
 11
67.14793028183251
 21
33.43552343865119
 31
0.0
  0
LINE
  5
175
330
165
100
AcDbEntity
  8
DIBUJOS
 62
     7
370
    18
100
AcDbLine
 10
67.16003250513842
 20
33.43552343865119
 30
0.0
 11
67.15398220779192
 21
33.43552343865119
 31
0.0
  0
LINE
  5
176
330
165
100
AcDbEntity
  8
DIBUJOS
 62
     7
370
    18
100
AcDbLine
 10
67.16003250513842
 20
33.43552343865119
 30
0.0
 11
67.17213472844433
 21
33.4415762227958
 31
0.0
  0
LINE
  5
177
330
165
100
AcDbEntity
  8
DIBUJOS
 62
     7
370
    18
100
AcDbLine
 10
67.17818502579082
 20
33.43552343865119
 30
0.0
 11
67.17818502579082
 21
33.4415762227958
 31
0.0
  0
LINE
  5
178
330
165
100
AcDbEntity
  8
DIBUJOS
 62
     7
370
    18
100
AcDbLine
 10
67.20238947240296
 20
33.43552343865119
 30
0.0
 11
67.20238947240296
 21
33.4415762227958
 31
0.0
  0
LINE
  5
179
330
165
100
AcDbEntity
  8
DIBUJOS
 62
     7
370
    18
100
AcDbLine
 10
67.22054199305536
 20
33.43552343865119
 30
0.0
 11
67.20844139836237
 21
33.4415762227958
 31
0.0
  0
LINE
  5
17A
330
165
100
AcDbEntity
  8
DIBUJOS
 62
     7
370
    18
100
AcDbLine
 10
67.22659391901476
 20
33.43552343865119
 30
0.0
 11
67.22054199305536
 21
33.43552343865119
 31
0.0
  0
LINE
  5
17B
330
165
100
AcDbEntity
  8
DIBUJOS
 62
     7
370
    18
100
AcDbLine
 10
67.23264421636159
 20
33.43552343865119
 30
0.0
 11
67.22659391901476
 21
33.43552343865119
 31
0.0
  0
LINE
  5
17C
330
165
100
AcDbEntity
  8
DIBUJOS
 62
     7
370
    18
100
AcDbLine
 10
61.97433160679055
 20
33.42947228335051
 30
0.0
 11
61.96828130944437
 21
33.43552343865119
 31
0.0
  0
LINE
  5
17D
330
165
100
AcDbEntity
  8
DIBUJOS
 62
     7
370
    18
100
AcDbLine
 10
61.98643383009645
 20
33.42947228335051
 30
0.0
 11
61.99248575605619
 21
33.43552343865119
 31
0.0
  0
LINE
  5
17E
330
165
100
AcDbEntity
  8
DIBUJOS
 62
     7
370
    18
100
AcDbLine
 10
67.15398220779192
 20
33.42947228335051
 30
0.0
 11
67.15398220779192
 21
33.43552343865119
 31
0.0
  0
LINE
  5
17F
330
165
100
AcDbEntity
  8
DIBUJOS
 62
     7
370
    18
100
AcDbLine
 10
67.18423695175054
 20
33.42947228335051
 30
0.0
 11
67.17818502579082
 21
33.43552343865119
 31
0.0
  0
LINE
  5
180
330
165
100
AcDbEntity
  8
DIBUJOS
 62
     7
370
    18
100
AcDbLine
 10
67.19633917505646
 20
33.42947228335051
 30
0.0
 11
67.20238947240296
 21
33.43552343865119
 31
0.0
  0
LINE
  5
181
330
165
100
AcDbEntity
  8
DIBUJOS
 62
     7
370
    18
100
AcDbLine
 10
67.22659391901476
 20
33.42947228335051
 30
0.0
 11
67.22659391901476
 21
33.43552343865119
 31
0.0
  0
LINE
  5
182
330
165
100
AcDbEntity
  8
DIBUJOS
 62
     7
370
    18
100
AcDbLine
 10
61.91987404483271
 20
33.42341949920591
 30
0.0
 11
61.96223101209755
 21
33.4415762227958
 31
0.0
  0
LINE
  5
183
330
165
100
AcDbEntity
  8
DIBUJOS
 62
     7
370
    18
100
AcDbLine
 10
61.97433160679055
 20
33.42341949920591
 30
0.0
 11
61.97433160679055
 21
33.42947228335051
 31
0.0
  0
LINE
  5
184
330
165
100
AcDbEntity
  8
DIBUJOS
 62
     7
370
    18
100
AcDbLine
 10
61.98038353274995
 20
33.42341949920591
 30
0.0
 11
61.97433160679055
 21
33.42341949920591
 31
0.0
  0
LINE
  5
185
330
165
100
AcDbEntity
  8
DIBUJOS
 62
     7
370
    18
100
AcDbLine
 10
61.98643383009645
 20
33.42341949920591
 30
0.0
 11
61.98038353274995
 21
33.42341949920591
 31
0.0
  0
LINE
  5
186
330
165
100
AcDbEntity
  8
DIBUJOS
 62
     7
370
    18
100
AcDbLine
 10
61.98643383009645
 20
33.42341949920591
 30
0.0
 11
61.98643383009645
 21
33.42947228335051
 31
0.0
  0
LWPOLYLINE
  5
187
330
165
100
AcDbEntity
  8
DIBUJOS
 62
     7
370
    18
100
AcDbPolyline
 90
        3
 70
     0
 43
0.0
 10
62.04694494662694
 20
33.42341949920591
 10
62.0100324326678
 20
33.43976006178408
 10
61.99853605340268
 20
33.4415762227958
  0
LWPOLYLINE
  5
188
330
165
100
AcDbEntity
  8
DIBUJOS
 62
     7
370
    18
100
AcDbPolyline
 90
        3
 70
     0
 43
0.0
 10
67.12977776117947
 20
33.42341949920591
 10
67.14187998448602
 20
33.43552343865119
 10
67.14793028183251
 20
33.43552343865119
  0
LINE
  5
189
330
165
100
AcDbEntity
  8
DIBUJOS
 62
     7
370
    18
100
AcDbLine
 10
67.16003250513842
 20
33.42341949920591
 30
0.0
 11
67.15398220779192
 21
33.42947228335051
 31
0.0
  0
LINE
  5
18A
330
165
100
AcDbEntity
  8
DIBUJOS
 62
     7
370
    18
100
AcDbLine
 10
67.18423695175054
 20
33.42341949920591
 30
0.0
 11
67.17818502579082
 21
33.42341949920591
 31
0.0
  0
LINE
  5
18B
330
165
100
AcDbEntity
  8
DIBUJOS
 62
     7
370
    18
100
AcDbLine
 10
67.18423695175054
 20
33.42341949920591
 30
0.0
 11
67.18423695175054
 21
33.42947228335051
 31
0.0
  0
LINE
  5
18C
330
165
100
AcDbEntity
  8
DIBUJOS
 62
     7
370
    18
100
AcDbLine
 10
67.19028724909705
 20
33.42341949920591
 30
0.0
 11
67.18423695175054
 21
33.42341949920591
 31
0.0
  0
LINE
  5
18D
330
165
100
AcDbEntity
  8
DIBUJOS
 62
     7
370
    18
100
AcDbLine
 10
67.19633917505646
 20
33.42341949920591
 30
0.0
 11
67.19028724909705
 21
33.42341949920591
 31
0.0
  0
LINE
  5
18E
330
165
100
AcDbEntity
  8
DIBUJOS
 62
     7
370
    18
100
AcDbLine
 10
67.19633917505646
 20
33.42341949920591
 30
0.0
 11
67.19633917505646
 21
33.42947228335051
 31
0.0
  0
LINE
  5
18F
330
165
100
AcDbEntity
  8
DIBUJOS
 62
     7
370
    18
100
AcDbLine
 10
67.22054199305536
 20
33.42341949920591
 30
0.0
 11
67.22659391901476
 21
33.42947228335051
 31
0.0
  0
LWPOLYLINE
  5
190
330
165
100
AcDbEntity
  8
DIBUJOS
 62
     7
370
    18
100
AcDbPolyline
 90
        3
 70
     0
 43
0.0
 10
67.25079836562755
 20
33.42341949920591
 10
67.23869614232132
 20
33.43552343865119
 10
67.23264421636159
 20
33.43552343865119
  0
LINE
  5
191
330
165
100
AcDbEntity
  8
DIBUJOS
 62
     7
370
    18
100
AcDbLine
 10
61.91987404483271
 20
33.41736834390523
 30
0.0
 11
61.91382211887265
 21
33.41736834390523
 31
0.0
  0
LINE
  5
192
330
165
100
AcDbEntity
  8
DIBUJOS
 62
     7
370
    18
100
AcDbLine
 10
61.91987404483271
 20
33.41736834390523
 30
0.0
 11
61.91987404483271
 21
33.42341949920591
 31
0.0
  0
LINE
  5
193
330
165
100
AcDbEntity
  8
DIBUJOS
 62
     7
370
    18
100
AcDbLine
 10
61.92592434217919
 20
33.41736834390523
 30
0.0
 11
61.91987404483271
 21
33.41736834390523
 31
0.0
  0
LINE
  5
194
330
165
100
AcDbEntity
  8
DIBUJOS
 62
     7
370
    18
100
AcDbLine
 10
62.04694494662694
 20
33.41736834390523
 30
0.0
 11
62.04089302066753
 21
33.41736834390523
 31
0.0
  0
LINE
  5
195
330
165
100
AcDbEntity
  8
DIBUJOS
 62
     7
370
    18
100
AcDbLine
 10
62.04694494662694
 20
33.41736834390523
 30
0.0
 11
62.04694494662694
 21
33.42341949920591
 31
0.0
  0
LINE
  5
196
330
165
100
AcDbEntity
  8
DIBUJOS
 62
     7
370
    18
100
AcDbLine
 10
62.05299524397376
 20
33.41736834390523
 30
0.0
 11
62.04694494662694
 21
33.41736834390523
 31
0.0
  0
LINE
  5
197
330
165
100
AcDbEntity
  8
DIBUJOS
 62
     7
370
    18
100
AcDbLine
 10
67.12977776117947
 20
33.41736834390523
 30
0.0
 11
67.12372746383298
 21
33.41736834390523
 31
0.0
  0
LINE
  5
198
330
165
100
AcDbEntity
  8
DIBUJOS
 62
     7
370
    18
100
AcDbLine
 10
67.12977776117947
 20
33.41736834390523
 30
0.0
 11
67.12977776117947
 21
33.42341949920591
 31
0.0
  0
LINE
  5
199
330
165
100
AcDbEntity
  8
DIBUJOS
 62
     7
370
    18
100
AcDbLine
 10
67.13582968713985
 20
33.41736834390523
 30
0.0
 11
67.12977776117947
 21
33.41736834390523
 31
0.0
  0
LINE
  5
19A
330
165
100
AcDbEntity
  8
DIBUJOS
 62
     7
370
    18
100
AcDbLine
 10
67.16003250513842
 20
33.41736834390523
 30
0.0
 11
67.16003250513842
 21
33.42341949920591
 31
0.0
  0
LINE
  5
19B
330
165
100
AcDbEntity
  8
DIBUJOS
 62
     7
370
    18
100
AcDbLine
 10
67.16608443109783
 20
33.41736834390523
 30
0.0
 11
67.16003250513842
 21
33.41736834390523
 31
0.0
  0
LINE
  5
19C
330
165
100
AcDbEntity
  8
DIBUJOS
 62
     7
370
    18
100
AcDbLine
 10
67.16608443109783
 20
33.41736834390523
 30
0.0
 11
67.17818502579082
 21
33.42341949920591
 31
0.0
  0
LWPOLYLINE
  5
19D
330
165
100
AcDbEntity
  8
DIBUJOS
 62
     7
370
    18
100
AcDbPolyline
 90
        3
 70
     0
 43
0.0
 10
67.21449169570886
 20
33.41736834390523
 10
67.20238947240296
 20
33.41736834390523
 10
67.19633917505646
 20
33.42341949920591
  0
LINE
  5
19E
330
165
100
AcDbEntity
  8
DIBUJOS
 62
     7
370
    18
100
AcDbLine
 10
67.22054199305536
 20
33.41736834390523
 30
0.0
 11
67.21449169570886
 21
33.41736834390523
 31
0.0
  0
LINE
  5
19F
330
165
100
AcDbEntity
  8
DIBUJOS
 62
     7
370
    18
100
AcDbLine
 10
67.22054199305536
 20
33.41736834390523
 30
0.0
 11
67.22054199305536
 21
33.42341949920591
 31
0.0
  0
LINE
  5
1A0
330
165
100
AcDbEntity
  8
DIBUJOS
 62
     7
370
    18
100
AcDbLine
 10
67.25079836562755
 20
33.41736834390523
 30
0.0
 11
67.24474643966781
 21
33.41736834390523
 31
0.0
  0
LINE
  5
1A1
330
165
100
AcDbEntity
  8
DIBUJOS
 62
     7
370
    18
100
AcDbLine
 10
67.25079836562755
 20
33.41736834390523
 30
0.0
 11
67.25079836562755
 21
33.42341949920591
 31
0.0
  0
LINE
  5
1A2
330
165
100
AcDbEntity
  8
DIBUJOS
 62
     7
370
    18
100
AcDbLine
 10
67.25684866297403
 20
33.41736834390523
 30
0.0
 11
67.25079836562755
 21
33.41736834390523
 31
0.0
  0
LWPOLYLINE
  5
1A3
330
165
100
AcDbEntity
  8
DIBUJOS
 62
     7
370
    18
100
AcDbPolyline
 90
        4
 70
     0
 43
0.0
 10
61.92592434217919
 20
33.41736834390523
 10
61.93197463952569
 20
33.41131555976062
 10
61.96774712437552
 20
33.41950375833351
 10
61.97433160679055
 20
33.42341949920591
  0
LWPOLYLINE
  5
1A4
330
165
100
AcDbEntity
  8
DIBUJOS
 62
     7
370
    18
100
AcDbPolyline
 90
        4
 70
     0
 43
0.0
 10
61.98643383009645
 20
33.42341949920591
 10
61.99295153937827
 20
33.41969596191959
 10
62.03484272332103
 20
33.41131555976062
 10
62.04089302066753
 20
33.41736834390523
  0
LWPOLYLINE
  5
1A5
330
165
100
AcDbEntity
  8
DIBUJOS
 62
     7
370
    18
100
AcDbPolyline
 90
        4
 70
     0
 43
0.0
 10
67.13582968713985
 20
33.41736834390523
 10
67.14187998448602
 20
33.41131555976062
 10
67.15398220779192
 20
33.41131555976062
 10
67.16003250513842
 20
33.41736834390523
  0
LWPOLYLINE
  5
1A6
330
165
100
AcDbEntity
  8
DIBUJOS
 62
     7
370
    18
100
AcDbPolyline
 90
        4
 70
     0
 43
0.0
 10
67.22054199305536
 20
33.41736834390523
 10
67.22659391901476
 20
33.41131555976062
 10
67.23869614232132
 20
33.41131555976062
 10
67.24474643966781
 20
33.41736834390523
  0
LWPOLYLINE
  5
1A7
330
165
100
AcDbEntity
  8
DIBUJOS
 62
     7
370
    18
100
AcDbPolyline
 90
        4
 70
     0
 43
0.0
 10
62.09535221123829
 20
32.2614641162635
 10
62.09234416300158
 20
33.33867726349299
 10
62.07440661926723
 20
33.39129869637183
 10
62.05299524397376
 20
33.41736834390523
  0
LWPOLYLINE
  5
1A8
330
165
100
AcDbEntity
  8
DIBUJOS
 62
     7
370
    18
100
AcDbPolyline
 90
        4
 70
     0
 43
0.0
 10
67.08137049656812
 20
32.2614641162635
 10
67.08437854480485
 20
33.34473004763759
 10
67.09755076686104
 20
33.38455854007707
 10
67.12372746383298
 20
33.41736834390523
  0
LWPOLYLINE
  5
1A9
330
165
100
AcDbEntity
  8
DIBUJOS
 62
     7
370
    18
100
AcDbPolyline
 90
        3
 70
     0
 43
0.0
 10
62.10140250858479
 20
32.25541296096282
 10
62.09535221123829
 20
32.25541296096282
 10
62.09535221123829
 20
32.2614641162635
  0
LWPOLYLINE
  5
1AA
330
165
100
AcDbEntity
  8
DIBUJOS
 62
     7
370
    18
100
AcDbPolyline
 90
        3
 70
     0
 43
0.0
 10
67.07531857060839
 20
32.25541296096282
 10
67.08137049656812
 20
32.25541296096282
 10
67.08137049656812
 20
32.2614641162635
  0
LWPOLYLINE
  5
1AB
330
165
100
AcDbEntity
  8
DIBUJOS
 62
     7
370
    18
100
AcDbPolyline
 90
        3
 70
     0
 43
0.0
 10
62.24662755964498
 20
32.24936180566278
 10
62.24057563368526
 20
32.25541296096282
 10
62.10140250858479
 20
32.25541296096282
  0
LINE
  5
1AC
330
165
100
AcDbEntity
  8
DIBUJOS
 62
     7
370
    18
100
AcDbLine
 10
62.25267785699148
 20
32.24936180566278
 30
0.0
 11
62.24662755964498
 21
32.24936180566278
 31
0.0
  0
LWPOLYLINE
  5
1AD
330
165
100
AcDbEntity
  8
DIBUJOS
 62
     7
370
    18
100
AcDbPolyline
 90
       25
 70
     0
 43
0.0
 10
66.94824766881383
 20
32.24936180566278
 10
66.93754279547388
 20
32.2623958150072
 10
66.76792926453072
 20
32.55255807752988
 10
66.69259939818729
 20
32.67766143765656
 10
66.36130205306624
 20
33.03610158117329
 10
66.11833090613917
 20
33.20415755644937
 10
66.03345899614746
 20
33.26462024413785
 10
65.91292371837737
 20
33.34353610501656
 10
65.6103730215643
 20
33.46457224178281
 10
65.47233992557346
 20
33.51633364505248
 10
65.35730284533837
 20
33.54073209868649
 10
65.02373684228906
 20
33.61442262815068
 10
64.62466639520849
 20
33.6412871515357
 10
64.44903025334025
 20
33.63203206017033
 10
64.17113838617007
 20
33.61442262815068
 10
63.75984031258141
 20
33.52397455205512
 10
63.70538112201066
 20
33.51187061260984
 10
63.58450057828193
 20
33.46457224178281
 10
63.28679337657156
 20
33.34595656713708
 10
63.08073311499136
 20
33.20694939499199
 10
62.97786665980924
 20
33.13432738716421
 10
62.8335731753929
 20
33.03610158117329
 10
62.49620598956912
 20
32.66569920763512
 10
62.40516326486748
 20
32.50898487283309
 10
62.25267785699148
 20
32.24936180566278
  0
LWPOLYLINE
  5
1AE
330
165
100
AcDbEntity
  8
DIBUJOS
 62
     7
370
    18
100
AcDbPolyline
 90
        3
 70
     0
 43
0.0
 10
66.94824766881383
 20
32.24936180566278
 10
66.95429959477356
 20
32.25541296096282
 10
67.07531857060839
 20
32.25541296096282
  0
LINE
  5
1AF
330
165
100
AcDbEntity
  8
DIBUJOS
 62
     7
370
    18
100
AcDbLine
 10
62.25267785699148
 20
32.24330902151754
 30
0.0
 11
62.25267785699148
 21
32.24936180566278
 31
0.0
  0
LINE
  5
1B0
330
165
100
AcDbEntity
  8
DIBUJOS
 62
     7
370
    18
100
AcDbLine
 10
62.03484272332103
 20
32.2312050820729
 30
0.0
 11
62.03484272332103
 21
32.24936180566278
 31
0.0
  0
LINE
  5
1B1
330
165
100
AcDbEntity
  8
DIBUJOS
 62
     7
370
    18
100
AcDbLine
 10
62.24662755964498
 20
32.2312050820729
 30
0.0
 11
62.25267785699148
 21
32.24330902151754
 31
0.0
  0
LWPOLYLINE
  5
1B2
330
165
100
AcDbEntity
  8
DIBUJOS
 62
     7
370
    18
100
AcDbPolyline
 90
        3
 70
     0
 43
0.0
 10
66.95429959477356
 20
32.2312050820729
 10
66.94824766881383
 20
32.2372578662175
 10
66.94824766881383
 20
32.24936180566278
  0
LWPOLYLINE
  5
1B3
330
165
100
AcDbEntity
  8
DIBUJOS
 62
     7
370
    18
100
AcDbPolyline
 90
        3
 70
     0
 43
0.0
 10
67.13582968713985
 20
32.21910114262698
 10
67.14187998448602
 20
32.22515392677222
 10
67.14187998448602
 20
32.24936180566278
  0
LWPOLYLINE
  5
1B4
330
165
100
AcDbEntity
  8
DIBUJOS
 62
     7
370
    18
100
AcDbPolyline
 90
        4
 70
     0
 43
0.0
 10
67.08137049656812
 20
32.04359809277891
 10
67.08416519649969
 20
32.12207253694494
 10
67.09055098812704
 20
32.14522818263894
 10
67.09952301722085
 20
32.15858307424384
  0
LWPOLYLINE
  5
1B5
330
165
100
AcDbEntity
  8
DIBUJOS
 62
     7
370
    18
100
AcDbPolyline
 90
        4
 70
     0
 43
0.0
 10
62.09535221123829
 20
32.03754693747824
 10
62.09255751130672
 20
32.1160213816449
 10
62.08143408442166
 20
32.15192598899172
 10
62.07719969058557
 20
32.15858307424384
  0
LINE
  5
1B6
330
165
100
AcDbEntity
  8
DIBUJOS
 62
     7
370
    18
100
AcDbLine
 10
62.1740158484215
 20
32.03754693747824
 30
0.0
 11
62.23452533633876
 21
32.19489489257969
 31
0.0
  0
LWPOLYLINE
  5
1B7
330
165
100
AcDbEntity
  8
DIBUJOS
 62
     7
370
    18
100
AcDbPolyline
 90
        3
 70
     0
 43
0.0
 10
67.02085938003763
 20
32.03754693747824
 10
66.97458722708747
 20
32.17727242980802
 10
66.97245211542628
 20
32.19489489257969
  0
LINE
  5
1B8
330
165
100
AcDbEntity
  8
DIBUJOS
 62
     7
370
    18
100
AcDbLine
 10
67.08137049656812
 20
32.03754693747824
 30
0.0
 11
67.07531857060839
 21
32.03754693747824
 31
0.0
  0
LINE
  5
1B9
330
165
100
AcDbEntity
  8
DIBUJOS
 62
     7
370
    18
100
AcDbLine
 10
67.08137049656812
 20
32.03754693747824
 30
0.0
 11
67.08137049656812
 21
32.04359809277891
 31
0.0
  0
LINE
  5
1BA
330
165
100
AcDbEntity
  8
DIBUJOS
 62
     7
370
    18
100
AcDbLine
 10
62.09535221123829
 20
32.03149415333363
 30
0.0
 11
62.09535221123829
 21
32.03754693747824
 31
0.0
  0
LINE
  5
1BB
330
165
100
AcDbEntity
  8
DIBUJOS
 62
     7
370
    18
100
AcDbLine
 10
62.10140250858479
 20
32.03149415333363
 30
0.0
 11
62.09535221123829
 21
32.03149415333363
 31
0.0
  0
LWPOLYLINE
  5
1BC
330
165
100
AcDbEntity
  8
DIBUJOS
 62
     7
370
    18
100
AcDbPolyline
 90
        4
 70
     0
 43
0.0
 10
62.16796392246145
 20
32.03149415333363
 10
62.15586169915587
 20
32.03754693747824
 10
62.1373459978012
 20
32.03403677875029
 10
62.10140250858479
 20
32.03149415333363
  0
LINE
  5
1BD
330
165
100
AcDbEntity
  8
DIBUJOS
 62
     7
370
    18
100
AcDbLine
 10
62.1740158484215
 20
32.03149415333363
 30
0.0
 11
62.16796392246145
 21
32.03149415333363
 31
0.0
  0
LINE
  5
1BE
330
165
100
AcDbEntity
  8
DIBUJOS
 62
     7
370
    18
100
AcDbLine
 10
62.1740158484215
 20
32.03149415333363
 30
0.0
 11
62.1740158484215
 21
32.03754693747824
 31
0.0
  0
LINE
  5
1BF
330
165
100
AcDbEntity
  8
DIBUJOS
 62
     7
370
    18
100
AcDbLine
 10
67.02085938003763
 20
32.03149415333363
 30
0.0
 11
67.02085938003763
 21
32.03754693747824
 31
0.0
  0
LINE
  5
1C0
330
165
100
AcDbEntity
  8
DIBUJOS
 62
     7
370
    18
100
AcDbLine
 10
67.02691130599705
 20
32.03149415333363
 30
0.0
 11
67.02085938003763
 21
32.03149415333363
 31
0.0
  0
LINE
  5
1C1
330
165
100
AcDbEntity
  8
DIBUJOS
 62
     7
370
    18
100
AcDbLine
 10
67.02691130599705
 20
32.03149415333363
 30
0.0
 11
67.07531857060839
 21
32.03754693747824
 31
0.0
  0
LINE
  5
1C2
330
165
100
AcDbEntity
  8
DIBUJOS
 62
     7
370
    18
100
AcDbLine
 10
67.08137049656812
 20
32.03149415333363
 30
0.0
 11
67.08137049656812
 21
32.03754693747824
 31
0.0
  0
LINE
  5
1C3
330
165
100
AcDbEntity
  8
DIBUJOS
 62
     7
370
    18
100
AcDbLine
 10
62.09535221123829
 20
32.02544299803295
 30
0.0
 11
62.09535221123829
 21
32.03149415333363
 31
0.0
  0
LINE
  5
1C4
330
165
100
AcDbEntity
  8
DIBUJOS
 62
     7
370
    18
100
AcDbLine
 10
62.1740158484215
 20
32.02544299803295
 30
0.0
 11
62.1740158484215
 21
32.03149415333363
 31
0.0
  0
LINE
  5
1C5
330
165
100
AcDbEntity
  8
DIBUJOS
 62
     7
370
    18
100
AcDbLine
 10
67.02085938003763
 20
32.02544299803295
 30
0.0
 11
67.02085938003763
 21
32.03149415333363
 31
0.0
  0
LWPOLYLINE
  5
1C6
330
165
100
AcDbEntity
  8
DIBUJOS
 62
     7
370
    18
100
AcDbPolyline
 90
        3
 70
     0
 43
0.0
 10
67.07531857060839
 20
31.89835407712209
 10
67.08137049656812
 20
31.90440523242277
 10
67.08137049656812
 20
32.03149415333363
  0
LINE
  5
1C7
330
165
100
AcDbEntity
  8
DIBUJOS
 62
     7
370
    18
100
AcDbLine
 10
67.06926827326189
 20
31.89230129297749
 30
0.0
 11
67.02085938003763
 21
32.02544299803295
 31
0.0
  0
LINE
  5
1C8
330
165
100
AcDbEntity
  8
DIBUJOS
 62
     7
370
    18
100
AcDbLine
 10
67.07531857060839
 20
31.89230129297749
 30
0.0
 11
67.06926827326189
 21
31.89230129297749
 31
0.0
  0
LINE
  5
1C9
330
165
100
AcDbEntity
  8
DIBUJOS
 62
     7
370
    18
100
AcDbLine
 10
67.07531857060839
 20
31.89230129297749
 30
0.0
 11
67.07531857060839
 21
31.89835407712209
 31
0.0
  0
LINE
  5
1CA
330
165
100
AcDbEntity
  8
DIBUJOS
 62
     7
370
    18
100
AcDbLine
 10
67.07531857060839
 20
31.88625013767681
 30
0.0
 11
67.07531857060839
 21
31.89230129297749
 31
0.0
  0
LINE
  5
1CB
330
165
100
AcDbEntity
  8
DIBUJOS
 62
     7
370
    18
100
AcDbLine
 10
62.09535221123829
 20
31.84993831934097
 30
0.0
 11
62.09535221123829
 21
32.02544299803295
 31
0.0
  0
LINE
  5
1CC
330
165
100
AcDbEntity
  8
DIBUJOS
 62
     7
370
    18
100
AcDbLine
 10
62.09535221123829
 20
31.84388716404028
 30
0.0
 11
62.09535221123829
 21
31.84993831934097
 31
0.0
  0
LINE
  5
1CD
330
165
100
AcDbEntity
  8
DIBUJOS
 62
     7
370
    18
100
AcDbLine
 10
62.10140250858479
 20
31.84388716404028
 30
0.0
 11
62.09535221123829
 21
31.84388716404028
 31
0.0
  0
LINE
  5
1CE
330
165
100
AcDbEntity
  8
DIBUJOS
 62
     7
370
    18
100
AcDbLine
 10
62.11350473189102
 20
31.84388716404028
 30
0.0
 11
62.1740158484215
 21
32.02544299803295
 31
0.0
  0
LINE
  5
1CF
330
165
100
AcDbEntity
  8
DIBUJOS
 62
     7
370
    18
100
AcDbLine
 10
62.09535221123829
 20
31.83783437989568
 30
0.0
 11
62.09535221123829
 21
31.84388716404028
 31
0.0
  0
LINE
  5
1D0
330
165
100
AcDbEntity
  8
DIBUJOS
 62
     7
370
    18
100
AcDbLine
 10
62.10745443454452
 20
31.83783437989568
 30
0.0
 11
62.10140250858479
 21
31.84388716404028
 31
0.0
  0
LINE
  5
1D1
330
165
100
AcDbEntity
  8
DIBUJOS
 62
     7
370
    18
100
AcDbLine
 10
62.11350473189102
 20
31.83783437989568
 30
0.0
 11
62.10745443454452
 21
31.83783437989568
 31
0.0
  0
LINE
  5
1D2
330
165
100
AcDbEntity
  8
DIBUJOS
 62
     7
370
    18
100
AcDbLine
 10
62.11350473189102
 20
31.83783437989568
 30
0.0
 11
62.11350473189102
 21
31.84388716404028
 31
0.0
  0
LINE
  5
1D3
330
165
100
AcDbEntity
  8
DIBUJOS
 62
     7
370
    18
100
AcDbLine
 10
62.11350473189102
 20
31.83178322459436
 30
0.0
 11
62.11350473189102
 21
31.83783437989568
 31
0.0
  0
LWPOLYLINE
  5
1D4
330
165
100
AcDbEntity
  8
DIBUJOS
 62
     7
370
    18
100
AcDbPolyline
 90
        3
 70
     0
 43
0.0
 10
62.10140250858479
 20
31.81967928514908
 10
62.09535221123829
 20
31.82573206929368
 10
62.09535221123829
 20
31.83783437989568
  0
LINE
  5
1D5
330
165
100
AcDbEntity
  8
DIBUJOS
 62
     7
370
    18
100
AcDbLine
 10
62.10140250858479
 20
31.81967928514908
 30
0.0
 11
62.11350473189102
 21
31.83178322459436
 31
0.0
  0
LINE
  5
1D6
330
165
100
AcDbEntity
  8
DIBUJOS
 62
     7
370
    18
100
AcDbLine
 10
66.8211767670196
 20
31.69864314838282
 30
0.0
 11
66.81512646967309
 21
31.69864314838282
 31
0.0
  0
LINE
  5
1D7
330
165
100
AcDbEntity
  8
DIBUJOS
 62
     7
370
    18
100
AcDbLine
 10
62.37974875878605
 20
31.69259036423822
 30
0.0
 11
62.37974875878605
 21
31.69864314838282
 31
0.0
  0
LWPOLYLINE
  5
1D8
330
165
100
AcDbEntity
  8
DIBUJOS
 62
     7
370
    18
100
AcDbPolyline
 90
        4
 70
     0
 43
0.0
 10
61.87146515160844
 20
31.44446530656175
 10
61.87448134291003
 20
33.332632623568
 10
61.8924107435795
 20
33.39129869637183
 10
61.91382211887265
 20
33.41736834390523
  0
LINE
  5
1D9
330
165
100
AcDbEntity
  8
DIBUJOS
 62
     7
370
    18
100
AcDbLine
 10
61.87146515160844
 20
31.4384125224165
 30
0.0
 11
61.86541485426162
 21
31.4384125224165
 31
0.0
  0
LINE
  5
1DA
330
165
100
AcDbEntity
  8
DIBUJOS
 62
     7
370
    18
100
AcDbLine
 10
61.87146515160844
 20
31.4384125224165
 30
0.0
 11
61.87146515160844
 21
31.44446530656175
 31
0.0
  0
LINE
  5
1DB
330
165
100
AcDbEntity
  8
DIBUJOS
 62
     7
370
    18
100
AcDbLine
 10
61.87146515160844
 20
31.43236136711582
 30
0.0
 11
61.87146515160844
 21
31.4384125224165
 31
0.0
  0
LINE
  5
1DC
330
165
100
AcDbEntity
  8
DIBUJOS
 62
     7
370
    18
100
AcDbLine
 10
61.87146515160844
 20
30.36118308674907
 30
0.0
 11
61.87146515160844
 21
31.43236136711582
 31
0.0
  0
LWPOLYLINE
  5
1DD
330
165
100
AcDbEntity
  8
DIBUJOS
 62
     7
370
    18
100
AcDbPolyline
 90
        6
 70
     0
 43
0.0
 10
61.86541485426162
 20
30.35513193144775
 10
61.85331263095571
 20
30.35513193144775
 10
61.84726070499598
 20
30.36118308674907
 10
61.84726070499598
 20
31.42630858297186
 10
61.85936292830221
 20
31.4384125224165
 10
61.86541485426162
 20
31.4384125224165
  0
LINE
  5
1DE
330
165
100
AcDbEntity
  8
DIBUJOS
 62
     7
370
    18
100
AcDbLine
 10
61.87146515160844
 20
30.35513193144775
 30
0.0
 11
61.86541485426162
 21
30.35513193144775
 31
0.0
  0
LINE
  5
1DF
330
165
100
AcDbEntity
  8
DIBUJOS
 62
     7
370
    18
100
AcDbLine
 10
61.87146515160844
 20
30.35513193144775
 30
0.0
 11
61.87146515160844
 21
30.36118308674907
 31
0.0
  0
LINE
  5
1E0
330
165
100
AcDbEntity
  8
DIBUJOS
 62
     7
370
    18
100
AcDbLine
 10
61.87146515160844
 20
30.34908077614771
 30
0.0
 11
61.87146515160844
 21
30.35513193144775
 31
0.0
  0
LINE
  5
1E1
330
165
100
AcDbEntity
  8
DIBUJOS
 62
     7
370
    18
100
AcDbLine
 10
62.03484272332103
 20
29.66522041381228
 30
0.0
 11
62.03484272332103
 21
29.67732435325821
 31
0.0
  0
LINE
  5
1E2
330
165
100
AcDbEntity
  8
DIBUJOS
 62
     7
370
    18
100
AcDbLine
 10
62.37369846143955
 20
29.49576851926491
 30
0.0
 11
62.36764653548014
 21
29.49576851926491
 31
0.0
  0
LWPOLYLINE
  5
1E3
330
165
100
AcDbEntity
  8
DIBUJOS
 62
     7
370
    18
100
AcDbPolyline
 90
       15
 70
     0
 43
0.0
 10
62.09535221123829
 20
29.48971736396487
 10
62.08464733789801
 20
29.50275137330864
 10
62.07296366813657
 20
29.53268463870892
 10
62.06933348972867
 20
29.54357834709394
 10
62.05299524397376
 20
29.68942829270285
 10
62.05299524397376
 20
30.34908077614771
 10
62.06800617012239
 20
30.73023840633425
 10
62.07114776462616
 20
30.73639869417968
 10
62.06806805741686
 20
30.81512560915951
 10
62.05904554132025
 20
31.4081534882259
 10
62.06801919902664
 20
31.58961159158128
 10
62.07398643710922
 20
31.69242422215489
 10
62.08506589144279
 20
31.74645297621314
 10
62.0990752205879
 20
31.79593725563004
 10
62.10140250858479
 20
31.81967928514908
  0
LINE
  5
1E4
330
165
100
AcDbEntity
  8
DIBUJOS
 62
     7
370
    18
100
AcDbLine
 10
62.37369846143955
 20
29.48971736396487
 30
0.0
 11
62.37369846143955
 21
29.49576851926491
 31
0.0
  0
LWPOLYLINE
  5
1E5
330
165
100
AcDbEntity
  8
DIBUJOS
 62
     7
370
    18
100
AcDbPolyline
 90
       40
 70
     0
 43
0.0
 10
66.82722869297932
 20
29.48971736396487
 10
66.8199667075503
 20
29.50121537345805
 10
66.79976864895227
 20
29.5685908749003
 10
66.79417762047589
 20
29.64686497125997
 10
66.78790746037259
 20
31.34762401793531
 10
66.71617520017597
 20
31.58312390610032
 10
66.6838195454292
 20
31.68714351004571
 10
66.65295895742978
 20
31.74766320727276
 10
66.62875613943025
 20
31.79002618090929
 10
66.47167152840331
 20
32.050738944687
 10
66.21002670465954
 20
32.32803496879187
 10
65.95495496303979
 20
32.49003815992335
 10
65.85395001253184
 20
32.55334969569237
 10
65.78585281658281
 20
32.5864494337452
 10
65.67209419756377
 20
32.62639194526183
 10
65.42293269257118
 20
32.71302526881012
 10
65.31501427982028
 20
32.735645024842
 10
65.01171767824644
 20
32.79730328399479
 10
64.6125658005155
 20
32.8242867129881
 10
64.37036661615737
 20
32.80898046632334
 10
64.18314452130845
 20
32.79728373786708
 10
63.80219727984627
 20
32.71907805295472
 10
63.77194253588764
 20
32.71302526881012
 10
63.41507433783542
 20
32.58705373485336
 10
63.37876766791738
 20
32.57434549429991
 10
63.20361522411389
 20
32.46583028103278
 10
63.16730855419586
 20
32.44162403098614
 10
62.97274630049368
 20
32.31593102934659
 10
62.71405252353059
 20
32.03623408924891
 10
62.55038668731476
 20
31.75855528681386
 10
62.52981404772376
 20
31.7234553283822
 10
62.51073484626592
 20
31.67496953030982
 10
62.46837787900106
 20
31.53577666995433
 10
62.40395320539818
 20
31.33553148039684
 10
62.40395320539818
 20
31.17818352529475
 10
62.41000350274468
 20
31.17213236999471
 10
62.40689610911428
 20
29.80433671850278
 10
62.40100867306916
 20
29.58057265104881
 10
62.39003507858186
 20
29.53873742285416
 10
62.37369846143955
 20
29.49576851926491
  0
LINE
  5
1E6
330
165
100
AcDbEntity
  8
DIBUJOS
 62
     7
370
    18
100
AcDbLine
 10
66.83327899032581
 20
29.48971736396487
 30
0.0
 11
66.82722869297932
 21
29.48971736396487
 31
0.0
  0
LINE
  5
1E7
330
165
100
AcDbEntity
  8
DIBUJOS
 62
     7
370
    18
100
AcDbLine
 10
62.09535221123829
 20
29.48366457981962
 30
0.0
 11
62.09535221123829
 21
29.48971736396487
 31
0.0
  0
LINE
  5
1E8
330
165
100
AcDbEntity
  8
DIBUJOS
 62
     7
370
    18
100
AcDbLine
 10
62.10140250858479
 20
29.48366457981962
 30
0.0
 11
62.09535221123829
 21
29.48366457981962
 31
0.0
  0
LINE
  5
1E9
330
165
100
AcDbEntity
  8
DIBUJOS
 62
     7
370
    18
100
AcDbLine
 10
66.82722869297932
 20
29.48366457981962
 30
0.0
 11
66.82722869297932
 21
29.48971736396487
 31
0.0
  0
LINE
  5
1EA
330
165
100
AcDbEntity
  8
DIBUJOS
 62
     7
370
    18
100
AcDbLine
 10
62.09535221123829
 20
29.47761342451894
 30
0.0
 11
62.09535221123829
 21
29.48366457981962
 31
0.0
  0
LWPOLYLINE
  5
1EB
330
165
100
AcDbEntity
  8
DIBUJOS
 62
     7
370
    18
100
AcDbPolyline
 90
       18
 70
     0
 43
0.0
 10
67.08137049656812
 20
29.47761342451894
 10
67.11767553787325
 20
29.50787245871083
 10
67.12796185766906
 20
29.54478857815484
 10
67.1379647988004
 20
29.57996183456495
 10
67.14187998448602
 20
30.0041242029077
 10
67.14793028183251
 20
30.0101769870523
 10
67.14187998448602
 20
30.06464227129018
 10
67.14793028183251
 20
30.07069505543543
 10
67.14793028183251
 20
30.24014694998281
 10
67.1329242415223
 20
30.55473046995442
 10
67.12372746383298
 20
30.79691676256345
 10
67.13582968713985
 20
31.00268047544668
 10
67.13582968713985
 20
31.50498337494488
 10
67.12103048068216
 20
31.72258063917708
 10
67.10980933701634
 20
31.75855528681386
 10
67.10375903967016
 20
31.77671201040374
 10
67.08391113286952
 20
31.83819761209751
 10
67.07531857060839
 20
31.88625013767681
  0
LINE
  5
1EC
330
165
100
AcDbEntity
  8
DIBUJOS
 62
     7
370
    18
100
AcDbLine
 10
67.08137049656812
 20
29.47156226921826
 30
0.0
 11
67.07531857060839
 21
29.47156226921826
 31
0.0
  0
LINE
  5
1ED
330
165
100
AcDbEntity
  8
DIBUJOS
 62
     7
370
    18
100
AcDbLine
 10
67.08137049656812
 20
29.47156226921826
 30
0.0
 11
67.08137049656812
 21
29.47761342451894
 31
0.0
  0
LINE
  5
1EE
330
165
100
AcDbEntity
  8
DIBUJOS
 62
     7
370
    18
100
AcDbLine
 10
67.08137049656812
 20
29.46550948507366
 30
0.0
 11
67.08137049656812
 21
29.47156226921826
 31
0.0
  0
LWPOLYLINE
  5
1EF
330
165
100
AcDbEntity
  8
DIBUJOS
 62
     7
370
    18
100
AcDbPolyline
 90
       37
 70
     0
 43
0.0
 10
66.96640181807978
 20
29.45945832977234
 10
66.96338562677786
 20
31.44445553349757
 10
66.95737930198285
 20
31.78331534380642
 10
66.83114387866462
 20
32.20041178706344
 10
66.8250919527049
 20
32.22461966595337
 10
66.77760974028544
 20
32.30927394409318
 10
66.73767289195885
 20
32.37705502768117
 10
66.60184168076273
 20
32.60510784127419
 10
66.29474063918893
 20
32.93927169445432
 10
65.91849031765879
 20
33.19804939161012
 10
65.90049577246872
 20
33.21020871175005
 10
65.55591545960678
 20
33.34898295920971
 10
65.54502329576952
 20
33.35261365238986
 10
65.4531190347837
 20
33.38497226644243
 10
65.24233416685035
 20
33.43179990136551
 10
65.01776797559294
 20
33.48116201748565
 10
64.72737487492828
 20
33.49924544309837
 10
64.58230942794364
 20
33.5081454464796
 10
64.24966359124717
 20
33.48714150365309
 10
64.15322364301744
 20
33.47575099786072
 10
63.71036142060686
 20
33.37621560132833
 10
63.30648167929633
 20
33.21625986705137
 10
62.97770868434692
 20
32.98913875220077
 10
62.89408266331047
 20
32.93322053915364
 10
62.59908873088163
 20
32.61111827547616
 10
62.42936771147993
 20
32.32742903883978
 10
62.39064092262297
 20
32.26207004621624
 10
62.35373003727675
 20
32.15313622005198
 10
62.31137307001157
 20
32.0139433596952
 10
62.23452533633876
 20
31.77731631151191
 10
62.23452533633876
 20
31.75916121676659
 10
62.24057563368526
 20
31.75311006146527
 10
62.23752687012352
 20
31.45654481334755
 10
62.22847341037935
 20
30.10095408962731
 10
62.23452533633876
 20
30.09490293432599
 10
62.23146028664694
 20
29.93146473166778
 10
62.22847341037935
 20
29.45945832977234
  0
LWPOLYLINE
  5
1F0
330
165
100
AcDbEntity
  8
DIBUJOS
 62
     7
370
    18
100
AcDbPolyline
 90
        5
 70
     0
 43
0.0
 10
62.10140250858479
 20
29.48366457981962
 10
62.11895081380932
 20
29.47640319345932
 10
62.17437740051054
 20
29.45594817104504
 10
62.20995770902468
 20
29.450864549055
 10
62.22847341037935
 20
29.45945832977234
  0
LWPOLYLINE
  5
1F1
330
165
100
AcDbEntity
  8
DIBUJOS
 62
     7
370
    18
100
AcDbPolyline
 90
        5
 70
     0
 43
0.0
 10
62.22847341037935
 20
29.45945832977234
 10
62.24662755964498
 20
29.45038078239968
 10
62.25308663885815
 20
29.45095250662875
 10
62.32435963018434
 20
29.46690703318889
 10
62.36764653548014
 20
29.49576851926491
  0
LWPOLYLINE
  5
1F2
330
165
100
AcDbEntity
  8
DIBUJOS
 62
     7
370
    18
100
AcDbPolyline
 90
        5
 70
     0
 43
0.0
 10
66.83327899032581
 20
29.48971736396487
 10
66.87051559827512
 20
29.46690703318889
 10
66.91230580821066
 20
29.45594817104504
 10
66.9478844881122
 20
29.450864549055
 10
66.96640181807978
 20
29.45945832977234
  0
LWPOLYLINE
  5
1F3
330
165
100
AcDbEntity
  8
DIBUJOS
 62
     7
370
    18
100
AcDbPolyline
 90
        5
 70
     0
 43
0.0
 10
66.96640181807978
 20
29.45945832977234
 10
66.97971247224209
 20
29.45098508350785
 10
67.02049619933568
 20
29.45594817104504
 10
67.06261213187429
 20
29.46671971613393
 10
67.07531857060839
 20
29.47156226921826
  0
LWPOLYLINE
  5
1F4
330
165
100
AcDbEntity
  8
DIBUJOS
 62
     7
370
    18
100
AcDbPolyline
 90
       23
 70
     0
 43
0.0
 10
62.37369846143955
 20
29.48971736396487
 10
62.42634174849959
 20
29.2712454105269
 10
62.47535485715236
 20
29.18046830795253
 10
62.54917662784547
 20
29.05398368814984
 10
62.68741818630207
 20
28.95575788215955
 10
62.77245784343453
 20
28.90147665728879
 10
63.05181871954324
 20
28.82646676421896
 10
63.42632316792233
 20
28.79102637739974
 10
63.76542645521905
 20
28.7816507515828
 10
65.42339847589326
 20
28.7816507515828
 10
65.76220046978251
 20
28.79067291826144
 10
66.04035128642223
 20
28.81463809940239
 10
66.11357372752589
 20
28.82147109980202
 10
66.31342734491018
 20
28.8702924397289
 10
66.3377034504949
 20
28.87666447728942
 10
66.4327037048201
 20
28.90510897931287
 10
66.4651000748922
 20
28.92549884796832
 10
66.62149415400154
 20
29.02977580925928
 10
66.65780082391989
 20
29.06608762759577
 10
66.72901681379035
 20
29.18805546310444
 10
66.77649251175783
 20
29.2783683451512
 10
66.82299267053
 20
29.47700749456685
 10
66.82722869297932
 20
29.48366457981962
  0
LWPOLYLINE
  5
1F5
330
165
100
AcDbEntity
  8
DIBUJOS
 62
     7
370
    18
100
AcDbPolyline
 90
       14
 70
     0
 43
0.0
 10
61.87146515160844
 20
30.34908077614771
 10
61.8744797142968
 20
28.67272832732601
 10
61.88570248657553
 20
28.62483705729827
 10
61.88840761279154
 20
28.61764571122728
 10
61.91987404483271
 20
28.58193982284417
 10
61.97433160679055
 20
28.56378472809757
 10
61.99907023847121
 20
28.56770046897126
 10
62.01615601759979
 20
28.57197129782588
 10
62.05904554132025
 20
28.59404376228881
 10
62.07114776462616
 20
28.60614770173409
 10
62.08011979371963
 20
28.6255553774836
 10
62.08538509959358
 20
28.64192363040781
 10
62.09234904884095
 20
28.66668857393343
 10
62.09535221123829
 20
29.47761342451894
  0
LWPOLYLINE
  5
1F6
330
165
100
AcDbEntity
  8
DIBUJOS
 62
     7
370
    18
100
AcDbPolyline
 90
       17
 70
     0
 43
0.0
 10
67.08137049656812
 20
29.46550948507366
 10
67.08437203035256
 20
28.66063578978818
 10
67.09347109126143
 20
28.61825001233546
 10
67.13582968713985
 20
28.57588703869893
 10
67.19028724909705
 20
28.56378472809757
 10
67.24474643966781
 20
28.57588703869893
 10
67.28710340693267
 20
28.61825001233546
 10
67.29133942938166
 20
28.63701103703415
 10
67.29496960778989
 20
28.64790474541917
 10
67.30222019292757
 20
30.343016590095
 10
67.3064676156676
 20
30.35452600149629
 10
67.31130785354512
 20
30.36118308674907
 10
67.31130785354512
 20
31.42630858297186
 10
67.30404586811609
 20
31.43780822130898
 10
67.29618943893697
 20
33.35078771831332
 10
67.2830237313334
 20
33.38455854007707
 10
67.25684866297403
 20
33.41736834390523
  0
ENDBLK
  5
168
330
165
100
AcDbEntity
  8
0
100
AcDbBlockEnd
  0
ENDSEC
  0
SECTION
  2
ENTITIES
  0
MTEXT
  5
79
330
70
100
AcDbEntity
  8
REFERENCIAS
100
AcDbMText
 10
61.49112712594395
 20
54.85563098807645
 30
0.0
 40
0.2
 41
0.0
 46
0.0
 71
     7
 72
     1
  1
\C255;\FMyriad Pro|b0|i0|c1;\H1.498600;\W0.999980;TWIST_2323__ARMCHAIR
 73
     1
 44
1.0
  0
MTEXT
  5
7B
330
70
100
AcDbEntity
  8
MÁRGENES
100
AcDbMText
 10
90.14127864703391
 20
23.7555119243149
 30
0.0
 40
0.2
 41
0.0
 46
0.0
 71
     7
 72
     1
  1
\C255;\FMyriad Pro|b0|i0|c1;\H1.748367;\W0.999980;400
 73
     1
 44
1.0
  0
MTEXT
  5
7C
330
70
100
AcDbEntity
  8
MÁRGENES
100
AcDbMText
 10
84.21176331851954
 20
20.50332059082737
 30
0.0
 40
0.2
 41
0.0
 46
0.0
 71
     7
 72
     1
  1
\C255;\FMyriad Pro|b0|i0|c1;\H1.748367;\W0.999980;400
 73
     1
 44
1.0
  0
LINE
  5
7D
330
70
100
AcDbEntity
  8
MÁRGENES
 62
   255
370
    18
100
AcDbLine
 10
84.41666477502158
 20
24.76314475783758
 30
0.0
 11
94.99999810570907
 21
19.74726776251925
 31
0.0
  0
LINE
  5
7E
330
70
100
AcDbEntity
  8
MÁRGENES
 62
   254
370
    35
100
AcDbLine
 10
54.99999767595828
 20
20.88258920325216
 30
0.0
 11
54.99999767595828
 21
19.74726776251925
 31
0.0
  0
LINE
  5
7F
330
70
100
AcDbEntity
  8
MÁRGENES
 62
   255
370
    35
100
AcDbLine
 10
94.99999797321169
 20
59.74726768656563
 30
0.0
 11
93.86467653247878
 21
59.74726768651462
 31
0.0
  0
INSERT
  5
82
330
70
100
AcDbEntity
  8
DIBUJOS
100
AcDbBlockReference
  2
Block_0
 10
0.0
 20
0.0
 30
0.0
  0
INSERT
  5
113
330
70
100
AcDbEntity
  8
DIBUJOS
100
AcDbBlockReference
  2
Block_1
 10
0.0
 20
0.0
 30
0.0
  0
INSERT
  5
166
330
70
100
AcDbEntity
  8
DIBUJOS
100
AcDbBlockReference
  2
Block_2
 10
0.0
 20
0.0
 30
0.0
  0
LINE
  5
1F8
330
70
100
AcDbEntity
  8
COTAS LINEA
 62
     7
370
    18
100
AcDbLine
 10
74.33262631257008
 20
51.31461787828187
 30
0.0
 11
74.3326263134335
 21
42.33144090531743
 31
0.0
  0
LINE
  5
1F9
330
70
100
AcDbEntity
  8
COTAS LINEA
 62
     7
370
    18
100
AcDbLine
 10
88.56763180939003
 20
45.949318484247
 30
0.0
 11
88.56763181069652
 21
42.33143791450131
 31
0.0
  0
LINE
  5
1FA
330
70
100
AcDbEntity
  8
COTAS LINEA
 62
     7
370
    18
100
AcDbLine
 10
69.50282335947695
 20
47.71318755890042
 30
0.0
 11
69.50282336078345
 21
42.33145573149523
 31
0.0
  0
LINE
  5
1FB
330
70
100
AcDbEntity
  8
COTAS LINEA
 62
     7
370
    18
100
AcDbLine
 10
80.50251957832653
 20
38.66119575631178
 30
0.0
 11
85.55509927753334
 21
38.66119575631178
 31
0.0
  0
LINE
  5
1FC
330
70
100
AcDbEntity
  8
COTAS LINEA
 62
     7
370
    18
100
AcDbLine
 10
61.60456795805398
 20
38.66119575631178
 30
0.0
 11
67.80351820943931
 21
38.66119575631178
 31
0.0
  0
MTEXT
  5
1FE
330
70
100
AcDbEntity
  8
COTAS NÚMERO
100
AcDbMText
 10
75.10793162693429
 20
44.07784893205508
 30
0.0
 40
0.2
 41
0.0
 46
0.0
 71
     7
 72
     1
  1
\C7;\FMyriad Pro|b0|i0|c1;\H1.998533;\W0.999980;73
 73
     1
 44
1.0
  0
MTEXT
  5
1FF
330
70
100
AcDbEntity
  8
COTAS NÚMERO
100
AcDbMText
 10
89.32618520410889
 20
43.35631136340137
 30
0.0
 40
0.2
 41
0.0
 46
0.0
 71
     7
 72
     1
  1
\C7;\FMyriad Pro|b0|i0|c1;\H1.998533;\W0.999980;47
 73
     1
 44
1.0
  0
MTEXT
  5
200
330
70
100
AcDbEntity
  8
COTAS NÚMERO
100
AcDbMText
 10
70.26136860680397
 20
44.06186691878054
 30
0.0
 40
0.2
 41
0.0
 46
0.0
 71
     7
 72
     1
  1
\C7;\FMyriad Pro|b0|i0|c1;\H1.998533;\W0.999980;68
 73
     1
 44
1.0
  0
MTEXT
  5
201
330
70
100
AcDbEntity
  8
COTAS NÚMERO
100
AcDbMText
 10
81.5524941134552
 20
39.21634011877664
 30
0.0
 40
0.2
 41
0.0
 46
0.0
 71
     7
 72
     1
  1
\C7;\FMyriad Pro|b0|i0|c1;\H1.998533;\W0.999980;56
 73
     1
 44
1.0
  0
MTEXT
  5
202
330
70
100
AcDbEntity
  8
COTAS NÚMERO
100
AcDbMText
 10
63.19841417216156
 20
39.21616786400239
 30
0.0
 40
0.2
 41
0.0
 46
0.0
 71
     7
 72
     1
  1
\C7;\FMyriad Pro|b0|i0|c1;\H1.998533;\W0.999980;59
 73
     1
 44
1.0
  0
ENDSEC
  0
SECTION
  2
OBJECTS
  0
DICTIONARY
  5
C
330
0
100
AcDbDictionary
281
     1
  3
ACAD_COLOR
350
63
  3
ACAD_DETAILVIEWSTYLE
350
6A
  3
ACAD_GROUP
350
D
  3
ACAD_LAYOUT
350
62
  3
ACAD_MATERIAL
350
10
  3
ACAD_MLEADERSTYLE
350
66
  3
ACAD_MLINESTYLE
350
5F
  3
ACAD_PLOTSETTINGS
350
61
  3
ACAD_PLOTSTYLENAME
350
E
  3
ACAD_SCALELIST
350
42
  3
ACAD_SECTIONVIEWSTYLE
350
68
  3
ACAD_TABLESTYLE
350
64
  3
ACAD_VISUALSTYLE
350
29
  3
ACDB_RECOMPOSE_DATA
350
20E
  3
AcDbVariableDictionary
350
203
  0
DICTIONARY
  5
63
102
{ACAD_REACTORS
330
C
102
}
330
C
100
AcDbDictionary
281
     1
  0
DICTIONARY
  5
6A
102
{ACAD_REACTORS
330
C
102
}
330
C
100
AcDbDictionary
281
     1
  3
Imperial24
350
6B
  0
DICTIONARY
  5
D
102
{ACAD_REACTORS
330
C
102
}
330
C
100
AcDbDictionary
281
     1
  0
DICTIONARY
  5
62
102
{ACAD_REACTORS
330
C
102
}
330
C
100
AcDbDictionary
281
     1
  3
Layout1
350
6F
  3
Layout2
350
77
  3
Model
350
73
  0
DICTIONARY
  5
10
102
{ACAD_REACTORS
330
C
102
}
330
C
100
AcDbDictionary
281
     1
  3
ByBlock
350
19
  3
ByLayer
350
11
  3
Global
350
21
  0
DICTIONARY
  5
66
102
{ACAD_REACTORS
330
C
102
}
330
C
100
AcDbDictionary
281
     1
  3
Standard
350
67
  0
DICTIONARY
  5
5F
102
{ACAD_REACTORS
330
C
102
}
330
C
100
AcDbDictionary
281
     1
  3
Standard
350
60
  0
DICTIONARY
  5
61
102
{ACAD_REACTORS
330
C
102
}
330
C
100
AcDbDictionary
281
     1
  0
ACDBDICTIONARYWDFLT
  5
E
102
{ACAD_REACTORS
330
C
102
}
330
C
100
AcDbDictionary
281
     1
  3
Normal
350
F
100
AcDbDictionaryWithDefault
340
F
  0
DICTIONARY
  5
42
102
{ACAD_REACTORS
330
C
102
}
330
C
100
AcDbDictionary
281
     1
  3
A0
350
43
  3
A1
350
44
  3
A2
350
45
  3
A3
350
46
  3
A4
350
47
  3
A5
350
48
  3
A6
350
49
  3
A7
350
4A
  3
A8
350
4B
  3
A9
350
4C
  3
B0
350
4D
  3
B1
350
4E
  3
B2
350
4F
  3
B3
350
50
  3
B4
350
51
  3
B5
350
52
  3
B6
350
53
  0
DICTIONARY
  5
68
102
{ACAD_REACTORS
330
C
102
}
330
C
100
AcDbDictionary
281
     1
  3
Imperial24
350
69
  0
DICTIONARY
  5
64
102
{ACAD_REACTORS
330
C
102
}
330
C
100
AcDbDictionary
281
     1
  3
Standard
350
65
  0
DICTIONARY
  5
29
102
{ACAD_REACTORS
330
C
102
}
330
C
100
AcDbDictionary
281
     1
  3
2dWireframe
350
2F
  3
Basic
350
2E
  3
Brighten
350
35
  3
ColorChange
350
39
  3
Conceptual
350
32
  3
Dim
350
34
  3
EdgeColorOff
350
41
  3
Facepattern
350
38
  3
Flat
350
2A
  3
FlatWithEdges
350
2B
  3
Gouraud
350
2C
  3
GouraudWithEdges
350
2D
  3
Hidden
350
31
  3
JitterOff
350
3F
  3
Linepattern
350
37
  3
OverhangOff
350
40
  3
Realistic
350
33
  3
Shaded
350
3E
  3
Shaded with edges
350
3D
  3
Shades of Gray
350
3A
  3
Sketchy
350
3B
  3
Thicken
350
36
  3
Wireframe
350
30
  3
X-Ray
350
3C
  0
XRECORD
  5
20E
102
{ACAD_REACTORS
330
C
102
}
330
C
100
AcDbXrecord
280
     1
 90
        1
330
65
  0
DICTIONARY
  5
203
102
{ACAD_REACTORS
330
C
102
}
330
C
100
AcDbDictionary
281
     1
  3
CANNOSCALE
350
208
  3
CMLEADERSTYLE
350
205
  3
CTABLESTYLE
350
204
  3
CVIEWDETAILSTYLE
350
206
  3
CVIEWSECTIONSTYLE
350
207
  3
XCLIPFRAME
350
209
  0
ACDBDETAILVIEWSTYLE
  5
6B
102
{ACAD_XDICTIONARY
360
244
102
}
102
{ACAD_REACTORS
330
6A
102
}
330
6A
100
AcDbModelDocViewStyle
 70
     0
  3
Imperial24
290
     0
100
AcDbDetailViewStyle
 70
     0
 71
     0
 90
        3
 71
     1
340
55
 62
   256
 40
0.24
340
0
 62
   256
 40
0.24
300

 40
0.36
280
     3
 71
     2
340
5D
 90
       25
 62
   256
 71
     3
340
55
 62
   256
 40
0.24
 90
        1
 40
0.75
 90
        1
300
%<\AcVar ViewType \f "%tc1">% %<\AcVar ViewDetailId>%\PSCALE %<\AcVar ViewScale \f "%sn">%
 71
     4
340
5D
 90
       25
 62
   256
340
5D
 90
       25
 62
   256
280
     0
  0
LAYOUT
  5
6F
102
{ACAD_REACTORS
330
62
102
}
330
62
100
AcDbPlotSettings
  1

  2

  4

  6

 40
0.0
 41
0.0
 42
0.0
 43
0.0
 44
0.0
 45
0.0
 46
0.0
 47
0.0
 48
0.0
 49
0.0
140
0.0
141
0.0
142
1.0
143
1.0
 70
   688
 72
     0
 73
     0
 74
     5
  7

 75
    16
147
1.0
 76
     0
 77
     2
 78
   300
148
0.0
149
0.0
100
AcDbLayout
  1
Layout1
 70
     1
 71
     1
 10
0.0
 20
0.0
 11
12.0
 21
9.0
 12
0.0
 22
0.0
 32
0.0
 14
0.0
 24
0.0
 34
0.0
 15
0.0
 25
0.0
 35
0.0
146
0.0
 13
0.0
 23
0.0
 33
0.0
 16
1.0
 26
0.0
 36
0.0
 17
0.0
 27
1.0
 37
0.0
 76
     0
330
6C
  0
LAYOUT
  5
77
102
{ACAD_REACTORS
330
62
102
}
330
62
100
AcDbPlotSettings
  1

  2

  4

  6

 40
0.0
 41
0.0
 42
0.0
 43
0.0
 44
0.0
 45
0.0
 46
0.0
 47
0.0
 48
0.0
 49
0.0
140
0.0
141
0.0
142
1.0
143
1.0
 70
   688
 72
     0
 73
     0
 74
     5
  7

 75
    16
147
1.0
 76
     0
 77
     2
 78
   300
148
0.0
149
0.0
100
AcDbLayout
  1
Layout2
 70
     1
 71
     2
 10
0.0
 20
0.0
 11
12.0
 21
9.0
 12
0.0
 22
0.0
 32
0.0
 14
0.0
 24
0.0
 34
0.0
 15
0.0
 25
0.0
 35
0.0
146
0.0
 13
0.0
 23
0.0
 33
0.0
 16
1.0
 26
0.0
 36
0.0
 17
0.0
 27
1.0
 37
0.0
 76
     0
330
74
  0
LAYOUT
  5
73
102
{ACAD_REACTORS
330
62
102
}
330
62
100
AcDbPlotSettings
  1

  2

  4

  6

 40
0.0
 41
0.0
 42
0.0
 43
0.0
 44
0.0
 45
0.0
 46
0.0
 47
0.0
 48
0.0
 49
0.0
140
0.0
141
0.0
142
1.0
143
1.0
 70
  1712
 72
     0
 73
     0
 74
     0
  7

 75
     0
147
1.0
 76
     0
 77
     2
 78
   300
148
0.0
149
0.0
100
AcDbLayout
  1
Model
 70
     1
 71
     0
 10
0.0
 20
0.0
 11
12.0
 21
9.0
 12
0.0
 22
0.0
 32
0.0
 14
0.0
 24
0.0
 34
0.0
 15
0.0
 25
0.0
 35
0.0
146
0.0
 13
0.0
 23
0.0
 33
0.0
 16
1.0
 26
0.0
 36
0.0
 17
0.0
 27
1.0
 37
0.0
 76
     0
330
70
  0
MATERIAL
  5
19
102
{ACAD_XDICTIONARY
360
1A
102
}
102
{ACAD_REACTORS
330
10
102
}
330
10
100
AcDbMaterial
  1
ByBlock
 72
     0
 43
0.0208333333333333
 43
0.0
 43
0.0
 43
0.0
 43
0.0
 43
0.0208333333333333
 43
0.0
 43
0.0
 43
0.0
 43
0.0
 43
1.0
 43
0.0
 43
0.0
 43
0.0
 43
0.0
 43
1.0
 77
     0
 47
0.0208333333333333
 47
0.0
 47
0.0
 47
0.0
 47
0.0
 47
0.0208333333333333
 47
0.0
 47
0.0
 47
0.0
 47
0.0
 47
1.0
 47
0.0
 47
0.0
 47
0.0
 47
0.0
 47
1.0
171
     0
 49
0.0208333333333333
 49
0.0
 49
0.0
 49
0.0
 49
0.0
 49
0.0208333333333333
 49
0.0
 49
0.0
 49
0.0
 49
0.0
 49
1.0
 49
0.0
 49
0.0
 49
0.0
 49
0.0
 49
1.0
175
     0
142
0.0208333333333333
142
0.0
142
0.0
142
0.0
142
0.0
142
0.0208333333333333
142
0.0
142
0.0
142
0.0
142
0.0
142
1.0
142
0.0
142
0.0
142
0.0
142
0.0
142
1.0
179
     0
144
0.0208333333333333
144
0.0
144
0.0
144
0.0
144
0.0
144
0.0208333333333333
144
0.0
144
0.0
144
0.0
144
0.0
144
1.0
144
0.0
144
0.0
144
0.0
144
0.0
144
1.0
147
0.0208333333333333
147
0.0
147
0.0
147
0.0
147
0.0
147
0.0208333333333333
147
0.0
147
0.0
147
0.0
147
0.0
147
1.0
147
0.0
147
0.0
147
0.0
147
0.0
147
1.0
  0
MATERIAL
  5
11
102
{ACAD_XDICTIONARY
360
12
102
}
102
{ACAD_REACTORS
330
10
102
}
330
10
100
AcDbMaterial
  1
ByLayer
 72
     0
 43
0.0208333333333333
 43
0.0
 43
0.0
 43
0.0
 43
0.0
 43
0.0208333333333333
 43
0.0
 43
0.0
 43
0.0
 43
0.0
 43
1.0
 43
0.0
 43
0.0
 43
0.0
 43
0.0
 43
1.0
 77
     0
 47
0.0208333333333333
 47
0.0
 47
0.0
 47
0.0
 47
0.0
 47
0.0208333333333333
 47
0.0
 47
0.0
 47
0.0
 47
0.0
 47
1.0
 47
0.0
 47
0.0
 47
0.0
 47
0.0
 47
1.0
171
     0
 49
0.0208333333333333
 49
0.0
 49
0.0
 49
0.0
 49
0.0
 49
0.0208333333333333
 49
0.0
 49
0.0
 49
0.0
 49
0.0
 49
1.0
 49
0.0
 49
0.0
 49
0.0
 49
0.0
 49
1.0
175
     0
142
0.0208333333333333
142
0.0
142
0.0
142
0.0
142
0.0
142
0.0208333333333333
142
0.0
142
0.0
142
0.0
142
0.0
142
1.0
142
0.0
142
0.0
142
0.0
142
0.0
142
1.0
179
     0
144
0.0208333333333333
144
0.0
144
0.0
144
0.0
144
0.0
144
0.0208333333333333
144
0.0
144
0.0
144
0.0
144
0.0
144
1.0
144
0.0
144
0.0
144
0.0
144
0.0
144
1.0
147
0.0208333333333333
147
0.0
147
0.0
147
0.0
147
0.0
147
0.0208333333333333
147
0.0
147
0.0
147
0.0
147
0.0
147
1.0
147
0.0
147
0.0
147
0.0
147
0.0
147
1.0
  0
MATERIAL
  5
21
102
{ACAD_XDICTIONARY
360
22
102
}
102
{ACAD_REACTORS
330
10
102
}
330
10
100
AcDbMaterial
  1
Global
 72
     0
 43
0.0208333333333333
 43
0.0
 43
0.0
 43
0.0
 43
0.0
 43
0.0208333333333333
 43
0.0
 43
0.0
 43
0.0
 43
0.0
 43
1.0
 43
0.0
 43
0.0
 43
0.0
 43
0.0
 43
1.0
 77
     0
 47
0.0208333333333333
 47
0.0
 47
0.0
 47
0.0
 47
0.0
 47
0.0208333333333333
 47
0.0
 47
0.0
 47
0.0
 47
0.0
 47
1.0
 47
0.0
 47
0.0
 47
0.0
 47
0.0
 47
1.0
171
     0
 49
0.0208333333333333
 49
0.0
 49
0.0
 49
0.0
 49
0.0
 49
0.0208333333333333
 49
0.0
 49
0.0
 49
0.0
 49
0.0
 49
1.0
 49
0.0
 49
0.0
 49
0.0
 49
0.0
 49
1.0
175
     0
142
0.0208333333333333
142
0.0
142
0.0
142
0.0
142
0.0
142
0.0208333333333333
142
0.0
142
0.0
142
0.0
142
0.0
142
1.0
142
0.0
142
0.0
142
0.0
142
0.0
142
1.0
179
     0
144
0.0208333333333333
144
0.0
144
0.0
144
0.0
144
0.0
144
0.0208333333333333
144
0.0
144
0.0
144
0.0
144
0.0
144
1.0
144
0.0
144
0.0
144
0.0
144
0.0
144
1.0
147
0.0208333333333333
147
0.0
147
0.0
147
0.0
147
0.0
147
0.0208333333333333
147
0.0
147
0.0
147
0.0
147
0.0
147
1.0
147
0.0
147
0.0
147
0.0
147
0.0
147
1.0
  0
MLEADERSTYLE
  5
67
102
{ACAD_XDICTIONARY
360
240
102
}
102
{ACAD_REACTORS
330
66
102
}
330
66
100
AcDbMLeaderStyle
170
     2
171
     1
172
     0
 90
        2
 40
0.0
 41
0.0
173
     1
 91
-1056964608
340
5B
 92
       -2
290
     1
 42
0.09
291
     1
 43
0.36
  3
Standard
 44
0.18
300

342
55
174
     1
178
     6
175
     1
176
     0
 93
-1056964608
 45
0.18
292
     0
297
     0
 46
0.18
 94
-1056964608
 47
1.0
 49
1.0
140
1.0
293
     1
141
0.0
294
     1
177
     0
142
1.0
295
     0
296
     0
143
0.125
1001
ACAD_MLEADERVER
1070
     2
  0
MLINESTYLE
  5
60
102
{ACAD_REACTORS
330
5F
102
}
330
5F
100
AcDbMlineStyle
  2
STANDARD
 70
     0
  3

 62
   256
 51
90.0
 52
90.0
 71
     2
 49
0.5
 62
   256
  6
BYLAYER
 49
-0.5
 62
   256
  6
BYLAYER
  0
ACDBPLACEHOLDER
  5
F
102
{ACAD_REACTORS
330
E
102
}
330
E
  0
SCALE
  5
43
102
{ACAD_REACTORS
330
42
102
}
330
42
100
AcDbScale
 70
     0
300
1:1
140
1.0
141
1.0
290
     1
  0
SCALE
  5
44
102
{ACAD_REACTORS
330
42
102
}
330
42
100
AcDbScale
 70
     0
300
1/128" = 1'-0"
140
0.0078125
141
12.0
290
     0
  0
SCALE
  5
45
102
{ACAD_REACTORS
330
42
102
}
330
42
100
AcDbScale
 70
     0
300
1/64" = 1'-0"
140
0.015625
141
12.0
290
     0
  0
SCALE
  5
46
102
{ACAD_REACTORS
330
42
102
}
330
42
100
AcDbScale
 70
     0
300
1/32" = 1'-0"
140
0.03125
141
12.0
290
     0
  0
SCALE
  5
47
102
{ACAD_REACTORS
330
42
102
}
330
42
100
AcDbScale
 70
     0
300
1/16" = 1'-0"
140
0.0625
141
12.0
290
     0
  0
SCALE
  5
48
102
{ACAD_REACTORS
330
42
102
}
330
42
100
AcDbScale
 70
     0
300
3/32" = 1'-0"
140
0.09375
141
12.0
290
     0
  0
SCALE
  5
49
102
{ACAD_REACTORS
330
42
102
}
330
42
100
AcDbScale
 70
     0
300
1/8" = 1'-0"
140
0.125
141
12.0
290
     0
  0
SCALE
  5
4A
102
{ACAD_REACTORS
330
42
102
}
330
42
100
AcDbScale
 70
     0
300
3/16" = 1'-0"
140
0.1875
141
12.0
290
     0
  0
SCALE
  5
4B
102
{ACAD_REACTORS
330
42
102
}
330
42
100
AcDbScale
 70
     0
300
1/4" = 1'-0"
140
0.25
141
12.0
290
     0
  0
SCALE
  5
4C
102
{ACAD_REACTORS
330
42
102
}
330
42
100
AcDbScale
 70
     0
300
3/8" = 1'-0"
140
0.375
141
12.0
290
     0
  0
SCALE
  5
4D
102
{ACAD_REACTORS
330
42
102
}
330
42
100
AcDbScale
 70
     0
300
1/2" = 1'-0"
140
0.5
141
12.0
290
     0
  0
SCALE
  5
4E
102
{ACAD_REACTORS
330
42
102
}
330
42
100
AcDbScale
 70
     0
300
3/4" = 1'-0"
140
0.75
141
12.0
290
     0
  0
SCALE
  5
4F
102
{ACAD_REACTORS
330
42
102
}
330
42
100
AcDbScale
 70
     0
300
1" = 1'-0"
140
1.0
141
12.0
290
     0
  0
SCALE
  5
50
102
{ACAD_REACTORS
330
42
102
}
330
42
100
AcDbScale
 70
     0
300
1-1/2" = 1'-0"
140
1.5
141
12.0
290
     0
  0
SCALE
  5
51
102
{ACAD_REACTORS
330
42
102
}
330
42
100
AcDbScale
 70
     0
300
3" = 1'-0"
140
3.0
141
12.0
290
     0
  0
SCALE
  5
52
102
{ACAD_REACTORS
330
42
102
}
330
42
100
AcDbScale
 70
     0
300
6" = 1'-0"
140
6.0
141
12.0
290
     0
  0
SCALE
  5
53
102
{ACAD_REACTORS
330
42
102
}
330
42
100
AcDbScale
 70
     0
300
1'-0" = 1'-0"
140
12.0
141
12.0
290
     0
  0
ACDBSECTIONVIEWSTYLE
  5
69
102
{ACAD_XDICTIONARY
360
242
102
}
102
{ACAD_REACTORS
330
68
102
}
330
68
100
AcDbModelDocViewStyle
 70
     0
  3
Imperial24
290
     0
100
AcDbSectionViewStyle
 70
     0
 71
     0
 90
       78
 71
     1
340
55
 62
   256
 40
0.24
340
0
340
0
 62
   256
 40
0.24
300
I, O, Q, S, X, Z
 40
0.48
 90
        3
 40
0.18
 90
        1
 71
     2
340
5D
 90
       25
 62
   256
340
5D
 90
       50
 62
   256
 40
0.24
 40
0.0
 40
0.24
 71
     3
340
55
 62
   256
 40
0.24
 90
        1
 40
0.75
 90
        1
300
%<\AcVar ViewType \f "%tc1">% %<\AcVar ViewSectionStartId>%-%<\AcVar ViewSectionEndId>%\PSCALE %<\AcVar ViewScale \f "%sn">%
 71
     4
 62
   256
 62
   257
300
ANSI31
 40
1.0
 90
        0
290
     0
290
     0
 90
        6
 40
0.0
 40
1.570796326794896
 40
0.2617993877991494
 40
1.308996938995747
 40
-0.2617993877991494
 40
1.832595714594046
  0
TABLESTYLE
  5
65
102
{ACAD_XDICTIONARY
360
20A
102
}
102
{ACAD_REACTORS
330
64
102
}
330
64
100
AcDbTableStyle
  3
Standard
 70
     0
 71
     0
 40
0.06
 41
0.06
280
     0
281
     0
  7
Standard
140
0.18
170
     2
 62
     0
 63
     7
283
     0
 90
      512
 91
        0
  1

274
    -2
284
     1
 64
     0
275
    -2
285
     1
 65
     0
276
    -2
286
     1
 66
     0
277
    -2
287
     1
 67
     0
278
    -2
288
     1
 68
     0
279
    -2
289
     1
 69
     0
  7
Standard
140
0.25
170
     5
 62
     0
 63
     7
283
     0
 90
      512
 91
        0
  1

274
    -2
284
     1
 64
     0
275
    -2
285
     1
 65
     0
276
    -2
286
     1
 66
     0
277
    -2
287
     1
 67
     0
278
    -2
288
     1
 68
     0
279
    -2
289
     1
 69
     0
  7
Standard
140
0.18
170
     5
 62
     0
 63
     7
283
     0
 90
      512
 91
        0
  1

274
    -2
284
     1
 64
     0
275
    -2
285
     1
 65
     0
276
    -2
286
     1
 66
     0
277
    -2
287
     1
 67
     0
278
    -2
288
     1
 68
     0
279
    -2
289
     1
 69
     0
  0
VISUALSTYLE
  5
2F
102
{ACAD_XDICTIONARY
360
219
102
}
102
{ACAD_REACTORS
330
29
102
}
330
29
100
AcDbVisualStyle
  2
2dWireframe
 70
     4
 71
     0
 72
     2
 73
     0
 90
        0
 40
-0.6
 41
-30.0
 62
     5
 63
     7
421
 16777215
 74
     1
 91
        4
 64
     7
 65
   257
 75
     1
175
     1
 42
1.0
 92
        0
 66
   257
 43
1.0
 76
     1
 77
     6
 78
     2
 67
     7
 79
     5
170
     0
171
     0
290
     0
174
     0
 93
        1
 44
0.0
173
     0
291
     0
 45
0.0
1001
ACAD
1000
AcDbSavedByObjectVersion
1070
     0
  0
VISUALSTYLE
  5
2E
102
{ACAD_XDICTIONARY
360
217
102
}
102
{ACAD_REACTORS
330
29
102
}
330
29
100
AcDbVisualStyle
  2
Basic
 70
     7
 71
     1
 72
     0
 73
     1
 90
        0
 40
-0.6
 41
-30.0
 62
     5
 63
     7
421
 16777215
 74
     0
 91
        4
 64
     7
 65
   257
 75
     1
175
     1
 42
1.0
 92
        8
 66
     7
 43
1.0
 76
     1
 77
     6
 78
     2
 67
     7
 79
     5
170
     0
171
     0
290
     0
174
     0
 93
        1
 44
0.0
173
     0
291
     1
 45
0.0
1001
ACAD
1000
AcDbSavedByObjectVersion
1070
     0
  0
VISUALSTYLE
  5
35
102
{ACAD_XDICTIONARY
360
225
102
}
102
{ACAD_REACTORS
330
29
102
}
330
29
100
AcDbVisualStyle
  2
Brighten
 70
    12
 71
     2
 72
     2
 73
     0
 90
        0
 40
-0.6
 41
-30.0
 62
     5
 63
     7
421
 16777215
 74
     1
 91
        4
 64
     7
 65
   257
 75
     1
175
     1
 42
1.0
 92
        8
 66
     7
 43
1.0
 76
     1
 77
     6
 78
     2
 67
     7
 79
     5
170
     0
171
     0
290
     0
174
     0
 93
        1
 44
50.0
173
     0
291
     1
 45
0.0
1001
ACAD
1000
AcDbSavedByObjectVersion
1070
     0
  0
VISUALSTYLE
  5
39
102
{ACAD_XDICTIONARY
360
22D
102
}
102
{ACAD_REACTORS
330
29
102
}
330
29
100
AcDbVisualStyle
  2
ColorChange
 70
    16
 71
     2
 72
     2
 73
     3
 90
        0
 40
-0.6
 41
-30.0
 62
     5
 63
     8
421
  8421504
 74
     1
 91
        4
 64
     7
 65
   257
 75
     1
175
     1
 42
1.0
 92
        8
 66
     8
424
  8421504
 43
1.0
 76
     1
 77
     6
 78
     2
 67
     7
 79
     5
170
     0
171
     0
290
     0
174
     0
 93
        1
 44
0.0
173
     0
291
     1
 45
0.0
1001
ACAD
1000
AcDbSavedByObjectVersion
1070
     0
  0
VISUALSTYLE
  5
32
102
{ACAD_XDICTIONARY
360
21F
102
}
102
{ACAD_REACTORS
330
29
102
}
330
29
100
AcDbVisualStyle
  2
Conceptual
 70
     9
 71
     3
 72
     2
 73
     0
 90
        0
 40
-0.6
 41
-30.0
 62
     5
 63
     7
421
 16777215
 74
     2
 91
        2
 64
     7
 65
   257
 75
     1
175
     1
 42
179.0
 92
        8
 66
     7
 43
1.0
 76
     1
 77
     6
 78
     2
 67
     7
 79
     3
170
     0
171
     0
290
     0
174
     0
 93
        1
 44
0.0
173
     0
291
     0
 45
0.0
1001
ACAD
1000
AcDbSavedByObjectVersion
1070
     0
  0
VISUALSTYLE
  5
34
102
{ACAD_XDICTIONARY
360
223
102
}
102
{ACAD_REACTORS
330
29
102
}
330
29
100
AcDbVisualStyle
  2
Dim
 70
    11
 71
     2
 72
     2
 73
     0
 90
        0
 40
-0.6
 41
-30.0
 62
     5
 63
     7
421
 16777215
 74
     1
 91
        4
 64
     7
 65
   257
 75
     1
175
     1
 42
1.0
 92
        8
 66
     7
 43
1.0
 76
     1
 77
     6
 78
     2
 67
     7
 79
     5
170
     0
171
     0
290
     0
174
     0
 93
        1
 44
-50.0
173
     0
291
     1
 45
0.0
1001
ACAD
1000
AcDbSavedByObjectVersion
1070
     0
  0
VISUALSTYLE
  5
41
102
{ACAD_XDICTIONARY
360
23D
102
}
102
{ACAD_REACTORS
330
29
102
}
330
29
100
AcDbVisualStyle
  2
EdgeColorOff
 70
    22
 71
     2
 72
     2
 73
     0
 90
        0
 40
-0.6
 41
-30.0
 62
     5
 63
     7
421
 16777215
 74
     1
 91
        4
 64
     7
 65
   257
 75
     1
175
     1
 42
1.0
 92
        8
 66
     7
 43
1.0
 76
     1
 77
     6
 78
     2
 67
     7
 79
     5
170
     0
171
     0
290
     0
174
     0
 93
        1
 44
0.0
173
     0
291
     1
 45
0.0
1001
ACAD
1000
AcDbSavedByObjectVersion
1070
     0
  0
VISUALSTYLE
  5
38
102
{ACAD_XDICTIONARY
360
22B
102
}
102
{ACAD_REACTORS
330
29
102
}
330
29
100
AcDbVisualStyle
  2
Facepattern
 70
    15
 71
     2
 72
     2
 73
     0
 90
        0
 40
-0.6
 41
-30.0
 62
     5
 63
     7
421
 16777215
 74
     1
 91
        4
 64
     7
 65
   257
 75
     1
175
     1
 42
1.0
 92
        8
 66
     7
 43
1.0
 76
     1
 77
     6
 78
     2
 67
     7
 79
     5
170
     0
171
     0
290
     0
174
     0
 93
        1
 44
0.0
173
     0
291
     1
 45
0.0
1001
ACAD
1000
AcDbSavedByObjectVersion
1070
     0
  0
VISUALSTYLE
  5
2A
102
{ACAD_XDICTIONARY
360
20F
102
}
102
{ACAD_REACTORS
330
29
102
}
330
29
100
AcDbVisualStyle
  2
Flat
 70
     0
 71
     2
 72
     1
 73
     1
 90
        2
 40
-0.6
 41
30.0
 62
     5
 63
     7
421
 16777215
 74
     0
 91
        0
 64
     7
 65
   257
 75
     1
175
     1
 42
1.0
 92
        8
 66
     7
 43
1.0
 76
     1
 77
     6
 78
     2
 67
     7
 79
     5
170
     0
171
     0
290
     0
174
     0
 93
       13
 44
0.0
173
     0
291
     1
 45
0.0
1001
ACAD
1000
AcDbSavedByObjectVersion
1070
     0
  0
VISUALSTYLE
  5
2B
102
{ACAD_XDICTIONARY
360
211
102
}
102
{ACAD_REACTORS
330
29
102
}
330
29
100
AcDbVisualStyle
  2
FlatWithEdges
 70
     1
 71
     2
 72
     1
 73
     1
 90
        2
 40
-0.6
 41
30.0
 62
     5
 63
     7
421
 16777215
 74
     1
 91
        0
 64
     7
 65
   257
 75
     1
175
     1
 42
1.0
 92
        0
 66
   257
 43
1.0
 76
     1
 77
     6
 78
     2
 67
     7
 79
     5
170
     0
171
     0
290
     0
174
     0
 93
       13
 44
0.0
173
     0
291
     1
 45
0.0
1001
ACAD
1000
AcDbSavedByObjectVersion
1070
     0
  0
VISUALSTYLE
  5
2C
102
{ACAD_XDICTIONARY
360
213
102
}
102
{ACAD_REACTORS
330
29
102
}
330
29
100
AcDbVisualStyle
  2
Gouraud
 70
     2
 71
     2
 72
     2
 73
     1
 90
        2
 40
-0.6
 41
30.0
 62
     5
 63
     7
421
 16777215
 74
     0
 91
        0
 64
     7
 65
   257
 75
     1
175
     1
 42
1.0
 92
        0
 66
     7
 43
1.0
 76
     1
 77
     6
 78
     2
 67
     7
 79
     5
170
     0
171
     0
290
     0
174
     0
 93
       13
 44
0.0
173
     0
291
     1
 45
0.0
1001
ACAD
1000
AcDbSavedByObjectVersion
1070
     0
  0
VISUALSTYLE
  5
2D
102
{ACAD_XDICTIONARY
360
215
102
}
102
{ACAD_REACTORS
330
29
102
}
330
29
100
AcDbVisualStyle
  2
GouraudWithEdges
 70
     3
 71
     2
 72
     2
 73
     1
 90
        2
 40
-0.6
 41
30.0
 62
     5
 63
     7
421
 16777215
 74
     1
 91
        0
 64
     7
 65
   257
 75
     1
175
     1
 42
1.0
 92
        0
 66
   257
 43
1.0
 76
     1
 77
     6
 78
     2
 67
     7
 79
     5
170
     0
171
     0
290
     0
174
     0
 93
       13
 44
0.0
173
     0
291
     1
 45
0.0
1001
ACAD
1000
AcDbSavedByObjectVersion
1070
     0
  0
VISUALSTYLE
  5
31
102
{ACAD_XDICTIONARY
360
21D
102
}
102
{ACAD_REACTORS
330
29
102
}
330
29
100
AcDbVisualStyle
  2
Hidden
 70
     6
 71
     1
 72
     2
 73
     2
 90
        0
 40
-0.6
 41
-30.0
 62
     5
 63
     7
421
 16777215
 74
     2
 91
        2
 64
     7
 65
   257
 75
     2
175
     1
 42
40.0
 92
        0
 66
   257
 43
1.0
 76
     1
 77
     6
 78
     2
 67
     7
 79
     3
170
     0
171
     0
290
     0
174
     0
 93
        1
 44
0.0
173
     0
291
     0
 45
0.0
1001
ACAD
1000
AcDbSavedByObjectVersion
1070
     0
  0
VISUALSTYLE
  5
3F
102
{ACAD_XDICTIONARY
360
239
102
}
102
{ACAD_REACTORS
330
29
102
}
330
29
100
AcDbVisualStyle
  2
JitterOff
 70
    20
 71
     2
 72
     2
 73
     0
 90
        0
 40
-0.6
 41
-30.0
 62
     5
 63
     7
421
 16777215
 74
     1
 91
        4
 64
     7
 65
   257
 75
     1
175
     1
 42
1.0
 92
       10
 66
     7
 43
1.0
 76
     1
 77
     6
 78
     2
 67
     7
 79
     5
170
     0
171
     0
290
     0
174
     0
 93
        1
 44
0.0
173
     0
291
     1
 45
0.0
1001
ACAD
1000
AcDbSavedByObjectVersion
1070
     0
  0
VISUALSTYLE
  5
37
102
{ACAD_XDICTIONARY
360
229
102
}
102
{ACAD_REACTORS
330
29
102
}
330
29
100
AcDbVisualStyle
  2
Linepattern
 70
    14
 71
     2
 72
     2
 73
     0
 90
        0
 40
-0.6
 41
-30.0
 62
     5
 63
     7
421
 16777215
 74
     1
 91
        4
 64
     7
 65
   257
 75
     7
175
     7
 42
1.0
 92
        8
 66
     7
 43
1.0
 76
     1
 77
     6
 78
     2
 67
     7
 79
     5
170
     0
171
     0
290
     0
174
     0
 93
        1
 44
0.0
173
     0
291
     1
 45
0.0
1001
ACAD
1000
AcDbSavedByObjectVersion
1070
     0
  0
VISUALSTYLE
  5
40
102
{ACAD_XDICTIONARY
360
23B
102
}
102
{ACAD_REACTORS
330
29
102
}
330
29
100
AcDbVisualStyle
  2
OverhangOff
 70
    21
 71
     2
 72
     2
 73
     0
 90
        0
 40
-0.6
 41
-30.0
 62
     5
 63
     7
421
 16777215
 74
     1
 91
        4
 64
     7
 65
   257
 75
     1
175
     1
 42
1.0
 92
        9
 66
     7
 43
1.0
 76
     1
 77
     6
 78
     2
 67
     7
 79
     5
170
     0
171
     0
290
     0
174
     0
 93
        1
 44
0.0
173
     0
291
     1
 45
0.0
1001
ACAD
1000
AcDbSavedByObjectVersion
1070
     0
  0
VISUALSTYLE
  5
33
102
{ACAD_XDICTIONARY
360
221
102
}
102
{ACAD_REACTORS
330
29
102
}
330
29
100
AcDbVisualStyle
  2
Realistic
 70
     8
 71
     2
 72
     3
 73
     0
 90
        2
 40
-0.6
 41
30.0
 62
     5
 63
     7
421
 16777215
 74
     0
 91
        0
 64
     7
 65
   257
 75
     1
175
     1
 42
1.0
 92
        8
 66
   257
 43
1.0
 76
     1
 77
     6
 78
     2
 67
     7
 79
     3
170
     0
171
     0
290
     0
174
     0
 93
       13
 44
0.0
173
     0
291
     0
 45
0.0
1001
ACAD
1000
AcDbSavedByObjectVersion
1070
     0
  0
VISUALSTYLE
  5
3E
102
{ACAD_XDICTIONARY
360
237
102
}
102
{ACAD_REACTORS
330
29
102
}
330
29
100
AcDbVisualStyle
  2
Shaded
 70
    27
 71
     2
 72
     2
 73
     1
 90
        2
 40
-0.6
 41
30.0
 62
     5
 63
     7
421
 16777215
 74
     0
 91
        4
 64
     7
 65
   257
 75
     1
175
     1
 42
1.0
 92
        8
 66
   257
 43
1.0
 76
     1
 77
     6
 78
     2
 67
     8
425
  7895160
 79
     3
170
     0
171
     0
290
     0
174
     0
 93
        5
 44
0.0
173
     0
291
     0
 45
0.0
1001
ACAD
1000
AcDbSavedByObjectVersion
1070
     0
  0
VISUALSTYLE
  5
3D
102
{ACAD_XDICTIONARY
360
235
102
}
102
{ACAD_REACTORS
330
29
102
}
330
29
100
AcDbVisualStyle
  2
Shaded with edges
 70
    26
 71
     2
 72
     2
 73
     1
 90
        2
 40
-0.6
 41
30.0
 62
     5
 63
     7
421
 16777215
 74
     1
 91
        2
 64
     7
 65
   257
 75
     2
175
     1
 42
1.0
 92
        8
 66
   257
 43
1.0
 76
     1
 77
     6
 78
     2
 67
     7
 79
     3
170
     0
171
     0
290
     0
174
     0
 93
        5
 44
0.0
173
     0
291
     0
 45
0.0
1001
ACAD
1000
AcDbSavedByObjectVersion
1070
     0
  0
VISUALSTYLE
  5
3A
102
{ACAD_XDICTIONARY
360
22F
102
}
102
{ACAD_REACTORS
330
29
102
}
330
29
100
AcDbVisualStyle
  2
Shades of Gray
 70
    23
 71
     2
 72
     2
 73
     3
 90
        0
 40
-0.6
 41
-30.0
 62
     5
 63
     7
421
 16777215
 74
     2
 91
        2
 64
     7
 65
     7
 75
     1
175
     1
 42
40.0
 92
        8
 66
     7
 43
1.0
 76
     1
 77
     6
 78
     2
 67
     7
 79
     3
170
     0
171
     0
290
     0
174
     0
 93
        1
 44
0.0
173
     0
291
     0
 45
0.0
1001
ACAD
1000
AcDbSavedByObjectVersion
1070
     0
  0
VISUALSTYLE
  5
3B
102
{ACAD_XDICTIONARY
360
231
102
}
102
{ACAD_REACTORS
330
29
102
}
330
29
100
AcDbVisualStyle
  2
Sketchy
 70
    24
 71
     1
 72
     2
 73
     2
 90
        0
 40
-0.6
 41
-30.0
 62
     5
 63
     7
421
 16777215
 74
     2
 91
        2
 64
     7
 65
     7
 75
     1
175
     1
 42
40.0
 92
       11
 66
     7
 43
1.0
 76
     1
 77
     6
 78
     2
 67
     7
 79
     6
170
     0
171
     0
290
     0
174
     0
 93
        1
 44
0.0
173
     0
291
     0
 45
0.0
1001
ACAD
1000
AcDbSavedByObjectVersion
1070
     0
  0
VISUALSTYLE
  5
36
102
{ACAD_XDICTIONARY
360
227
102
}
102
{ACAD_REACTORS
330
29
102
}
330
29
100
AcDbVisualStyle
  2
Thicken
 70
    13
 71
     2
 72
     2
 73
     0
 90
        0
 40
-0.6
 41
-30.0
 62
     5
 63
     7
421
 16777215
 74
     1
 91
        4
 64
     7
 65
   257
 75
     1
175
     1
 42
1.0
 92
       12
 66
     7
 43
1.0
 76
     1
 77
     6
 78
     2
 67
     7
 79
     5
170
     0
171
     0
290
     0
174
     0
 93
        1
 44
0.0
173
     0
291
     1
 45
0.0
1001
ACAD
1000
AcDbSavedByObjectVersion
1070
     0
  0
VISUALSTYLE
  5
30
102
{ACAD_XDICTIONARY
360
21B
102
}
102
{ACAD_REACTORS
330
29
102
}
330
29
100
AcDbVisualStyle
  2
Wireframe
 70
     5
 71
     0
 72
     2
 73
     0
 90
        0
 40
-0.6
 41
-30.0
 62
     5
 63
     7
421
 16777215
 74
     1
 91
        4
 64
     7
 65
   257
 75
     1
175
     1
 42
1.0
 92
        0
 66
   257
 43
1.0
 76
     1
 77
     6
 78
     2
 67
     7
 79
     3
170
     0
171
     0
290
     0
174
     0
 93
        1
 44
0.0
173
     0
291
     0
 45
0.0
1001
ACAD
1000
AcDbSavedByObjectVersion
1070
     0
  0
VISUALSTYLE
  5
3C
102
{ACAD_XDICTIONARY
360
233
102
}
102
{ACAD_REACTORS
330
29
102
}
330
29
100
AcDbVisualStyle
  2
X-Ray
 70
    25
 71
     2
 72
     2
 73
     1
 90
        1
 40
0.5
 41
-30.0
 62
     5
 63
     7
421
 16777215
 74
     1
 91
        0
 64
     7
 65
   257
 75
     1
175
     1
 42
1.0
 92
        8
 66
     7
 43
1.0
 76
     1
 77
     6
 78
     2
 67
     7
 79
     3
170
     0
171
     0
290
     0
174
     0
 93
       13
 44
0.0
173
     0
291
     0
 45
0.0
1001
ACAD
1000
AcDbSavedByObjectVersion
1070
     0
  0
DICTIONARYVAR
  5
208
102
{ACAD_REACTORS
330
203
102
}
330
203
100
DictionaryVariables
280
     0
  1
1:1
  0
DICTIONARYVAR
  5
205
102
{ACAD_REACTORS
330
203
102
}
330
203
100
DictionaryVariables
280
     0
  1
STANDARD
  0
DICTIONARYVAR
  5
204
102
{ACAD_REACTORS
330
203
102
}
330
203
100
DictionaryVariables
280
     0
  1
STANDARD
  0
DICTIONARYVAR
  5
206
102
{ACAD_REACTORS
330
203
102
}
330
203
100
DictionaryVariables
280
     0
  1
Imperial24
  0
DICTIONARYVAR
  5
207
102
{ACAD_REACTORS
330
203
102
}
330
203
100
DictionaryVariables
280
     0
  1
Imperial24
  0
DICTIONARYVAR
  5
209
102
{ACAD_REACTORS
330
203
102
}
330
203
100
DictionaryVariables
280
     0
  1
2
  0
DICTIONARY
  5
244
330
6B
100
AcDbDictionary
280
     1
281
     1
  3
ACAD_XREC_ROUNDTRIP
360
245
  0
DICTIONARY
  5
1A
330
19
100
AcDbDictionary
280
     1
281
     1
  3
BUMPTILE
360
1C
  3
DIFFUSETILE
360
1B
  3
OPACITYTILE
360
1F
  3
REFLECTIONTILE
360
1E
  3
REFRACTIONTILE
360
20
  3
SPECULARTILE
360
1D
  0
DICTIONARY
  5
12
330
11
100
AcDbDictionary
280
     1
281
     1
  3
BUMPTILE
360
14
  3
DIFFUSETILE
360
13
  3
OPACITYTILE
360
17
  3
REFLECTIONTILE
360
16
  3
REFRACTIONTILE
360
18
  3
SPECULARTILE
360
15
  0
DICTIONARY
  5
22
330
21
100
AcDbDictionary
280
     1
281
     1
  3
BUMPTILE
360
24
  3
DIFFUSETILE
360
23
  3
OPACITYTILE
360
27
  3
REFLECTIONTILE
360
26
  3
REFRACTIONTILE
360
28
  3
SPECULARTILE
360
25
  0
DICTIONARY
  5
240
330
67
100
AcDbDictionary
280
     1
281
     1
  3
ACAD_XREC_ROUNDTRIP
360
241
  0
DICTIONARY
  5
242
330
69
100
AcDbDictionary
280
     1
281
     1
  3
ACAD_XREC_ROUNDTRIP
360
243
  0
DICTIONARY
  5
20A
330
65
100
AcDbDictionary
280
     1
281
     1
  3
ACAD_ROUNDTRIP_2008_TABLESTYLE_CELLSTYLEMAP
360
20B
  0
DICTIONARY
  5
219
330
2F
100
AcDbDictionary
280
     1
281
     1
  3
ACAD_XREC_ROUNDTRIP
360
21A
  0
DICTIONARY
  5
217
330
2E
100
AcDbDictionary
280
     1
281
     1
  3
ACAD_XREC_ROUNDTRIP
360
218
  0
DICTIONARY
  5
225
330
35
100
AcDbDictionary
280
     1
281
     1
  3
ACAD_XREC_ROUNDTRIP
360
226
  0
DICTIONARY
  5
22D
330
39
100
AcDbDictionary
280
     1
281
     1
  3
ACAD_XREC_ROUNDTRIP
360
22E
  0
DICTIONARY
  5
21F
330
32
100
AcDbDictionary
280
     1
281
     1
  3
ACAD_XREC_ROUNDTRIP
360
220
  0
DICTIONARY
  5
223
330
34
100
AcDbDictionary
280
     1
281
     1
  3
ACAD_XREC_ROUNDTRIP
360
224
  0
DICTIONARY
  5
23D
330
41
100
AcDbDictionary
280
     1
281
     1
  3
ACAD_XREC_ROUNDTRIP
360
23E
  0
DICTIONARY
  5
22B
330
38
100
AcDbDictionary
280
     1
281
     1
  3
ACAD_XREC_ROUNDTRIP
360
22C
  0
DICTIONARY
  5
20F
330
2A
100
AcDbDictionary
280
     1
281
     1
  3
ACAD_XREC_ROUNDTRIP
360
210
  0
DICTIONARY
  5
211
330
2B
100
AcDbDictionary
280
     1
281
     1
  3
ACAD_XREC_ROUNDTRIP
360
212
  0
DICTIONARY
  5
213
330
2C
100
AcDbDictionary
280
     1
281
     1
  3
ACAD_XREC_ROUNDTRIP
360
214
  0
DICTIONARY
  5
215
330
2D
100
AcDbDictionary
280
     1
281
     1
  3
ACAD_XREC_ROUNDTRIP
360
216
  0
DICTIONARY
  5
21D
330
31
100
AcDbDictionary
280
     1
281
     1
  3
ACAD_XREC_ROUNDTRIP
360
21E
  0
DICTIONARY
  5
239
330
3F
100
AcDbDictionary
280
     1
281
     1
  3
ACAD_XREC_ROUNDTRIP
360
23A
  0
DICTIONARY
  5
229
330
37
100
AcDbDictionary
280
     1
281
     1
  3
ACAD_XREC_ROUNDTRIP
360
22A
  0
DICTIONARY
  5
23B
330
40
100
AcDbDictionary
280
     1
281
     1
  3
ACAD_XREC_ROUNDTRIP
360
23C
  0
DICTIONARY
  5
221
330
33
100
AcDbDictionary
280
     1
281
     1
  3
ACAD_XREC_ROUNDTRIP
360
222
  0
DICTIONARY
  5
237
330
3E
100
AcDbDictionary
280
     1
281
     1
  3
ACAD_XREC_ROUNDTRIP
360
238
  0
DICTIONARY
  5
235
330
3D
100
AcDbDictionary
280
     1
281
     1
  3
ACAD_XREC_ROUNDTRIP
360
236
  0
DICTIONARY
  5
22F
330
3A
100
AcDbDictionary
280
     1
281
     1
  3
ACAD_XREC_ROUNDTRIP
360
230
  0
DICTIONARY
  5
231
330
3B
100
AcDbDictionary
280
     1
281
     1
  3
ACAD_XREC_ROUNDTRIP
360
232
  0
DICTIONARY
  5
227
330
36
100
AcDbDictionary
280
     1
281
     1
  3
ACAD_XREC_ROUNDTRIP
360
228
  0
DICTIONARY
  5
21B
330
30
100
AcDbDictionary
280
     1
281
     1
  3
ACAD_XREC_ROUNDTRIP
360
21C
  0
DICTIONARY
  5
233
330
3C
100
AcDbDictionary
280
     1
281
     1
  3
ACAD_XREC_ROUNDTRIP
360
234
  0
XRECORD
  5
245
102
{ACAD_REACTORS
330
244
102
}
330
244
100
AcDbXrecord
280
     1
102
DISPLAYNAME
  1
Imperial24
102
FLAGS
 90
        0
  0
XRECORD
  5
1C
102
{ACAD_REACTORS
330
1A
102
}
330
1A
100
AcDbXrecord
280
     1
270
     1
271
     1
  0
XRECORD
  5
1B
102
{ACAD_REACTORS
330
1A
102
}
330
1A
100
AcDbXrecord
280
     1
270
     1
271
     1
  0
XRECORD
  5
1F
102
{ACAD_REACTORS
330
1A
102
}
330
1A
100
AcDbXrecord
280
     1
270
     1
271
     1
  0
XRECORD
  5
1E
102
{ACAD_REACTORS
330
1A
102
}
330
1A
100
AcDbXrecord
280
     1
270
     1
271
     1
  0
XRECORD
  5
20
102
{ACAD_REACTORS
330
1A
102
}
330
1A
100
AcDbXrecord
280
     1
270
     1
271
     1
  0
XRECORD
  5
1D
102
{ACAD_REACTORS
330
1A
102
}
330
1A
100
AcDbXrecord
280
     1
270
     1
271
     1
  0
XRECORD
  5
14
102
{ACAD_REACTORS
330
12
102
}
330
12
100
AcDbXrecord
280
     1
270
     1
271
     1
  0
XRECORD
  5
13
102
{ACAD_REACTORS
330
12
102
}
330
12
100
AcDbXrecord
280
     1
270
     1
271
     1
  0
XRECORD
  5
17
102
{ACAD_REACTORS
330
12
102
}
330
12
100
AcDbXrecord
280
     1
270
     1
271
     1
  0
XRECORD
  5
16
102
{ACAD_REACTORS
330
12
102
}
330
12
100
AcDbXrecord
280
     1
270
     1
271
     1
  0
XRECORD
  5
18
102
{ACAD_REACTORS
330
12
102
}
330
12
100
AcDbXrecord
280
     1
270
     1
271
     1
  0
XRECORD
  5
15
102
{ACAD_REACTORS
330
12
102
}
330
12
100
AcDbXrecord
280
     1
270
     1
271
     1
  0
XRECORD
  5
24
102
{ACAD_REACTORS
330
22
102
}
330
22
100
AcDbXrecord
280
     1
270
     1
271
     1
  0
XRECORD
  5
23
102
{ACAD_REACTORS
330
22
102
}
330
22
100
AcDbXrecord
280
     1
270
     1
271
     1
  0
XRECORD
  5
27
102
{ACAD_REACTORS
330
22
102
}
330
22
100
AcDbXrecord
280
     1
270
     1
271
     1
  0
XRECORD
  5
26
102
{ACAD_REACTORS
330
22
102
}
330
22
100
AcDbXrecord
280
     1
270
     1
271
     1
  0
XRECORD
  5
28
102
{ACAD_REACTORS
330
22
102
}
330
22
100
AcDbXrecord
280
     1
270
     1
271
     1
  0
XRECORD
  5
25
102
{ACAD_REACTORS
330
22
102
}
330
22
100
AcDbXrecord
280
     1
270
     1
271
     1
  0
XRECORD
  5
241
102
{ACAD_REACTORS
330
240
102
}
330
240
100
AcDbXrecord
280
     1
102
ACAD_ROUNDTRIP_2012_MLEADER_STYLE
298
     1
  0
XRECORD
  5
243
102
{ACAD_REACTORS
330
242
102
}
330
242
100
AcDbXrecord
280
     1
102
DISPLAYNAME
  1
Imperial24
102
FLAGS
 90
        0
  0
CELLSTYLEMAP
  5
20B
102
{ACAD_REACTORS
330
20A
102
}
330
20A
100
AcDbCellStyleMap
 90
        3
300
CELLSTYLE
  1
TABLEFORMAT_BEGIN
 90
        5
170
     1
 91
        0
 92
    32768
 62
   257
 93
        1
300
CONTENTFORMAT
  1
CONTENTFORMAT_BEGIN
 90
        0
 91
        0
 92
      512
 93
        0
300

 40
0.0
140
1.0
 94
        5
 62
     0
340
55
144
0.25
309
CONTENTFORMAT_END
171
     0
 94
        0
309
TABLEFORMAT_END
  1
CELLSTYLE_BEGIN
 90
        1
 91
        1
300
_TITLE
309
CELLSTYLE_END
300
CELLSTYLE
  1
TABLEFORMAT_BEGIN
 90
        5
170
     1
 91
        0
 92
        0
 62
   257
 93
        1
300
CONTENTFORMAT
  1
CONTENTFORMAT_BEGIN
 90
        0
 91
        0
 92
      512
 93
        0
300

 40
0.0
140
1.0
 94
        5
 62
     0
340
55
144
0.18
309
CONTENTFORMAT_END
171
     0
 94
        0
309
TABLEFORMAT_END
  1
CELLSTYLE_BEGIN
 90
        2
 91
        1
300
_HEADER
309
CELLSTYLE_END
300
CELLSTYLE
  1
TABLEFORMAT_BEGIN
 90
        5
170
     1
 91
        0
 92
        0
 62
   257
 93
        1
300
CONTENTFORMAT
  1
CONTENTFORMAT_BEGIN
 90
        0
 91
        0
 92
      512
 93
        0
300

 40
0.0
140
1.0
 94
        2
 62
     0
340
55
144
0.18
309
CONTENTFORMAT_END
171
     0
 94
        0
309
TABLEFORMAT_END
  1
CELLSTYLE_BEGIN
 90
        3
 91
        2
300
_DATA
309
CELLSTYLE_END
  0
XRECORD
  5
21A
102
{ACAD_REACTORS
330
219
102
}
330
219
100
AcDbXrecord
280
     1
102
RTVSPost2010Prop28
280
     1
102
RTVSPost2010PropOp28
 70
     1
102
RTVSPost2010Prop29
280
     1
102
RTVSPost2010PropOp29
 70
     1
102
RTVSPost2010Prop30
280
     0
102
RTVSPost2010PropOp30
 70
     1
102
RTVSPost2010Prop31
280
     0
102
RTVSPost2010PropOp31
 70
     1
102
RTVSPost2010Prop32
280
     0
102
RTVSPost2010PropOp32
 70
     1
102
RTVSPost2010Prop33
280
     0
102
RTVSPost2010PropOp33
 70
     1
102
RTVSPost2010Prop34
280
     0
102
RTVSPost2010PropOp34
 70
     1
102
RTVSPost2010Prop35
280
     0
102
RTVSPost2010PropOp35
 70
     1
102
RTVSPost2010Prop36
280
     0
102
RTVSPost2010PropOp36
 70
     1
102
RTVSPost2010Prop37
 90
       50
102
RTVSPost2010PropOp37
 70
     1
102
RTVSPost2010Prop38
140
0.0
102
RTVSPost2010PropOp38
 70
     1
102
RTVSPost2010Prop39
140
1.0
102
RTVSPost2010PropOp39
 70
     1
102
RTVSPost2010Prop40
 90
        0
102
RTVSPost2010PropOp40
 70
     1
102
RTVSPost2010Prop41ColorIndex
 90
       18
102
RTVSPost2010Prop41ColorRGB
 90
        0
102
RTVSPost2010PropOp41
 70
     1
102
RTVSPost2010Prop42
 90
       50
102
RTVSPost2010PropOp42
 70
     1
102
RTVSPost2010Prop43
 90
        3
102
RTVSPost2010PropOp43
 70
     1
102
RTVSPost2010Prop44ColorIndex
 90
        5
102
RTVSPost2010Prop44ColorRGB
 90
      255
102
RTVSPost2010PropOp44
 70
     1
102
RTVSPost2010Prop45
280
     0
102
RTVSPost2010PropOp45
 70
     1
102
RTVSPost2010Prop46
 90
       50
102
RTVSPost2010PropOp46
 70
     1
102
RTVSPost2010Prop47
 90
       50
102
RTVSPost2010PropOp47
 70
     1
102
RTVSPost2010Prop48
 90
       50
102
RTVSPost2010PropOp48
 70
     1
102
RTVSPost2010Prop49
280
     0
102
RTVSPost2010PropOp49
 70
     1
102
RTVSPost2010Prop50
 90
       50
102
RTVSPost2010PropOp50
 70
     1
102
RTVSPost2010Prop51ColorIndex
 90
      256
102
RTVSPost2010Prop51ColorRGB
 90
-16777216
102
RTVSPost2010PropOp51
 70
     0
102
RTVSPost2010Prop52
140
1.0
102
RTVSPost2010PropOp52
 70
     0
102
RTVSPost2010Prop53
 90
        2
102
RTVSPost2010PropOp53
 70
     1
102
RTVSPost2010Prop54
  1
strokes_ogs.tif
102
RTVSPost2010PropOp54
 70
     1
102
RTVSPost2010Prop55
280
     0
102
RTVSPost2010PropOp55
 70
     1
102
RTVSPost2010Prop56
140
1.0
102
RTVSPost2010PropOp56
 70
     1
102
RTVSPost2010Prop57
140
1.0
102
RTVSPost2010PropOp57
 70
     1
102
RTVSPropertyOp0
 70
     1
102
RTVSPropertyOp1
 70
     1
102
RTVSPropertyOp2
 70
     1
102
RTVSPropertyOp3
 70
     1
102
RTVSPropertyOp4
 70
     1
102
RTVSPropertyOp5
 70
     1
102
RTVSPropertyOp6
 70
     1
102
RTVSPropertyOp7
 70
     1
102
RTVSPropertyOp8
 70
     1
102
RTVSPropertyOp9
 70
     1
102
RTVSPropertyOp10
 70
     1
102
RTVSPropertyOp11
 70
     1
102
RTVSPropertyOp12
 70
     1
102
RTVSPropertyOp13
 70
     1
102
RTVSPropertyOp14
 70
     1
102
RTVSPropertyOp15
 70
     1
102
RTVSPropertyOp16
 70
     1
102
RTVSPropertyOp17
 70
     1
102
RTVSPropertyOp18
 70
     1
102
RTVSPropertyOp19
 70
     1
102
RTVSPropertyOp20
 70
     1
102
RTVSPropertyOp21
 70
     1
102
RTVSPropertyOp22
 70
     1
102
RTVSPropertyOp23
 70
     1
102
RTVSPropertyOp24
 70
     1
102
RTVSPropertyOp25
 70
     1
102
RTVSPropertyOp26
 70
     1
102
RTVSPropertyOp27
 70
     1
102
RTVSPropertyOp28
 70
     1
102
RTVSPropertyOp29
 70
     1
102
RTVSPropertyOp30
 70
     1
102
RTVSPropertyOp31
 70
     1
102
RTVSPropertyOp32
 70
     1
102
RTVSPropertyOp33
 70
     1
102
RTVSPropertyOp34
 70
     1
102
RTVSPropertyOp35
 70
     1
102
RTVSPropertyOp36
 70
     1
102
RTVSPropertyOp37
 70
     1
102
RTVSPropertyOp38
 70
     1
102
RTVSPropertyOp39
 70
     1
102
RTVSPropertyOp40
 70
     1
102
RTVSPropertyOp41
 70
     1
102
RTVSPropertyOp42
 70
     1
102
RTVSPropertyOp43
 70
     1
102
RTVSPropertyOp44
 70
     1
102
RTVSPropertyOp45
 70
     1
102
RTVSPropertyOp46
 70
     1
102
RTVSPropertyOp47
 70
     1
102
RTVSPropertyOp48
 70
     1
102
RTVSPropertyOp49
 70
     1
102
RTVSPropertyOp50
 70
     1
102
RTVSPropertyOp51
 70
     0
102
RTVSPropertyOp52
 70
     0
102
RTVSPropertyOp53
 70
     1
102
RTVSPropertyOp54
 70
     1
102
RTVSPropertyOp55
 70
     1
102
RTVSPropertyOp56
 70
     1
102
RTVSPropertyOp57
 70
     1
102
RTVSPropertyOp58
 70
     1
102
RTVSPropertyOp59
 70
     1
102
RTVSPropertyOp60
 70
     1
102
RTVSPropertyOp61
 70
     1
102
RTVSPropertyOp62
 70
     1
  0
XRECORD
  5
218
102
{ACAD_REACTORS
330
217
102
}
330
217
100
AcDbXrecord
280
     1
102
RTVSPost2010Prop28
280
     0
102
RTVSPost2010PropOp28
 70
     1
102
RTVSPost2010Prop29
280
     1
102
RTVSPost2010PropOp29
 70
     1
102
RTVSPost2010Prop30
280
     1
102
RTVSPost2010PropOp30
 70
     1
102
RTVSPost2010Prop31
280
     0
102
RTVSPost2010PropOp31
 70
     1
102
RTVSPost2010Prop32
280
     0
102
RTVSPost2010PropOp32
 70
     1
102
RTVSPost2010Prop33
280
     0
102
RTVSPost2010PropOp33
 70
     1
102
RTVSPost2010Prop34
280
     0
102
RTVSPost2010PropOp34
 70
     1
102
RTVSPost2010Prop35
280
     0
102
RTVSPost2010PropOp35
 70
     1
102
RTVSPost2010Prop36
280
     0
102
RTVSPost2010PropOp36
 70
     1
102
RTVSPost2010Prop37
 90
       50
102
RTVSPost2010PropOp37
 70
     1
102
RTVSPost2010Prop38
140
0.0
102
RTVSPost2010PropOp38
 70
     1
102
RTVSPost2010Prop39
140
1.0
102
RTVSPost2010PropOp39
 70
     1
102
RTVSPost2010Prop40
 90
        0
102
RTVSPost2010PropOp40
 70
     1
102
RTVSPost2010Prop41ColorIndex
 90
       18
102
RTVSPost2010Prop41ColorRGB
 90
        0
102
RTVSPost2010PropOp41
 70
     1
102
RTVSPost2010Prop42
 90
       50
102
RTVSPost2010PropOp42
 70
     1
102
RTVSPost2010Prop43
 90
        3
102
RTVSPost2010PropOp43
 70
     1
102
RTVSPost2010Prop44ColorIndex
 90
        5
102
RTVSPost2010Prop44ColorRGB
 90
      255
102
RTVSPost2010PropOp44
 70
     1
102
RTVSPost2010Prop45
280
     0
102
RTVSPost2010PropOp45
 70
     1
102
RTVSPost2010Prop46
 90
       50
102
RTVSPost2010PropOp46
 70
     1
102
RTVSPost2010Prop47
 90
       50
102
RTVSPost2010PropOp47
 70
     1
102
RTVSPost2010Prop48
 90
       50
102
RTVSPost2010PropOp48
 70
     1
102
RTVSPost2010Prop49
280
     0
102
RTVSPost2010PropOp49
 70
     1
102
RTVSPost2010Prop50
 90
       50
102
RTVSPost2010PropOp50
 70
     1
102
RTVSPost2010Prop51ColorIndex
 90
      256
102
RTVSPost2010Prop51ColorRGB
 90
-16777216
102
RTVSPost2010PropOp51
 70
     0
102
RTVSPost2010Prop52
140
1.0
102
RTVSPost2010PropOp52
 70
     0
102
RTVSPost2010Prop53
 90
        2
102
RTVSPost2010PropOp53
 70
     1
102
RTVSPost2010Prop54
  1
strokes_ogs.tif
102
RTVSPost2010PropOp54
 70
     1
102
RTVSPost2010Prop55
280
     0
102
RTVSPost2010PropOp55
 70
     1
102
RTVSPost2010Prop56
140
1.0
102
RTVSPost2010PropOp56
 70
     1
102
RTVSPost2010Prop57
140
1.0
102
RTVSPost2010PropOp57
 70
     1
102
RTVSPropertyOp0
 70
     1
102
RTVSPropertyOp1
 70
     1
102
RTVSPropertyOp2
 70
     1
102
RTVSPropertyOp3
 70
     1
102
RTVSPropertyOp4
 70
     1
102
RTVSPropertyOp5
 70
     1
102
RTVSPropertyOp6
 70
     1
102
RTVSPropertyOp7
 70
     1
102
RTVSPropertyOp8
 70
     1
102
RTVSPropertyOp9
 70
     1
102
RTVSPropertyOp10
 70
     1
102
RTVSPropertyOp11
 70
     1
102
RTVSPropertyOp12
 70
     1
102
RTVSPropertyOp13
 70
     1
102
RTVSPropertyOp14
 70
     1
102
RTVSPropertyOp15
 70
     1
102
RTVSPropertyOp16
 70
     1
102
RTVSPropertyOp17
 70
     1
102
RTVSPropertyOp18
 70
     1
102
RTVSPropertyOp19
 70
     1
102
RTVSPropertyOp20
 70
     1
102
RTVSPropertyOp21
 70
     1
102
RTVSPropertyOp22
 70
     1
102
RTVSPropertyOp23
 70
     1
102
RTVSPropertyOp24
 70
     1
102
RTVSPropertyOp25
 70
     1
102
RTVSPropertyOp26
 70
     1
102
RTVSPropertyOp27
 70
     1
102
RTVSPropertyOp28
 70
     1
102
RTVSPropertyOp29
 70
     1
102
RTVSPropertyOp30
 70
     1
102
RTVSPropertyOp31
 70
     1
102
RTVSPropertyOp32
 70
     1
102
RTVSPropertyOp33
 70
     1
102
RTVSPropertyOp34
 70
     1
102
RTVSPropertyOp35
 70
     1
102
RTVSPropertyOp36
 70
     1
102
RTVSPropertyOp37
 70
     1
102
RTVSPropertyOp38
 70
     1
102
RTVSPropertyOp39
 70
     1
102
RTVSPropertyOp40
 70
     1
102
RTVSPropertyOp41
 70
     1
102
RTVSPropertyOp42
 70
     1
102
RTVSPropertyOp43
 70
     1
102
RTVSPropertyOp44
 70
     1
102
RTVSPropertyOp45
 70
     1
102
RTVSPropertyOp46
 70
     1
102
RTVSPropertyOp47
 70
     1
102
RTVSPropertyOp48
 70
     1
102
RTVSPropertyOp49
 70
     1
102
RTVSPropertyOp50
 70
     1
102
RTVSPropertyOp51
 70
     0
102
RTVSPropertyOp52
 70
     0
102
RTVSPropertyOp53
 70
     1
102
RTVSPropertyOp54
 70
     1
102
RTVSPropertyOp55
 70
     1
102
RTVSPropertyOp56
 70
     1
102
RTVSPropertyOp57
 70
     1
102
RTVSPropertyOp58
 70
     1
102
RTVSPropertyOp59
 70
     1
102
RTVSPropertyOp60
 70
     1
102
RTVSPropertyOp61
 70
     1
102
RTVSPropertyOp62
 70
     1
  0
XRECORD
  5
226
102
{ACAD_REACTORS
330
225
102
}
330
225
100
AcDbXrecord
280
     1
102
RTVSPost2010Prop28
280
     0
102
RTVSPost2010PropOp28
 70
     1
102
RTVSPost2010Prop29
280
     1
102
RTVSPost2010PropOp29
 70
     1
102
RTVSPost2010Prop30
280
     1
102
RTVSPost2010PropOp30
 70
     1
102
RTVSPost2010Prop31
280
     0
102
RTVSPost2010PropOp31
 70
     1
102
RTVSPost2010Prop32
280
     0
102
RTVSPost2010PropOp32
 70
     1
102
RTVSPost2010Prop33
280
     0
102
RTVSPost2010PropOp33
 70
     1
102
RTVSPost2010Prop34
280
     0
102
RTVSPost2010PropOp34
 70
     1
102
RTVSPost2010Prop35
280
     0
102
RTVSPost2010PropOp35
 70
     1
102
RTVSPost2010Prop36
280
     0
102
RTVSPost2010PropOp36
 70
     1
102
RTVSPost2010Prop37
 90
       50
102
RTVSPost2010PropOp37
 70
     1
102
RTVSPost2010Prop38
140
0.0
102
RTVSPost2010PropOp38
 70
     1
102
RTVSPost2010Prop39
140
1.0
102
RTVSPost2010PropOp39
 70
     1
102
RTVSPost2010Prop40
 90
        0
102
RTVSPost2010PropOp40
 70
     1
102
RTVSPost2010Prop41ColorIndex
 90
       18
102
RTVSPost2010Prop41ColorRGB
 90
        0
102
RTVSPost2010PropOp41
 70
     1
102
RTVSPost2010Prop42
 90
       50
102
RTVSPost2010PropOp42
 70
     1
102
RTVSPost2010Prop43
 90
        3
102
RTVSPost2010PropOp43
 70
     1
102
RTVSPost2010Prop44ColorIndex
 90
        5
102
RTVSPost2010Prop44ColorRGB
 90
      255
102
RTVSPost2010PropOp44
 70
     1
102
RTVSPost2010Prop45
280
     0
102
RTVSPost2010PropOp45
 70
     1
102
RTVSPost2010Prop46
 90
       50
102
RTVSPost2010PropOp46
 70
     1
102
RTVSPost2010Prop47
 90
       50
102
RTVSPost2010PropOp47
 70
     1
102
RTVSPost2010Prop48
 90
       50
102
RTVSPost2010PropOp48
 70
     1
102
RTVSPost2010Prop49
280
     0
102
RTVSPost2010PropOp49
 70
     1
102
RTVSPost2010Prop50
 90
       50
102
RTVSPost2010PropOp50
 70
     1
102
RTVSPost2010Prop51ColorIndex
 90
      256
102
RTVSPost2010Prop51ColorRGB
 90
-16777216
102
RTVSPost2010PropOp51
 70
     0
102
RTVSPost2010Prop52
140
1.0
102
RTVSPost2010PropOp52
 70
     0
102
RTVSPost2010Prop53
 90
        2
102
RTVSPost2010PropOp53
 70
     1
102
RTVSPost2010Prop54
  1
strokes_ogs.tif
102
RTVSPost2010PropOp54
 70
     1
102
RTVSPost2010Prop55
280
     0
102
RTVSPost2010PropOp55
 70
     1
102
RTVSPost2010Prop56
140
1.0
102
RTVSPost2010PropOp56
 70
     1
102
RTVSPost2010Prop57
140
1.0
102
RTVSPost2010PropOp57
 70
     1
102
RTVSPropertyOp0
 70
     1
102
RTVSPropertyOp1
 70
     1
102
RTVSPropertyOp2
 70
     1
102
RTVSPropertyOp3
 70
     1
102
RTVSPropertyOp4
 70
     1
102
RTVSPropertyOp5
 70
     1
102
RTVSPropertyOp6
 70
     1
102
RTVSPropertyOp7
 70
     1
102
RTVSPropertyOp8
 70
     1
102
RTVSPropertyOp9
 70
     1
102
RTVSPropertyOp10
 70
     1
102
RTVSPropertyOp11
 70
     1
102
RTVSPropertyOp12
 70
     1
102
RTVSPropertyOp13
 70
     1
102
RTVSPropertyOp14
 70
     1
102
RTVSPropertyOp15
 70
     1
102
RTVSPropertyOp16
 70
     1
102
RTVSPropertyOp17
 70
     1
102
RTVSPropertyOp18
 70
     1
102
RTVSPropertyOp19
 70
     1
102
RTVSPropertyOp20
 70
     1
102
RTVSPropertyOp21
 70
     1
102
RTVSPropertyOp22
 70
     1
102
RTVSPropertyOp23
 70
     1
102
RTVSPropertyOp24
 70
     1
102
RTVSPropertyOp25
 70
     1
102
RTVSPropertyOp26
 70
     1
102
RTVSPropertyOp27
 70
     1
102
RTVSPropertyOp28
 70
     1
102
RTVSPropertyOp29
 70
     1
102
RTVSPropertyOp30
 70
     1
102
RTVSPropertyOp31
 70
     1
102
RTVSPropertyOp32
 70
     1
102
RTVSPropertyOp33
 70
     1
102
RTVSPropertyOp34
 70
     1
102
RTVSPropertyOp35
 70
     1
102
RTVSPropertyOp36
 70
     1
102
RTVSPropertyOp37
 70
     1
102
RTVSPropertyOp38
 70
     1
102
RTVSPropertyOp39
 70
     1
102
RTVSPropertyOp40
 70
     1
102
RTVSPropertyOp41
 70
     1
102
RTVSPropertyOp42
 70
     1
102
RTVSPropertyOp43
 70
     1
102
RTVSPropertyOp44
 70
     1
102
RTVSPropertyOp45
 70
     1
102
RTVSPropertyOp46
 70
     1
102
RTVSPropertyOp47
 70
     1
102
RTVSPropertyOp48
 70
     1
102
RTVSPropertyOp49
 70
     1
102
RTVSPropertyOp50
 70
     1
102
RTVSPropertyOp51
 70
     0
102
RTVSPropertyOp52
 70
     0
102
RTVSPropertyOp53
 70
     1
102
RTVSPropertyOp54
 70
     1
102
RTVSPropertyOp55
 70
     1
102
RTVSPropertyOp56
 70
     1
102
RTVSPropertyOp57
 70
     1
102
RTVSPropertyOp58
 70
     1
102
RTVSPropertyOp59
 70
     1
102
RTVSPropertyOp60
 70
     1
102
RTVSPropertyOp61
 70
     1
102
RTVSPropertyOp62
 70
     1
  0
XRECORD
  5
22E
102
{ACAD_REACTORS
330
22D
102
}
330
22D
100
AcDbXrecord
280
     1
102
RTVSPost2010Prop28
280
     0
102
RTVSPost2010PropOp28
 70
     1
102
RTVSPost2010Prop29
280
     1
102
RTVSPost2010PropOp29
 70
     1
102
RTVSPost2010Prop30
280
     1
102
RTVSPost2010PropOp30
 70
     1
102
RTVSPost2010Prop31
280
     0
102
RTVSPost2010PropOp31
 70
     1
102
RTVSPost2010Prop32
280
     0
102
RTVSPost2010PropOp32
 70
     1
102
RTVSPost2010Prop33
280
     0
102
RTVSPost2010PropOp33
 70
     1
102
RTVSPost2010Prop34
280
     0
102
RTVSPost2010PropOp34
 70
     1
102
RTVSPost2010Prop35
280
     0
102
RTVSPost2010PropOp35
 70
     1
102
RTVSPost2010Prop36
280
     0
102
RTVSPost2010PropOp36
 70
     1
102
RTVSPost2010Prop37
 90
       50
102
RTVSPost2010PropOp37
 70
     1
102
RTVSPost2010Prop38
140
0.0
102
RTVSPost2010PropOp38
 70
     1
102
RTVSPost2010Prop39
140
1.0
102
RTVSPost2010PropOp39
 70
     1
102
RTVSPost2010Prop40
 90
        0
102
RTVSPost2010PropOp40
 70
     1
102
RTVSPost2010Prop41ColorIndex
 90
       18
102
RTVSPost2010Prop41ColorRGB
 90
        0
102
RTVSPost2010PropOp41
 70
     1
102
RTVSPost2010Prop42
 90
       50
102
RTVSPost2010PropOp42
 70
     1
102
RTVSPost2010Prop43
 90
        3
102
RTVSPost2010PropOp43
 70
     1
102
RTVSPost2010Prop44ColorIndex
 90
        5
102
RTVSPost2010Prop44ColorRGB
 90
      255
102
RTVSPost2010PropOp44
 70
     1
102
RTVSPost2010Prop45
280
     0
102
RTVSPost2010PropOp45
 70
     1
102
RTVSPost2010Prop46
 90
       50
102
RTVSPost2010PropOp46
 70
     1
102
RTVSPost2010Prop47
 90
       50
102
RTVSPost2010PropOp47
 70
     1
102
RTVSPost2010Prop48
 90
       50
102
RTVSPost2010PropOp48
 70
     1
102
RTVSPost2010Prop49
280
     0
102
RTVSPost2010PropOp49
 70
     1
102
RTVSPost2010Prop50
 90
       50
102
RTVSPost2010PropOp50
 70
     1
102
RTVSPost2010Prop51ColorIndex
 90
      256
102
RTVSPost2010Prop51ColorRGB
 90
-16777216
102
RTVSPost2010PropOp51
 70
     0
102
RTVSPost2010Prop52
140
1.0
102
RTVSPost2010PropOp52
 70
     0
102
RTVSPost2010Prop53
 90
        2
102
RTVSPost2010PropOp53
 70
     1
102
RTVSPost2010Prop54
  1
strokes_ogs.tif
102
RTVSPost2010PropOp54
 70
     1
102
RTVSPost2010Prop55
280
     0
102
RTVSPost2010PropOp55
 70
     1
102
RTVSPost2010Prop56
140
1.0
102
RTVSPost2010PropOp56
 70
     1
102
RTVSPost2010Prop57
140
1.0
102
RTVSPost2010PropOp57
 70
     1
102
RTVSPropertyOp0
 70
     1
102
RTVSPropertyOp1
 70
     1
102
RTVSPropertyOp2
 70
     1
102
RTVSPropertyOp3
 70
     1
102
RTVSPropertyOp4
 70
     1
102
RTVSPropertyOp5
 70
     1
102
RTVSPropertyOp6
 70
     1
102
RTVSPropertyOp7
 70
     1
102
RTVSPropertyOp8
 70
     1
102
RTVSPropertyOp9
 70
     1
102
RTVSPropertyOp10
 70
     1
102
RTVSPropertyOp11
 70
     1
102
RTVSPropertyOp12
 70
     1
102
RTVSPropertyOp13
 70
     1
102
RTVSPropertyOp14
 70
     1
102
RTVSPropertyOp15
 70
     1
102
RTVSPropertyOp16
 70
     1
102
RTVSPropertyOp17
 70
     1
102
RTVSPropertyOp18
 70
     1
102
RTVSPropertyOp19
 70
     1
102
RTVSPropertyOp20
 70
     1
102
RTVSPropertyOp21
 70
     1
102
RTVSPropertyOp22
 70
     1
102
RTVSPropertyOp23
 70
     1
102
RTVSPropertyOp24
 70
     1
102
RTVSPropertyOp25
 70
     1
102
RTVSPropertyOp26
 70
     1
102
RTVSPropertyOp27
 70
     1
102
RTVSPropertyOp28
 70
     1
102
RTVSPropertyOp29
 70
     1
102
RTVSPropertyOp30
 70
     1
102
RTVSPropertyOp31
 70
     1
102
RTVSPropertyOp32
 70
     1
102
RTVSPropertyOp33
 70
     1
102
RTVSPropertyOp34
 70
     1
102
RTVSPropertyOp35
 70
     1
102
RTVSPropertyOp36
 70
     1
102
RTVSPropertyOp37
 70
     1
102
RTVSPropertyOp38
 70
     1
102
RTVSPropertyOp39
 70
     1
102
RTVSPropertyOp40
 70
     1
102
RTVSPropertyOp41
 70
     1
102
RTVSPropertyOp42
 70
     1
102
RTVSPropertyOp43
 70
     1
102
RTVSPropertyOp44
 70
     1
102
RTVSPropertyOp45
 70
     1
102
RTVSPropertyOp46
 70
     1
102
RTVSPropertyOp47
 70
     1
102
RTVSPropertyOp48
 70
     1
102
RTVSPropertyOp49
 70
     1
102
RTVSPropertyOp50
 70
     1
102
RTVSPropertyOp51
 70
     0
102
RTVSPropertyOp52
 70
     0
102
RTVSPropertyOp53
 70
     1
102
RTVSPropertyOp54
 70
     1
102
RTVSPropertyOp55
 70
     1
102
RTVSPropertyOp56
 70
     1
102
RTVSPropertyOp57
 70
     1
102
RTVSPropertyOp58
 70
     1
102
RTVSPropertyOp59
 70
     1
102
RTVSPropertyOp60
 70
     1
102
RTVSPropertyOp61
 70
     1
102
RTVSPropertyOp62
 70
     1
  0
XRECORD
  5
220
102
{ACAD_REACTORS
330
21F
102
}
330
21F
100
AcDbXrecord
280
     1
102
RTVSPost2010Prop28
280
     0
102
RTVSPost2010PropOp28
 70
     1
102
RTVSPost2010Prop29
280
     1
102
RTVSPost2010PropOp29
 70
     1
102
RTVSPost2010Prop30
280
     1
102
RTVSPost2010PropOp30
 70
     1
102
RTVSPost2010Prop31
280
     0
102
RTVSPost2010PropOp31
 70
     1
102
RTVSPost2010Prop32
280
     0
102
RTVSPost2010PropOp32
 70
     1
102
RTVSPost2010Prop33
280
     0
102
RTVSPost2010PropOp33
 70
     1
102
RTVSPost2010Prop34
280
     0
102
RTVSPost2010PropOp34
 70
     1
102
RTVSPost2010Prop35
280
     0
102
RTVSPost2010PropOp35
 70
     1
102
RTVSPost2010Prop36
280
     0
102
RTVSPost2010PropOp36
 70
     1
102
RTVSPost2010Prop37
 90
       50
102
RTVSPost2010PropOp37
 70
     1
102
RTVSPost2010Prop38
140
0.0
102
RTVSPost2010PropOp38
 70
     1
102
RTVSPost2010Prop39
140
1.0
102
RTVSPost2010PropOp39
 70
     1
102
RTVSPost2010Prop40
 90
        0
102
RTVSPost2010PropOp40
 70
     1
102
RTVSPost2010Prop41ColorIndex
 90
       18
102
RTVSPost2010Prop41ColorRGB
 90
        0
102
RTVSPost2010PropOp41
 70
     1
102
RTVSPost2010Prop42
 90
       50
102
RTVSPost2010PropOp42
 70
     1
102
RTVSPost2010Prop43
 90
        3
102
RTVSPost2010PropOp43
 70
     1
102
RTVSPost2010Prop44ColorIndex
 90
        5
102
RTVSPost2010Prop44ColorRGB
 90
      255
102
RTVSPost2010PropOp44
 70
     1
102
RTVSPost2010Prop45
280
     0
102
RTVSPost2010PropOp45
 70
     1
102
RTVSPost2010Prop46
 90
       50
102
RTVSPost2010PropOp46
 70
     1
102
RTVSPost2010Prop47
 90
       50
102
RTVSPost2010PropOp47
 70
     1
102
RTVSPost2010Prop48
 90
       50
102
RTVSPost2010PropOp48
 70
     1
102
RTVSPost2010Prop49
280
     0
102
RTVSPost2010PropOp49
 70
     1
102
RTVSPost2010Prop50
 90
       50
102
RTVSPost2010PropOp50
 70
     1
102
RTVSPost2010Prop51ColorIndex
 90
      256
102
RTVSPost2010Prop51ColorRGB
 90
-16777216
102
RTVSPost2010PropOp51
 70
     0
102
RTVSPost2010Prop52
140
1.0
102
RTVSPost2010PropOp52
 70
     0
102
RTVSPost2010Prop53
 90
        2
102
RTVSPost2010PropOp53
 70
     1
102
RTVSPost2010Prop54
  1
strokes_ogs.tif
102
RTVSPost2010PropOp54
 70
     1
102
RTVSPost2010Prop55
280
     0
102
RTVSPost2010PropOp55
 70
     1
102
RTVSPost2010Prop56
140
1.0
102
RTVSPost2010PropOp56
 70
     1
102
RTVSPost2010Prop57
140
1.0
102
RTVSPost2010PropOp57
 70
     1
102
RTVSPropertyOp0
 70
     1
102
RTVSPropertyOp1
 70
     1
102
RTVSPropertyOp2
 70
     1
102
RTVSPropertyOp3
 70
     1
102
RTVSPropertyOp4
 70
     1
102
RTVSPropertyOp5
 70
     1
102
RTVSPropertyOp6
 70
     1
102
RTVSPropertyOp7
 70
     1
102
RTVSPropertyOp8
 70
     1
102
RTVSPropertyOp9
 70
     1
102
RTVSPropertyOp10
 70
     1
102
RTVSPropertyOp11
 70
     1
102
RTVSPropertyOp12
 70
     1
102
RTVSPropertyOp13
 70
     1
102
RTVSPropertyOp14
 70
     1
102
RTVSPropertyOp15
 70
     1
102
RTVSPropertyOp16
 70
     1
102
RTVSPropertyOp17
 70
     1
102
RTVSPropertyOp18
 70
     1
102
RTVSPropertyOp19
 70
     1
102
RTVSPropertyOp20
 70
     1
102
RTVSPropertyOp21
 70
     1
102
RTVSPropertyOp22
 70
     1
102
RTVSPropertyOp23
 70
     1
102
RTVSPropertyOp24
 70
     1
102
RTVSPropertyOp25
 70
     1
102
RTVSPropertyOp26
 70
     1
102
RTVSPropertyOp27
 70
     1
102
RTVSPropertyOp28
 70
     1
102
RTVSPropertyOp29
 70
     1
102
RTVSPropertyOp30
 70
     1
102
RTVSPropertyOp31
 70
     1
102
RTVSPropertyOp32
 70
     1
102
RTVSPropertyOp33
 70
     1
102
RTVSPropertyOp34
 70
     1
102
RTVSPropertyOp35
 70
     1
102
RTVSPropertyOp36
 70
     1
102
RTVSPropertyOp37
 70
     1
102
RTVSPropertyOp38
 70
     1
102
RTVSPropertyOp39
 70
     1
102
RTVSPropertyOp40
 70
     1
102
RTVSPropertyOp41
 70
     1
102
RTVSPropertyOp42
 70
     1
102
RTVSPropertyOp43
 70
     1
102
RTVSPropertyOp44
 70
     1
102
RTVSPropertyOp45
 70
     1
102
RTVSPropertyOp46
 70
     1
102
RTVSPropertyOp47
 70
     1
102
RTVSPropertyOp48
 70
     1
102
RTVSPropertyOp49
 70
     1
102
RTVSPropertyOp50
 70
     1
102
RTVSPropertyOp51
 70
     0
102
RTVSPropertyOp52
 70
     0
102
RTVSPropertyOp53
 70
     1
102
RTVSPropertyOp54
 70
     1
102
RTVSPropertyOp55
 70
     1
102
RTVSPropertyOp56
 70
     1
102
RTVSPropertyOp57
 70
     1
102
RTVSPropertyOp58
 70
     1
102
RTVSPropertyOp59
 70
     1
102
RTVSPropertyOp60
 70
     1
102
RTVSPropertyOp61
 70
     1
102
RTVSPropertyOp62
 70
     1
  0
XRECORD
  5
224
102
{ACAD_REACTORS
330
223
102
}
330
223
100
AcDbXrecord
280
     1
102
RTVSPost2010Prop28
280
     0
102
RTVSPost2010PropOp28
 70
     1
102
RTVSPost2010Prop29
280
     1
102
RTVSPost2010PropOp29
 70
     1
102
RTVSPost2010Prop30
280
     1
102
RTVSPost2010PropOp30
 70
     1
102
RTVSPost2010Prop31
280
     0
102
RTVSPost2010PropOp31
 70
     1
102
RTVSPost2010Prop32
280
     0
102
RTVSPost2010PropOp32
 70
     1
102
RTVSPost2010Prop33
280
     0
102
RTVSPost2010PropOp33
 70
     1
102
RTVSPost2010Prop34
280
     0
102
RTVSPost2010PropOp34
 70
     1
102
RTVSPost2010Prop35
280
     0
102
RTVSPost2010PropOp35
 70
     1
102
RTVSPost2010Prop36
280
     0
102
RTVSPost2010PropOp36
 70
     1
102
RTVSPost2010Prop37
 90
       50
102
RTVSPost2010PropOp37
 70
     1
102
RTVSPost2010Prop38
140
0.0
102
RTVSPost2010PropOp38
 70
     1
102
RTVSPost2010Prop39
140
1.0
102
RTVSPost2010PropOp39
 70
     1
102
RTVSPost2010Prop40
 90
        0
102
RTVSPost2010PropOp40
 70
     1
102
RTVSPost2010Prop41ColorIndex
 90
       18
102
RTVSPost2010Prop41ColorRGB
 90
        0
102
RTVSPost2010PropOp41
 70
     1
102
RTVSPost2010Prop42
 90
       50
102
RTVSPost2010PropOp42
 70
     1
102
RTVSPost2010Prop43
 90
        3
102
RTVSPost2010PropOp43
 70
     1
102
RTVSPost2010Prop44ColorIndex
 90
        5
102
RTVSPost2010Prop44ColorRGB
 90
      255
102
RTVSPost2010PropOp44
 70
     1
102
RTVSPost2010Prop45
280
     0
102
RTVSPost2010PropOp45
 70
     1
102
RTVSPost2010Prop46
 90
       50
102
RTVSPost2010PropOp46
 70
     1
102
RTVSPost2010Prop47
 90
       50
102
RTVSPost2010PropOp47
 70
     1
102
RTVSPost2010Prop48
 90
       50
102
RTVSPost2010PropOp48
 70
     1
102
RTVSPost2010Prop49
280
     0
102
RTVSPost2010PropOp49
 70
     1
102
RTVSPost2010Prop50
 90
       50
102
RTVSPost2010PropOp50
 70
     1
102
RTVSPost2010Prop51ColorIndex
 90
      256
102
RTVSPost2010Prop51ColorRGB
 90
-16777216
102
RTVSPost2010PropOp51
 70
     0
102
RTVSPost2010Prop52
140
1.0
102
RTVSPost2010PropOp52
 70
     0
102
RTVSPost2010Prop53
 90
        2
102
RTVSPost2010PropOp53
 70
     1
102
RTVSPost2010Prop54
  1
strokes_ogs.tif
102
RTVSPost2010PropOp54
 70
     1
102
RTVSPost2010Prop55
280
     0
102
RTVSPost2010PropOp55
 70
     1
102
RTVSPost2010Prop56
140
1.0
102
RTVSPost2010PropOp56
 70
     1
102
RTVSPost2010Prop57
140
1.0
102
RTVSPost2010PropOp57
 70
     1
102
RTVSPropertyOp0
 70
     1
102
RTVSPropertyOp1
 70
     1
102
RTVSPropertyOp2
 70
     1
102
RTVSPropertyOp3
 70
     1
102
RTVSPropertyOp4
 70
     1
102
RTVSPropertyOp5
 70
     1
102
RTVSPropertyOp6
 70
     1
102
RTVSPropertyOp7
 70
     1
102
RTVSPropertyOp8
 70
     1
102
RTVSPropertyOp9
 70
     1
102
RTVSPropertyOp10
 70
     1
102
RTVSPropertyOp11
 70
     1
102
RTVSPropertyOp12
 70
     1
102
RTVSPropertyOp13
 70
     1
102
RTVSPropertyOp14
 70
     1
102
RTVSPropertyOp15
 70
     1
102
RTVSPropertyOp16
 70
     1
102
RTVSPropertyOp17
 70
     1
102
RTVSPropertyOp18
 70
     1
102
RTVSPropertyOp19
 70
     1
102
RTVSPropertyOp20
 70
     1
102
RTVSPropertyOp21
 70
     1
102
RTVSPropertyOp22
 70
     1
102
RTVSPropertyOp23
 70
     1
102
RTVSPropertyOp24
 70
     1
102
RTVSPropertyOp25
 70
     1
102
RTVSPropertyOp26
 70
     1
102
RTVSPropertyOp27
 70
     1
102
RTVSPropertyOp28
 70
     1
102
RTVSPropertyOp29
 70
     1
102
RTVSPropertyOp30
 70
     1
102
RTVSPropertyOp31
 70
     1
102
RTVSPropertyOp32
 70
     1
102
RTVSPropertyOp33
 70
     1
102
RTVSPropertyOp34
 70
     1
102
RTVSPropertyOp35
 70
     1
102
RTVSPropertyOp36
 70
     1
102
RTVSPropertyOp37
 70
     1
102
RTVSPropertyOp38
 70
     1
102
RTVSPropertyOp39
 70
     1
102
RTVSPropertyOp40
 70
     1
102
RTVSPropertyOp41
 70
     1
102
RTVSPropertyOp42
 70
     1
102
RTVSPropertyOp43
 70
     1
102
RTVSPropertyOp44
 70
     1
102
RTVSPropertyOp45
 70
     1
102
RTVSPropertyOp46
 70
     1
102
RTVSPropertyOp47
 70
     1
102
RTVSPropertyOp48
 70
     1
102
RTVSPropertyOp49
 70
     1
102
RTVSPropertyOp50
 70
     1
102
RTVSPropertyOp51
 70
     0
102
RTVSPropertyOp52
 70
     0
102
RTVSPropertyOp53
 70
     1
102
RTVSPropertyOp54
 70
     1
102
RTVSPropertyOp55
 70
     1
102
RTVSPropertyOp56
 70
     1
102
RTVSPropertyOp57
 70
     1
102
RTVSPropertyOp58
 70
     1
102
RTVSPropertyOp59
 70
     1
102
RTVSPropertyOp60
 70
     1
102
RTVSPropertyOp61
 70
     1
102
RTVSPropertyOp62
 70
     1
  0
XRECORD
  5
23E
102
{ACAD_REACTORS
330
23D
102
}
330
23D
100
AcDbXrecord
280
     1
102
RTVSPost2010Prop28
280
     0
102
RTVSPost2010PropOp28
 70
     0
102
RTVSPost2010Prop29
280
     1
102
RTVSPost2010PropOp29
 70
     0
102
RTVSPost2010Prop30
280
     1
102
RTVSPost2010PropOp30
 70
     0
102
RTVSPost2010Prop31
280
     0
102
RTVSPost2010PropOp31
 70
     0
102
RTVSPost2010Prop32
280
     0
102
RTVSPost2010PropOp32
 70
     0
102
RTVSPost2010Prop33
280
     0
102
RTVSPost2010PropOp33
 70
     0
102
RTVSPost2010Prop34
280
     0
102
RTVSPost2010PropOp34
 70
     0
102
RTVSPost2010Prop35
280
     0
102
RTVSPost2010PropOp35
 70
     0
102
RTVSPost2010Prop36
280
     0
102
RTVSPost2010PropOp36
 70
     0
102
RTVSPost2010Prop37
 90
       50
102
RTVSPost2010PropOp37
 70
     0
102
RTVSPost2010Prop38
140
0.0
102
RTVSPost2010PropOp38
 70
     0
102
RTVSPost2010Prop39
140
1.0
102
RTVSPost2010PropOp39
 70
     0
102
RTVSPost2010Prop40
 90
        0
102
RTVSPost2010PropOp40
 70
     0
102
RTVSPost2010Prop41ColorIndex
 90
       18
102
RTVSPost2010Prop41ColorRGB
 90
        0
102
RTVSPost2010PropOp41
 70
     0
102
RTVSPost2010Prop42
 90
       50
102
RTVSPost2010PropOp42
 70
     0
102
RTVSPost2010Prop43
 90
        3
102
RTVSPost2010PropOp43
 70
     0
102
RTVSPost2010Prop44ColorIndex
 90
        5
102
RTVSPost2010Prop44ColorRGB
 90
      255
102
RTVSPost2010PropOp44
 70
     0
102
RTVSPost2010Prop45
280
     0
102
RTVSPost2010PropOp45
 70
     0
102
RTVSPost2010Prop46
 90
       50
102
RTVSPost2010PropOp46
 70
     0
102
RTVSPost2010Prop47
 90
       50
102
RTVSPost2010PropOp47
 70
     0
102
RTVSPost2010Prop48
 90
       50
102
RTVSPost2010PropOp48
 70
     0
102
RTVSPost2010Prop49
280
     0
102
RTVSPost2010PropOp49
 70
     0
102
RTVSPost2010Prop50
 90
       50
102
RTVSPost2010PropOp50
 70
     0
102
RTVSPost2010Prop51ColorIndex
 90
      256
102
RTVSPost2010Prop51ColorRGB
 90
-16777216
102
RTVSPost2010PropOp51
 70
     0
102
RTVSPost2010Prop52
140
1.0
102
RTVSPost2010PropOp52
 70
     0
102
RTVSPost2010Prop53
 90
        2
102
RTVSPost2010PropOp53
 70
     0
102
RTVSPost2010Prop54
  1
strokes_ogs.tif
102
RTVSPost2010PropOp54
 70
     0
102
RTVSPost2010Prop55
280
     0
102
RTVSPost2010PropOp55
 70
     0
102
RTVSPost2010Prop56
140
1.0
102
RTVSPost2010PropOp56
 70
     0
102
RTVSPost2010Prop57
140
1.0
102
RTVSPost2010PropOp57
 70
     0
102
RTVSPropertyOp0
 70
     0
102
RTVSPropertyOp1
 70
     0
102
RTVSPropertyOp2
 70
     0
102
RTVSPropertyOp3
 70
     0
102
RTVSPropertyOp4
 70
     0
102
RTVSPropertyOp5
 70
     0
102
RTVSPropertyOp6
 70
     0
102
RTVSPropertyOp7
 70
     0
102
RTVSPropertyOp8
 70
     0
102
RTVSPropertyOp9
 70
     0
102
RTVSPropertyOp10
 70
     0
102
RTVSPropertyOp11
 70
     0
102
RTVSPropertyOp12
 70
     0
102
RTVSPropertyOp13
 70
     0
102
RTVSPropertyOp14
 70
     2
102
RTVSPropertyOp15
 70
     0
102
RTVSPropertyOp16
 70
     0
102
RTVSPropertyOp17
 70
     0
102
RTVSPropertyOp18
 70
     0
102
RTVSPropertyOp19
 70
     0
102
RTVSPropertyOp20
 70
     0
102
RTVSPropertyOp21
 70
     0
102
RTVSPropertyOp22
 70
     0
102
RTVSPropertyOp23
 70
     0
102
RTVSPropertyOp24
 70
     0
102
RTVSPropertyOp25
 70
     0
102
RTVSPropertyOp26
 70
     0
102
RTVSPropertyOp27
 70
     0
102
RTVSPropertyOp28
 70
     0
102
RTVSPropertyOp29
 70
     0
102
RTVSPropertyOp30
 70
     0
102
RTVSPropertyOp31
 70
     0
102
RTVSPropertyOp32
 70
     0
102
RTVSPropertyOp33
 70
     0
102
RTVSPropertyOp34
 70
     0
102
RTVSPropertyOp35
 70
     0
102
RTVSPropertyOp36
 70
     0
102
RTVSPropertyOp37
 70
     0
102
RTVSPropertyOp38
 70
     0
102
RTVSPropertyOp39
 70
     0
102
RTVSPropertyOp40
 70
     0
102
RTVSPropertyOp41
 70
     0
102
RTVSPropertyOp42
 70
     0
102
RTVSPropertyOp43
 70
     0
102
RTVSPropertyOp44
 70
     0
102
RTVSPropertyOp45
 70
     0
102
RTVSPropertyOp46
 70
     0
102
RTVSPropertyOp47
 70
     0
102
RTVSPropertyOp48
 70
     0
102
RTVSPropertyOp49
 70
     0
102
RTVSPropertyOp50
 70
     0
102
RTVSPropertyOp51
 70
     0
102
RTVSPropertyOp52
 70
     0
102
RTVSPropertyOp53
 70
     0
102
RTVSPropertyOp54
 70
     0
102
RTVSPropertyOp55
 70
     0
102
RTVSPropertyOp56
 70
     0
102
RTVSPropertyOp57
 70
     0
102
RTVSPropertyOp58
 70
     0
102
RTVSPropertyOp59
 70
     0
102
RTVSPropertyOp60
 70
     0
102
RTVSPropertyOp61
 70
     0
102
RTVSPropertyOp62
 70
     0
  0
XRECORD
  5
22C
102
{ACAD_REACTORS
330
22B
102
}
330
22B
100
AcDbXrecord
280
     1
102
RTVSPost2010Prop28
280
     0
102
RTVSPost2010PropOp28
 70
     1
102
RTVSPost2010Prop29
280
     1
102
RTVSPost2010PropOp29
 70
     1
102
RTVSPost2010Prop30
280
     1
102
RTVSPost2010PropOp30
 70
     1
102
RTVSPost2010Prop31
280
     0
102
RTVSPost2010PropOp31
 70
     1
102
RTVSPost2010Prop32
280
     0
102
RTVSPost2010PropOp32
 70
     1
102
RTVSPost2010Prop33
280
     0
102
RTVSPost2010PropOp33
 70
     1
102
RTVSPost2010Prop34
280
     0
102
RTVSPost2010PropOp34
 70
     1
102
RTVSPost2010Prop35
280
     0
102
RTVSPost2010PropOp35
 70
     1
102
RTVSPost2010Prop36
280
     0
102
RTVSPost2010PropOp36
 70
     1
102
RTVSPost2010Prop37
 90
       50
102
RTVSPost2010PropOp37
 70
     1
102
RTVSPost2010Prop38
140
0.0
102
RTVSPost2010PropOp38
 70
     1
102
RTVSPost2010Prop39
140
1.0
102
RTVSPost2010PropOp39
 70
     1
102
RTVSPost2010Prop40
 90
        0
102
RTVSPost2010PropOp40
 70
     1
102
RTVSPost2010Prop41ColorIndex
 90
       18
102
RTVSPost2010Prop41ColorRGB
 90
        0
102
RTVSPost2010PropOp41
 70
     1
102
RTVSPost2010Prop42
 90
       50
102
RTVSPost2010PropOp42
 70
     1
102
RTVSPost2010Prop43
 90
        3
102
RTVSPost2010PropOp43
 70
     1
102
RTVSPost2010Prop44ColorIndex
 90
        5
102
RTVSPost2010Prop44ColorRGB
 90
      255
102
RTVSPost2010PropOp44
 70
     1
102
RTVSPost2010Prop45
280
     0
102
RTVSPost2010PropOp45
 70
     1
102
RTVSPost2010Prop46
 90
       50
102
RTVSPost2010PropOp46
 70
     1
102
RTVSPost2010Prop47
 90
       50
102
RTVSPost2010PropOp47
 70
     1
102
RTVSPost2010Prop48
 90
       50
102
RTVSPost2010PropOp48
 70
     1
102
RTVSPost2010Prop49
280
     0
102
RTVSPost2010PropOp49
 70
     1
102
RTVSPost2010Prop50
 90
       50
102
RTVSPost2010PropOp50
 70
     1
102
RTVSPost2010Prop51ColorIndex
 90
      256
102
RTVSPost2010Prop51ColorRGB
 90
-16777216
102
RTVSPost2010PropOp51
 70
     0
102
RTVSPost2010Prop52
140
1.0
102
RTVSPost2010PropOp52
 70
     0
102
RTVSPost2010Prop53
 90
        2
102
RTVSPost2010PropOp53
 70
     1
102
RTVSPost2010Prop54
  1
strokes_ogs.tif
102
RTVSPost2010PropOp54
 70
     1
102
RTVSPost2010Prop55
280
     0
102
RTVSPost2010PropOp55
 70
     1
102
RTVSPost2010Prop56
140
1.0
102
RTVSPost2010PropOp56
 70
     1
102
RTVSPost2010Prop57
140
1.0
102
RTVSPost2010PropOp57
 70
     1
102
RTVSPropertyOp0
 70
     1
102
RTVSPropertyOp1
 70
     1
102
RTVSPropertyOp2
 70
     1
102
RTVSPropertyOp3
 70
     1
102
RTVSPropertyOp4
 70
     1
102
RTVSPropertyOp5
 70
     1
102
RTVSPropertyOp6
 70
     1
102
RTVSPropertyOp7
 70
     1
102
RTVSPropertyOp8
 70
     1
102
RTVSPropertyOp9
 70
     1
102
RTVSPropertyOp10
 70
     1
102
RTVSPropertyOp11
 70
     1
102
RTVSPropertyOp12
 70
     1
102
RTVSPropertyOp13
 70
     1
102
RTVSPropertyOp14
 70
     1
102
RTVSPropertyOp15
 70
     1
102
RTVSPropertyOp16
 70
     1
102
RTVSPropertyOp17
 70
     1
102
RTVSPropertyOp18
 70
     1
102
RTVSPropertyOp19
 70
     1
102
RTVSPropertyOp20
 70
     1
102
RTVSPropertyOp21
 70
     1
102
RTVSPropertyOp22
 70
     1
102
RTVSPropertyOp23
 70
     1
102
RTVSPropertyOp24
 70
     1
102
RTVSPropertyOp25
 70
     1
102
RTVSPropertyOp26
 70
     1
102
RTVSPropertyOp27
 70
     1
102
RTVSPropertyOp28
 70
     1
102
RTVSPropertyOp29
 70
     1
102
RTVSPropertyOp30
 70
     1
102
RTVSPropertyOp31
 70
     1
102
RTVSPropertyOp32
 70
     1
102
RTVSPropertyOp33
 70
     1
102
RTVSPropertyOp34
 70
     1
102
RTVSPropertyOp35
 70
     1
102
RTVSPropertyOp36
 70
     1
102
RTVSPropertyOp37
 70
     1
102
RTVSPropertyOp38
 70
     1
102
RTVSPropertyOp39
 70
     1
102
RTVSPropertyOp40
 70
     1
102
RTVSPropertyOp41
 70
     1
102
RTVSPropertyOp42
 70
     1
102
RTVSPropertyOp43
 70
     1
102
RTVSPropertyOp44
 70
     1
102
RTVSPropertyOp45
 70
     1
102
RTVSPropertyOp46
 70
     1
102
RTVSPropertyOp47
 70
     1
102
RTVSPropertyOp48
 70
     1
102
RTVSPropertyOp49
 70
     1
102
RTVSPropertyOp50
 70
     1
102
RTVSPropertyOp51
 70
     0
102
RTVSPropertyOp52
 70
     0
102
RTVSPropertyOp53
 70
     1
102
RTVSPropertyOp54
 70
     1
102
RTVSPropertyOp55
 70
     1
102
RTVSPropertyOp56
 70
     1
102
RTVSPropertyOp57
 70
     1
102
RTVSPropertyOp58
 70
     1
102
RTVSPropertyOp59
 70
     1
102
RTVSPropertyOp60
 70
     1
102
RTVSPropertyOp61
 70
     1
102
RTVSPropertyOp62
 70
     1
  0
XRECORD
  5
210
102
{ACAD_REACTORS
330
20F
102
}
330
20F
100
AcDbXrecord
280
     1
102
RTVSPost2010Prop28
280
     0
102
RTVSPost2010PropOp28
 70
     1
102
RTVSPost2010Prop29
280
     1
102
RTVSPost2010PropOp29
 70
     1
102
RTVSPost2010Prop30
280
     1
102
RTVSPost2010PropOp30
 70
     1
102
RTVSPost2010Prop31
280
     0
102
RTVSPost2010PropOp31
 70
     1
102
RTVSPost2010Prop32
280
     0
102
RTVSPost2010PropOp32
 70
     1
102
RTVSPost2010Prop33
280
     0
102
RTVSPost2010PropOp33
 70
     1
102
RTVSPost2010Prop34
280
     0
102
RTVSPost2010PropOp34
 70
     1
102
RTVSPost2010Prop35
280
     0
102
RTVSPost2010PropOp35
 70
     1
102
RTVSPost2010Prop36
280
     0
102
RTVSPost2010PropOp36
 70
     1
102
RTVSPost2010Prop37
 90
       50
102
RTVSPost2010PropOp37
 70
     1
102
RTVSPost2010Prop38
140
0.0
102
RTVSPost2010PropOp38
 70
     1
102
RTVSPost2010Prop39
140
1.0
102
RTVSPost2010PropOp39
 70
     1
102
RTVSPost2010Prop40
 90
        0
102
RTVSPost2010PropOp40
 70
     1
102
RTVSPost2010Prop41ColorIndex
 90
       18
102
RTVSPost2010Prop41ColorRGB
 90
        0
102
RTVSPost2010PropOp41
 70
     1
102
RTVSPost2010Prop42
 90
       50
102
RTVSPost2010PropOp42
 70
     1
102
RTVSPost2010Prop43
 90
        3
102
RTVSPost2010PropOp43
 70
     1
102
RTVSPost2010Prop44ColorIndex
 90
        5
102
RTVSPost2010Prop44ColorRGB
 90
      255
102
RTVSPost2010PropOp44
 70
     1
102
RTVSPost2010Prop45
280
     0
102
RTVSPost2010PropOp45
 70
     1
102
RTVSPost2010Prop46
 90
       50
102
RTVSPost2010PropOp46
 70
     1
102
RTVSPost2010Prop47
 90
       50
102
RTVSPost2010PropOp47
 70
     1
102
RTVSPost2010Prop48
 90
       50
102
RTVSPost2010PropOp48
 70
     1
102
RTVSPost2010Prop49
280
     0
102
RTVSPost2010PropOp49
 70
     1
102
RTVSPost2010Prop50
 90
       50
102
RTVSPost2010PropOp50
 70
     1
102
RTVSPost2010Prop51ColorIndex
 90
      256
102
RTVSPost2010Prop51ColorRGB
 90
-16777216
102
RTVSPost2010PropOp51
 70
     0
102
RTVSPost2010Prop52
140
1.0
102
RTVSPost2010PropOp52
 70
     0
102
RTVSPost2010Prop53
 90
        2
102
RTVSPost2010PropOp53
 70
     1
102
RTVSPost2010Prop54
  1
strokes_ogs.tif
102
RTVSPost2010PropOp54
 70
     1
102
RTVSPost2010Prop55
280
     0
102
RTVSPost2010PropOp55
 70
     1
102
RTVSPost2010Prop56
140
1.0
102
RTVSPost2010PropOp56
 70
     1
102
RTVSPost2010Prop57
140
1.0
102
RTVSPost2010PropOp57
 70
     1
102
RTVSPropertyOp0
 70
     1
102
RTVSPropertyOp1
 70
     1
102
RTVSPropertyOp2
 70
     1
102
RTVSPropertyOp3
 70
     1
102
RTVSPropertyOp4
 70
     1
102
RTVSPropertyOp5
 70
     1
102
RTVSPropertyOp6
 70
     1
102
RTVSPropertyOp7
 70
     1
102
RTVSPropertyOp8
 70
     1
102
RTVSPropertyOp9
 70
     1
102
RTVSPropertyOp10
 70
     1
102
RTVSPropertyOp11
 70
     1
102
RTVSPropertyOp12
 70
     1
102
RTVSPropertyOp13
 70
     1
102
RTVSPropertyOp14
 70
     1
102
RTVSPropertyOp15
 70
     1
102
RTVSPropertyOp16
 70
     1
102
RTVSPropertyOp17
 70
     1
102
RTVSPropertyOp18
 70
     1
102
RTVSPropertyOp19
 70
     1
102
RTVSPropertyOp20
 70
     1
102
RTVSPropertyOp21
 70
     1
102
RTVSPropertyOp22
 70
     1
102
RTVSPropertyOp23
 70
     1
102
RTVSPropertyOp24
 70
     1
102
RTVSPropertyOp25
 70
     1
102
RTVSPropertyOp26
 70
     1
102
RTVSPropertyOp27
 70
     1
102
RTVSPropertyOp28
 70
     1
102
RTVSPropertyOp29
 70
     1
102
RTVSPropertyOp30
 70
     1
102
RTVSPropertyOp31
 70
     1
102
RTVSPropertyOp32
 70
     1
102
RTVSPropertyOp33
 70
     1
102
RTVSPropertyOp34
 70
     1
102
RTVSPropertyOp35
 70
     1
102
RTVSPropertyOp36
 70
     1
102
RTVSPropertyOp37
 70
     1
102
RTVSPropertyOp38
 70
     1
102
RTVSPropertyOp39
 70
     1
102
RTVSPropertyOp40
 70
     1
102
RTVSPropertyOp41
 70
     1
102
RTVSPropertyOp42
 70
     1
102
RTVSPropertyOp43
 70
     1
102
RTVSPropertyOp44
 70
     1
102
RTVSPropertyOp45
 70
     1
102
RTVSPropertyOp46
 70
     1
102
RTVSPropertyOp47
 70
     1
102
RTVSPropertyOp48
 70
     1
102
RTVSPropertyOp49
 70
     1
102
RTVSPropertyOp50
 70
     1
102
RTVSPropertyOp51
 70
     0
102
RTVSPropertyOp52
 70
     0
102
RTVSPropertyOp53
 70
     1
102
RTVSPropertyOp54
 70
     1
102
RTVSPropertyOp55
 70
     1
102
RTVSPropertyOp56
 70
     1
102
RTVSPropertyOp57
 70
     1
102
RTVSPropertyOp58
 70
     1
102
RTVSPropertyOp59
 70
     1
102
RTVSPropertyOp60
 70
     1
102
RTVSPropertyOp61
 70
     1
102
RTVSPropertyOp62
 70
     1
  0
XRECORD
  5
212
102
{ACAD_REACTORS
330
211
102
}
330
211
100
AcDbXrecord
280
     1
102
RTVSPost2010Prop28
280
     0
102
RTVSPost2010PropOp28
 70
     1
102
RTVSPost2010Prop29
280
     1
102
RTVSPost2010PropOp29
 70
     1
102
RTVSPost2010Prop30
280
     1
102
RTVSPost2010PropOp30
 70
     1
102
RTVSPost2010Prop31
280
     0
102
RTVSPost2010PropOp31
 70
     1
102
RTVSPost2010Prop32
280
     0
102
RTVSPost2010PropOp32
 70
     1
102
RTVSPost2010Prop33
280
     0
102
RTVSPost2010PropOp33
 70
     1
102
RTVSPost2010Prop34
280
     0
102
RTVSPost2010PropOp34
 70
     1
102
RTVSPost2010Prop35
280
     0
102
RTVSPost2010PropOp35
 70
     1
102
RTVSPost2010Prop36
280
     0
102
RTVSPost2010PropOp36
 70
     1
102
RTVSPost2010Prop37
 90
       50
102
RTVSPost2010PropOp37
 70
     1
102
RTVSPost2010Prop38
140
0.0
102
RTVSPost2010PropOp38
 70
     1
102
RTVSPost2010Prop39
140
1.0
102
RTVSPost2010PropOp39
 70
     1
102
RTVSPost2010Prop40
 90
        0
102
RTVSPost2010PropOp40
 70
     1
102
RTVSPost2010Prop41ColorIndex
 90
       18
102
RTVSPost2010Prop41ColorRGB
 90
        0
102
RTVSPost2010PropOp41
 70
     1
102
RTVSPost2010Prop42
 90
       50
102
RTVSPost2010PropOp42
 70
     1
102
RTVSPost2010Prop43
 90
        3
102
RTVSPost2010PropOp43
 70
     1
102
RTVSPost2010Prop44ColorIndex
 90
        5
102
RTVSPost2010Prop44ColorRGB
 90
      255
102
RTVSPost2010PropOp44
 70
     1
102
RTVSPost2010Prop45
280
     0
102
RTVSPost2010PropOp45
 70
     1
102
RTVSPost2010Prop46
 90
       50
102
RTVSPost2010PropOp46
 70
     1
102
RTVSPost2010Prop47
 90
       50
102
RTVSPost2010PropOp47
 70
     1
102
RTVSPost2010Prop48
 90
       50
102
RTVSPost2010PropOp48
 70
     1
102
RTVSPost2010Prop49
280
     0
102
RTVSPost2010PropOp49
 70
     1
102
RTVSPost2010Prop50
 90
       50
102
RTVSPost2010PropOp50
 70
     1
102
RTVSPost2010Prop51ColorIndex
 90
      256
102
RTVSPost2010Prop51ColorRGB
 90
-16777216
102
RTVSPost2010PropOp51
 70
     0
102
RTVSPost2010Prop52
140
1.0
102
RTVSPost2010PropOp52
 70
     0
102
RTVSPost2010Prop53
 90
        2
102
RTVSPost2010PropOp53
 70
     1
102
RTVSPost2010Prop54
  1
strokes_ogs.tif
102
RTVSPost2010PropOp54
 70
     1
102
RTVSPost2010Prop55
280
     0
102
RTVSPost2010PropOp55
 70
     1
102
RTVSPost2010Prop56
140
1.0
102
RTVSPost2010PropOp56
 70
     1
102
RTVSPost2010Prop57
140
1.0
102
RTVSPost2010PropOp57
 70
     1
102
RTVSPropertyOp0
 70
     1
102
RTVSPropertyOp1
 70
     1
102
RTVSPropertyOp2
 70
     1
102
RTVSPropertyOp3
 70
     1
102
RTVSPropertyOp4
 70
     1
102
RTVSPropertyOp5
 70
     1
102
RTVSPropertyOp6
 70
     1
102
RTVSPropertyOp7
 70
     1
102
RTVSPropertyOp8
 70
     1
102
RTVSPropertyOp9
 70
     1
102
RTVSPropertyOp10
 70
     1
102
RTVSPropertyOp11
 70
     1
102
RTVSPropertyOp12
 70
     1
102
RTVSPropertyOp13
 70
     1
102
RTVSPropertyOp14
 70
     1
102
RTVSPropertyOp15
 70
     1
102
RTVSPropertyOp16
 70
     1
102
RTVSPropertyOp17
 70
     1
102
RTVSPropertyOp18
 70
     1
102
RTVSPropertyOp19
 70
     1
102
RTVSPropertyOp20
 70
     1
102
RTVSPropertyOp21
 70
     1
102
RTVSPropertyOp22
 70
     1
102
RTVSPropertyOp23
 70
     1
102
RTVSPropertyOp24
 70
     1
102
RTVSPropertyOp25
 70
     1
102
RTVSPropertyOp26
 70
     1
102
RTVSPropertyOp27
 70
     1
102
RTVSPropertyOp28
 70
     1
102
RTVSPropertyOp29
 70
     1
102
RTVSPropertyOp30
 70
     1
102
RTVSPropertyOp31
 70
     1
102
RTVSPropertyOp32
 70
     1
102
RTVSPropertyOp33
 70
     1
102
RTVSPropertyOp34
 70
     1
102
RTVSPropertyOp35
 70
     1
102
RTVSPropertyOp36
 70
     1
102
RTVSPropertyOp37
 70
     1
102
RTVSPropertyOp38
 70
     1
102
RTVSPropertyOp39
 70
     1
102
RTVSPropertyOp40
 70
     1
102
RTVSPropertyOp41
 70
     1
102
RTVSPropertyOp42
 70
     1
102
RTVSPropertyOp43
 70
     1
102
RTVSPropertyOp44
 70
     1
102
RTVSPropertyOp45
 70
     1
102
RTVSPropertyOp46
 70
     1
102
RTVSPropertyOp47
 70
     1
102
RTVSPropertyOp48
 70
     1
102
RTVSPropertyOp49
 70
     1
102
RTVSPropertyOp50
 70
     1
102
RTVSPropertyOp51
 70
     0
102
RTVSPropertyOp52
 70
     0
102
RTVSPropertyOp53
 70
     1
102
RTVSPropertyOp54
 70
     1
102
RTVSPropertyOp55
 70
     1
102
RTVSPropertyOp56
 70
     1
102
RTVSPropertyOp57
 70
     1
102
RTVSPropertyOp58
 70
     1
102
RTVSPropertyOp59
 70
     1
102
RTVSPropertyOp60
 70
     1
102
RTVSPropertyOp61
 70
     1
102
RTVSPropertyOp62
 70
     1
  0
XRECORD
  5
214
102
{ACAD_REACTORS
330
213
102
}
330
213
100
AcDbXrecord
280
     1
102
RTVSPost2010Prop28
280
     0
102
RTVSPost2010PropOp28
 70
     1
102
RTVSPost2010Prop29
280
     1
102
RTVSPost2010PropOp29
 70
     1
102
RTVSPost2010Prop30
280
     1
102
RTVSPost2010PropOp30
 70
     1
102
RTVSPost2010Prop31
280
     0
102
RTVSPost2010PropOp31
 70
     1
102
RTVSPost2010Prop32
280
     0
102
RTVSPost2010PropOp32
 70
     1
102
RTVSPost2010Prop33
280
     0
102
RTVSPost2010PropOp33
 70
     1
102
RTVSPost2010Prop34
280
     0
102
RTVSPost2010PropOp34
 70
     1
102
RTVSPost2010Prop35
280
     0
102
RTVSPost2010PropOp35
 70
     1
102
RTVSPost2010Prop36
280
     0
102
RTVSPost2010PropOp36
 70
     1
102
RTVSPost2010Prop37
 90
       50
102
RTVSPost2010PropOp37
 70
     1
102
RTVSPost2010Prop38
140
0.0
102
RTVSPost2010PropOp38
 70
     1
102
RTVSPost2010Prop39
140
1.0
102
RTVSPost2010PropOp39
 70
     1
102
RTVSPost2010Prop40
 90
        0
102
RTVSPost2010PropOp40
 70
     1
102
RTVSPost2010Prop41ColorIndex
 90
       18
102
RTVSPost2010Prop41ColorRGB
 90
        0
102
RTVSPost2010PropOp41
 70
     1
102
RTVSPost2010Prop42
 90
       50
102
RTVSPost2010PropOp42
 70
     1
102
RTVSPost2010Prop43
 90
        3
102
RTVSPost2010PropOp43
 70
     1
102
RTVSPost2010Prop44ColorIndex
 90
        5
102
RTVSPost2010Prop44ColorRGB
 90
      255
102
RTVSPost2010PropOp44
 70
     1
102
RTVSPost2010Prop45
280
     0
102
RTVSPost2010PropOp45
 70
     1
102
RTVSPost2010Prop46
 90
       50
102
RTVSPost2010PropOp46
 70
     1
102
RTVSPost2010Prop47
 90
       50
102
RTVSPost2010PropOp47
 70
     1
102
RTVSPost2010Prop48
 90
       50
102
RTVSPost2010PropOp48
 70
     1
102
RTVSPost2010Prop49
280
     0
102
RTVSPost2010PropOp49
 70
     1
102
RTVSPost2010Prop50
 90
       50
102
RTVSPost2010PropOp50
 70
     1
102
RTVSPost2010Prop51ColorIndex
 90
      256
102
RTVSPost2010Prop51ColorRGB
 90
-16777216
102
RTVSPost2010PropOp51
 70
     0
102
RTVSPost2010Prop52
140
1.0
102
RTVSPost2010PropOp52
 70
     0
102
RTVSPost2010Prop53
 90
        2
102
RTVSPost2010PropOp53
 70
     1
102
RTVSPost2010Prop54
  1
strokes_ogs.tif
102
RTVSPost2010PropOp54
 70
     1
102
RTVSPost2010Prop55
280
     0
102
RTVSPost2010PropOp55
 70
     1
102
RTVSPost2010Prop56
140
1.0
102
RTVSPost2010PropOp56
 70
     1
102
RTVSPost2010Prop57
140
1.0
102
RTVSPost2010PropOp57
 70
     1
102
RTVSPropertyOp0
 70
     1
102
RTVSPropertyOp1
 70
     1
102
RTVSPropertyOp2
 70
     1
102
RTVSPropertyOp3
 70
     1
102
RTVSPropertyOp4
 70
     1
102
RTVSPropertyOp5
 70
     1
102
RTVSPropertyOp6
 70
     1
102
RTVSPropertyOp7
 70
     1
102
RTVSPropertyOp8
 70
     1
102
RTVSPropertyOp9
 70
     1
102
RTVSPropertyOp10
 70
     1
102
RTVSPropertyOp11
 70
     1
102
RTVSPropertyOp12
 70
     1
102
RTVSPropertyOp13
 70
     1
102
RTVSPropertyOp14
 70
     1
102
RTVSPropertyOp15
 70
     1
102
RTVSPropertyOp16
 70
     1
102
RTVSPropertyOp17
 70
     1
102
RTVSPropertyOp18
 70
     1
102
RTVSPropertyOp19
 70
     1
102
RTVSPropertyOp20
 70
     1
102
RTVSPropertyOp21
 70
     1
102
RTVSPropertyOp22
 70
     1
102
RTVSPropertyOp23
 70
     1
102
RTVSPropertyOp24
 70
     1
102
RTVSPropertyOp25
 70
     1
102
RTVSPropertyOp26
 70
     1
102
RTVSPropertyOp27
 70
     1
102
RTVSPropertyOp28
 70
     1
102
RTVSPropertyOp29
 70
     1
102
RTVSPropertyOp30
 70
     1
102
RTVSPropertyOp31
 70
     1
102
RTVSPropertyOp32
 70
     1
102
RTVSPropertyOp33
 70
     1
102
RTVSPropertyOp34
 70
     1
102
RTVSPropertyOp35
 70
     1
102
RTVSPropertyOp36
 70
     1
102
RTVSPropertyOp37
 70
     1
102
RTVSPropertyOp38
 70
     1
102
RTVSPropertyOp39
 70
     1
102
RTVSPropertyOp40
 70
     1
102
RTVSPropertyOp41
 70
     1
102
RTVSPropertyOp42
 70
     1
102
RTVSPropertyOp43
 70
     1
102
RTVSPropertyOp44
 70
     1
102
RTVSPropertyOp45
 70
     1
102
RTVSPropertyOp46
 70
     1
102
RTVSPropertyOp47
 70
     1
102
RTVSPropertyOp48
 70
     1
102
RTVSPropertyOp49
 70
     1
102
RTVSPropertyOp50
 70
     1
102
RTVSPropertyOp51
 70
     0
102
RTVSPropertyOp52
 70
     0
102
RTVSPropertyOp53
 70
     1
102
RTVSPropertyOp54
 70
     1
102
RTVSPropertyOp55
 70
     1
102
RTVSPropertyOp56
 70
     1
102
RTVSPropertyOp57
 70
     1
102
RTVSPropertyOp58
 70
     1
102
RTVSPropertyOp59
 70
     1
102
RTVSPropertyOp60
 70
     1
102
RTVSPropertyOp61
 70
     1
102
RTVSPropertyOp62
 70
     1
  0
XRECORD
  5
216
102
{ACAD_REACTORS
330
215
102
}
330
215
100
AcDbXrecord
280
     1
102
RTVSPost2010Prop28
280
     0
102
RTVSPost2010PropOp28
 70
     1
102
RTVSPost2010Prop29
280
     1
102
RTVSPost2010PropOp29
 70
     1
102
RTVSPost2010Prop30
280
     1
102
RTVSPost2010PropOp30
 70
     1
102
RTVSPost2010Prop31
280
     0
102
RTVSPost2010PropOp31
 70
     1
102
RTVSPost2010Prop32
280
     0
102
RTVSPost2010PropOp32
 70
     1
102
RTVSPost2010Prop33
280
     0
102
RTVSPost2010PropOp33
 70
     1
102
RTVSPost2010Prop34
280
     0
102
RTVSPost2010PropOp34
 70
     1
102
RTVSPost2010Prop35
280
     0
102
RTVSPost2010PropOp35
 70
     1
102
RTVSPost2010Prop36
280
     0
102
RTVSPost2010PropOp36
 70
     1
102
RTVSPost2010Prop37
 90
       50
102
RTVSPost2010PropOp37
 70
     1
102
RTVSPost2010Prop38
140
0.0
102
RTVSPost2010PropOp38
 70
     1
102
RTVSPost2010Prop39
140
1.0
102
RTVSPost2010PropOp39
 70
     1
102
RTVSPost2010Prop40
 90
        0
102
RTVSPost2010PropOp40
 70
     1
102
RTVSPost2010Prop41ColorIndex
 90
       18
102
RTVSPost2010Prop41ColorRGB
 90
        0
102
RTVSPost2010PropOp41
 70
     1
102
RTVSPost2010Prop42
 90
       50
102
RTVSPost2010PropOp42
 70
     1
102
RTVSPost2010Prop43
 90
        3
102
RTVSPost2010PropOp43
 70
     1
102
RTVSPost2010Prop44ColorIndex
 90
        5
102
RTVSPost2010Prop44ColorRGB
 90
      255
102
RTVSPost2010PropOp44
 70
     1
102
RTVSPost2010Prop45
280
     0
102
RTVSPost2010PropOp45
 70
     1
102
RTVSPost2010Prop46
 90
       50
102
RTVSPost2010PropOp46
 70
     1
102
RTVSPost2010Prop47
 90
       50
102
RTVSPost2010PropOp47
 70
     1
102
RTVSPost2010Prop48
 90
       50
102
RTVSPost2010PropOp48
 70
     1
102
RTVSPost2010Prop49
280
     0
102
RTVSPost2010PropOp49
 70
     1
102
RTVSPost2010Prop50
 90
       50
102
RTVSPost2010PropOp50
 70
     1
102
RTVSPost2010Prop51ColorIndex
 90
      256
102
RTVSPost2010Prop51ColorRGB
 90
-16777216
102
RTVSPost2010PropOp51
 70
     0
102
RTVSPost2010Prop52
140
1.0
102
RTVSPost2010PropOp52
 70
     0
102
RTVSPost2010Prop53
 90
        2
102
RTVSPost2010PropOp53
 70
     1
102
RTVSPost2010Prop54
  1
strokes_ogs.tif
102
RTVSPost2010PropOp54
 70
     1
102
RTVSPost2010Prop55
280
     0
102
RTVSPost2010PropOp55
 70
     1
102
RTVSPost2010Prop56
140
1.0
102
RTVSPost2010PropOp56
 70
     1
102
RTVSPost2010Prop57
140
1.0
102
RTVSPost2010PropOp57
 70
     1
102
RTVSPropertyOp0
 70
     1
102
RTVSPropertyOp1
 70
     1
102
RTVSPropertyOp2
 70
     1
102
RTVSPropertyOp3
 70
     1
102
RTVSPropertyOp4
 70
     1
102
RTVSPropertyOp5
 70
     1
102
RTVSPropertyOp6
 70
     1
102
RTVSPropertyOp7
 70
     1
102
RTVSPropertyOp8
 70
     1
102
RTVSPropertyOp9
 70
     1
102
RTVSPropertyOp10
 70
     1
102
RTVSPropertyOp11
 70
     1
102
RTVSPropertyOp12
 70
     1
102
RTVSPropertyOp13
 70
     1
102
RTVSPropertyOp14
 70
     1
102
RTVSPropertyOp15
 70
     1
102
RTVSPropertyOp16
 70
     1
102
RTVSPropertyOp17
 70
     1
102
RTVSPropertyOp18
 70
     1
102
RTVSPropertyOp19
 70
     1
102
RTVSPropertyOp20
 70
     1
102
RTVSPropertyOp21
 70
     1
102
RTVSPropertyOp22
 70
     1
102
RTVSPropertyOp23
 70
     1
102
RTVSPropertyOp24
 70
     1
102
RTVSPropertyOp25
 70
     1
102
RTVSPropertyOp26
 70
     1
102
RTVSPropertyOp27
 70
     1
102
RTVSPropertyOp28
 70
     1
102
RTVSPropertyOp29
 70
     1
102
RTVSPropertyOp30
 70
     1
102
RTVSPropertyOp31
 70
     1
102
RTVSPropertyOp32
 70
     1
102
RTVSPropertyOp33
 70
     1
102
RTVSPropertyOp34
 70
     1
102
RTVSPropertyOp35
 70
     1
102
RTVSPropertyOp36
 70
     1
102
RTVSPropertyOp37
 70
     1
102
RTVSPropertyOp38
 70
     1
102
RTVSPropertyOp39
 70
     1
102
RTVSPropertyOp40
 70
     1
102
RTVSPropertyOp41
 70
     1
102
RTVSPropertyOp42
 70
     1
102
RTVSPropertyOp43
 70
     1
102
RTVSPropertyOp44
 70
     1
102
RTVSPropertyOp45
 70
     1
102
RTVSPropertyOp46
 70
     1
102
RTVSPropertyOp47
 70
     1
102
RTVSPropertyOp48
 70
     1
102
RTVSPropertyOp49
 70
     1
102
RTVSPropertyOp50
 70
     1
102
RTVSPropertyOp51
 70
     0
102
RTVSPropertyOp52
 70
     0
102
RTVSPropertyOp53
 70
     1
102
RTVSPropertyOp54
 70
     1
102
RTVSPropertyOp55
 70
     1
102
RTVSPropertyOp56
 70
     1
102
RTVSPropertyOp57
 70
     1
102
RTVSPropertyOp58
 70
     1
102
RTVSPropertyOp59
 70
     1
102
RTVSPropertyOp60
 70
     1
102
RTVSPropertyOp61
 70
     1
102
RTVSPropertyOp62
 70
     1
  0
XRECORD
  5
21E
102
{ACAD_REACTORS
330
21D
102
}
330
21D
100
AcDbXrecord
280
     1
102
RTVSPost2010Prop28
280
     0
102
RTVSPost2010PropOp28
 70
     1
102
RTVSPost2010Prop29
280
     1
102
RTVSPost2010PropOp29
 70
     1
102
RTVSPost2010Prop30
280
     1
102
RTVSPost2010PropOp30
 70
     1
102
RTVSPost2010Prop31
280
     0
102
RTVSPost2010PropOp31
 70
     1
102
RTVSPost2010Prop32
280
     0
102
RTVSPost2010PropOp32
 70
     1
102
RTVSPost2010Prop33
280
     0
102
RTVSPost2010PropOp33
 70
     1
102
RTVSPost2010Prop34
280
     0
102
RTVSPost2010PropOp34
 70
     1
102
RTVSPost2010Prop35
280
     0
102
RTVSPost2010PropOp35
 70
     1
102
RTVSPost2010Prop36
280
     0
102
RTVSPost2010PropOp36
 70
     1
102
RTVSPost2010Prop37
 90
       50
102
RTVSPost2010PropOp37
 70
     1
102
RTVSPost2010Prop38
140
0.0
102
RTVSPost2010PropOp38
 70
     1
102
RTVSPost2010Prop39
140
1.0
102
RTVSPost2010PropOp39
 70
     1
102
RTVSPost2010Prop40
 90
        0
102
RTVSPost2010PropOp40
 70
     1
102
RTVSPost2010Prop41ColorIndex
 90
       18
102
RTVSPost2010Prop41ColorRGB
 90
        0
102
RTVSPost2010PropOp41
 70
     1
102
RTVSPost2010Prop42
 90
       50
102
RTVSPost2010PropOp42
 70
     1
102
RTVSPost2010Prop43
 90
        3
102
RTVSPost2010PropOp43
 70
     1
102
RTVSPost2010Prop44ColorIndex
 90
        5
102
RTVSPost2010Prop44ColorRGB
 90
      255
102
RTVSPost2010PropOp44
 70
     1
102
RTVSPost2010Prop45
280
     0
102
RTVSPost2010PropOp45
 70
     1
102
RTVSPost2010Prop46
 90
       50
102
RTVSPost2010PropOp46
 70
     1
102
RTVSPost2010Prop47
 90
       50
102
RTVSPost2010PropOp47
 70
     1
102
RTVSPost2010Prop48
 90
       50
102
RTVSPost2010PropOp48
 70
     1
102
RTVSPost2010Prop49
280
     0
102
RTVSPost2010PropOp49
 70
     1
102
RTVSPost2010Prop50
 90
       50
102
RTVSPost2010PropOp50
 70
     1
102
RTVSPost2010Prop51ColorIndex
 90
      256
102
RTVSPost2010Prop51ColorRGB
 90
-16777216
102
RTVSPost2010PropOp51
 70
     0
102
RTVSPost2010Prop52
140
1.0
102
RTVSPost2010PropOp52
 70
     0
102
RTVSPost2010Prop53
 90
        2
102
RTVSPost2010PropOp53
 70
     1
102
RTVSPost2010Prop54
  1
strokes_ogs.tif
102
RTVSPost2010PropOp54
 70
     1
102
RTVSPost2010Prop55
280
     0
102
RTVSPost2010PropOp55
 70
     1
102
RTVSPost2010Prop56
140
1.0
102
RTVSPost2010PropOp56
 70
     1
102
RTVSPost2010Prop57
140
1.0
102
RTVSPost2010PropOp57
 70
     1
102
RTVSPropertyOp0
 70
     1
102
RTVSPropertyOp1
 70
     1
102
RTVSPropertyOp2
 70
     1
102
RTVSPropertyOp3
 70
     1
102
RTVSPropertyOp4
 70
     1
102
RTVSPropertyOp5
 70
     1
102
RTVSPropertyOp6
 70
     1
102
RTVSPropertyOp7
 70
     1
102
RTVSPropertyOp8
 70
     1
102
RTVSPropertyOp9
 70
     1
102
RTVSPropertyOp10
 70
     1
102
RTVSPropertyOp11
 70
     1
102
RTVSPropertyOp12
 70
     1
102
RTVSPropertyOp13
 70
     1
102
RTVSPropertyOp14
 70
     1
102
RTVSPropertyOp15
 70
     1
102
RTVSPropertyOp16
 70
     1
102
RTVSPropertyOp17
 70
     1
102
RTVSPropertyOp18
 70
     1
102
RTVSPropertyOp19
 70
     1
102
RTVSPropertyOp20
 70
     1
102
RTVSPropertyOp21
 70
     1
102
RTVSPropertyOp22
 70
     1
102
RTVSPropertyOp23
 70
     1
102
RTVSPropertyOp24
 70
     1
102
RTVSPropertyOp25
 70
     1
102
RTVSPropertyOp26
 70
     1
102
RTVSPropertyOp27
 70
     1
102
RTVSPropertyOp28
 70
     1
102
RTVSPropertyOp29
 70
     1
102
RTVSPropertyOp30
 70
     1
102
RTVSPropertyOp31
 70
     1
102
RTVSPropertyOp32
 70
     1
102
RTVSPropertyOp33
 70
     1
102
RTVSPropertyOp34
 70
     1
102
RTVSPropertyOp35
 70
     1
102
RTVSPropertyOp36
 70
     1
102
RTVSPropertyOp37
 70
     1
102
RTVSPropertyOp38
 70
     1
102
RTVSPropertyOp39
 70
     1
102
RTVSPropertyOp40
 70
     1
102
RTVSPropertyOp41
 70
     1
102
RTVSPropertyOp42
 70
     1
102
RTVSPropertyOp43
 70
     1
102
RTVSPropertyOp44
 70
     1
102
RTVSPropertyOp45
 70
     1
102
RTVSPropertyOp46
 70
     1
102
RTVSPropertyOp47
 70
     1
102
RTVSPropertyOp48
 70
     1
102
RTVSPropertyOp49
 70
     1
102
RTVSPropertyOp50
 70
     1
102
RTVSPropertyOp51
 70
     0
102
RTVSPropertyOp52
 70
     0
102
RTVSPropertyOp53
 70
     1
102
RTVSPropertyOp54
 70
     1
102
RTVSPropertyOp55
 70
     1
102
RTVSPropertyOp56
 70
     1
102
RTVSPropertyOp57
 70
     1
102
RTVSPropertyOp58
 70
     1
102
RTVSPropertyOp59
 70
     1
102
RTVSPropertyOp60
 70
     1
102
RTVSPropertyOp61
 70
     1
102
RTVSPropertyOp62
 70
     1
  0
XRECORD
  5
23A
102
{ACAD_REACTORS
330
239
102
}
330
239
100
AcDbXrecord
280
     1
102
RTVSPost2010Prop28
280
     0
102
RTVSPost2010PropOp28
 70
     0
102
RTVSPost2010Prop29
280
     1
102
RTVSPost2010PropOp29
 70
     0
102
RTVSPost2010Prop30
280
     1
102
RTVSPost2010PropOp30
 70
     0
102
RTVSPost2010Prop31
280
     0
102
RTVSPost2010PropOp31
 70
     0
102
RTVSPost2010Prop32
280
     0
102
RTVSPost2010PropOp32
 70
     0
102
RTVSPost2010Prop33
280
     0
102
RTVSPost2010PropOp33
 70
     0
102
RTVSPost2010Prop34
280
     0
102
RTVSPost2010PropOp34
 70
     0
102
RTVSPost2010Prop35
280
     0
102
RTVSPost2010PropOp35
 70
     0
102
RTVSPost2010Prop36
280
     0
102
RTVSPost2010PropOp36
 70
     0
102
RTVSPost2010Prop37
 90
       50
102
RTVSPost2010PropOp37
 70
     0
102
RTVSPost2010Prop38
140
0.0
102
RTVSPost2010PropOp38
 70
     0
102
RTVSPost2010Prop39
140
1.0
102
RTVSPost2010PropOp39
 70
     0
102
RTVSPost2010Prop40
 90
        0
102
RTVSPost2010PropOp40
 70
     0
102
RTVSPost2010Prop41ColorIndex
 90
       18
102
RTVSPost2010Prop41ColorRGB
 90
        0
102
RTVSPost2010PropOp41
 70
     0
102
RTVSPost2010Prop42
 90
       50
102
RTVSPost2010PropOp42
 70
     0
102
RTVSPost2010Prop43
 90
        3
102
RTVSPost2010PropOp43
 70
     0
102
RTVSPost2010Prop44ColorIndex
 90
        5
102
RTVSPost2010Prop44ColorRGB
 90
      255
102
RTVSPost2010PropOp44
 70
     0
102
RTVSPost2010Prop45
280
     0
102
RTVSPost2010PropOp45
 70
     0
102
RTVSPost2010Prop46
 90
       50
102
RTVSPost2010PropOp46
 70
     0
102
RTVSPost2010Prop47
 90
       50
102
RTVSPost2010PropOp47
 70
     0
102
RTVSPost2010Prop48
 90
       50
102
RTVSPost2010PropOp48
 70
     0
102
RTVSPost2010Prop49
280
     0
102
RTVSPost2010PropOp49
 70
     0
102
RTVSPost2010Prop50
 90
       50
102
RTVSPost2010PropOp50
 70
     0
102
RTVSPost2010Prop51ColorIndex
 90
      256
102
RTVSPost2010Prop51ColorRGB
 90
-16777216
102
RTVSPost2010PropOp51
 70
     0
102
RTVSPost2010Prop52
140
1.0
102
RTVSPost2010PropOp52
 70
     0
102
RTVSPost2010Prop53
 90
        2
102
RTVSPost2010PropOp53
 70
     0
102
RTVSPost2010Prop54
  1
strokes_ogs.tif
102
RTVSPost2010PropOp54
 70
     0
102
RTVSPost2010Prop55
280
     0
102
RTVSPost2010PropOp55
 70
     0
102
RTVSPost2010Prop56
140
1.0
102
RTVSPost2010PropOp56
 70
     0
102
RTVSPost2010Prop57
140
1.0
102
RTVSPost2010PropOp57
 70
     0
102
RTVSPropertyOp0
 70
     0
102
RTVSPropertyOp1
 70
     0
102
RTVSPropertyOp2
 70
     0
102
RTVSPropertyOp3
 70
     0
102
RTVSPropertyOp4
 70
     0
102
RTVSPropertyOp5
 70
     0
102
RTVSPropertyOp6
 70
     0
102
RTVSPropertyOp7
 70
     0
102
RTVSPropertyOp8
 70
     0
102
RTVSPropertyOp9
 70
     0
102
RTVSPropertyOp10
 70
     0
102
RTVSPropertyOp11
 70
     0
102
RTVSPropertyOp12
 70
     0
102
RTVSPropertyOp13
 70
     0
102
RTVSPropertyOp14
 70
     2
102
RTVSPropertyOp15
 70
     0
102
RTVSPropertyOp16
 70
     0
102
RTVSPropertyOp17
 70
     0
102
RTVSPropertyOp18
 70
     0
102
RTVSPropertyOp19
 70
     0
102
RTVSPropertyOp20
 70
     0
102
RTVSPropertyOp21
 70
     0
102
RTVSPropertyOp22
 70
     0
102
RTVSPropertyOp23
 70
     0
102
RTVSPropertyOp24
 70
     0
102
RTVSPropertyOp25
 70
     0
102
RTVSPropertyOp26
 70
     0
102
RTVSPropertyOp27
 70
     0
102
RTVSPropertyOp28
 70
     0
102
RTVSPropertyOp29
 70
     0
102
RTVSPropertyOp30
 70
     0
102
RTVSPropertyOp31
 70
     0
102
RTVSPropertyOp32
 70
     0
102
RTVSPropertyOp33
 70
     0
102
RTVSPropertyOp34
 70
     0
102
RTVSPropertyOp35
 70
     0
102
RTVSPropertyOp36
 70
     0
102
RTVSPropertyOp37
 70
     0
102
RTVSPropertyOp38
 70
     0
102
RTVSPropertyOp39
 70
     0
102
RTVSPropertyOp40
 70
     0
102
RTVSPropertyOp41
 70
     0
102
RTVSPropertyOp42
 70
     0
102
RTVSPropertyOp43
 70
     0
102
RTVSPropertyOp44
 70
     0
102
RTVSPropertyOp45
 70
     0
102
RTVSPropertyOp46
 70
     0
102
RTVSPropertyOp47
 70
     0
102
RTVSPropertyOp48
 70
     0
102
RTVSPropertyOp49
 70
     0
102
RTVSPropertyOp50
 70
     0
102
RTVSPropertyOp51
 70
     0
102
RTVSPropertyOp52
 70
     0
102
RTVSPropertyOp53
 70
     0
102
RTVSPropertyOp54
 70
     0
102
RTVSPropertyOp55
 70
     0
102
RTVSPropertyOp56
 70
     0
102
RTVSPropertyOp57
 70
     0
102
RTVSPropertyOp58
 70
     0
102
RTVSPropertyOp59
 70
     0
102
RTVSPropertyOp60
 70
     0
102
RTVSPropertyOp61
 70
     0
102
RTVSPropertyOp62
 70
     0
  0
XRECORD
  5
22A
102
{ACAD_REACTORS
330
229
102
}
330
229
100
AcDbXrecord
280
     1
102
RTVSPost2010Prop28
280
     0
102
RTVSPost2010PropOp28
 70
     1
102
RTVSPost2010Prop29
280
     1
102
RTVSPost2010PropOp29
 70
     1
102
RTVSPost2010Prop30
280
     1
102
RTVSPost2010PropOp30
 70
     1
102
RTVSPost2010Prop31
280
     0
102
RTVSPost2010PropOp31
 70
     1
102
RTVSPost2010Prop32
280
     0
102
RTVSPost2010PropOp32
 70
     1
102
RTVSPost2010Prop33
280
     0
102
RTVSPost2010PropOp33
 70
     1
102
RTVSPost2010Prop34
280
     0
102
RTVSPost2010PropOp34
 70
     1
102
RTVSPost2010Prop35
280
     0
102
RTVSPost2010PropOp35
 70
     1
102
RTVSPost2010Prop36
280
     0
102
RTVSPost2010PropOp36
 70
     1
102
RTVSPost2010Prop37
 90
       50
102
RTVSPost2010PropOp37
 70
     1
102
RTVSPost2010Prop38
140
0.0
102
RTVSPost2010PropOp38
 70
     1
102
RTVSPost2010Prop39
140
1.0
102
RTVSPost2010PropOp39
 70
     1
102
RTVSPost2010Prop40
 90
        0
102
RTVSPost2010PropOp40
 70
     1
102
RTVSPost2010Prop41ColorIndex
 90
       18
102
RTVSPost2010Prop41ColorRGB
 90
        0
102
RTVSPost2010PropOp41
 70
     1
102
RTVSPost2010Prop42
 90
       50
102
RTVSPost2010PropOp42
 70
     1
102
RTVSPost2010Prop43
 90
        3
102
RTVSPost2010PropOp43
 70
     1
102
RTVSPost2010Prop44ColorIndex
 90
        5
102
RTVSPost2010Prop44ColorRGB
 90
      255
102
RTVSPost2010PropOp44
 70
     1
102
RTVSPost2010Prop45
280
     0
102
RTVSPost2010PropOp45
 70
     1
102
RTVSPost2010Prop46
 90
       50
102
RTVSPost2010PropOp46
 70
     1
102
RTVSPost2010Prop47
 90
       50
102
RTVSPost2010PropOp47
 70
     1
102
RTVSPost2010Prop48
 90
       50
102
RTVSPost2010PropOp48
 70
     1
102
RTVSPost2010Prop49
280
     0
102
RTVSPost2010PropOp49
 70
     1
102
RTVSPost2010Prop50
 90
       50
102
RTVSPost2010PropOp50
 70
     1
102
RTVSPost2010Prop51ColorIndex
 90
      256
102
RTVSPost2010Prop51ColorRGB
 90
-16777216
102
RTVSPost2010PropOp51
 70
     0
102
RTVSPost2010Prop52
140
1.0
102
RTVSPost2010PropOp52
 70
     0
102
RTVSPost2010Prop53
 90
        2
102
RTVSPost2010PropOp53
 70
     1
102
RTVSPost2010Prop54
  1
strokes_ogs.tif
102
RTVSPost2010PropOp54
 70
     1
102
RTVSPost2010Prop55
280
     0
102
RTVSPost2010PropOp55
 70
     1
102
RTVSPost2010Prop56
140
1.0
102
RTVSPost2010PropOp56
 70
     1
102
RTVSPost2010Prop57
140
1.0
102
RTVSPost2010PropOp57
 70
     1
102
RTVSPropertyOp0
 70
     1
102
RTVSPropertyOp1
 70
     1
102
RTVSPropertyOp2
 70
     1
102
RTVSPropertyOp3
 70
     1
102
RTVSPropertyOp4
 70
     1
102
RTVSPropertyOp5
 70
     1
102
RTVSPropertyOp6
 70
     1
102
RTVSPropertyOp7
 70
     1
102
RTVSPropertyOp8
 70
     1
102
RTVSPropertyOp9
 70
     1
102
RTVSPropertyOp10
 70
     1
102
RTVSPropertyOp11
 70
     1
102
RTVSPropertyOp12
 70
     1
102
RTVSPropertyOp13
 70
     1
102
RTVSPropertyOp14
 70
     1
102
RTVSPropertyOp15
 70
     1
102
RTVSPropertyOp16
 70
     1
102
RTVSPropertyOp17
 70
     1
102
RTVSPropertyOp18
 70
     1
102
RTVSPropertyOp19
 70
     1
102
RTVSPropertyOp20
 70
     1
102
RTVSPropertyOp21
 70
     1
102
RTVSPropertyOp22
 70
     1
102
RTVSPropertyOp23
 70
     1
102
RTVSPropertyOp24
 70
     1
102
RTVSPropertyOp25
 70
     1
102
RTVSPropertyOp26
 70
     1
102
RTVSPropertyOp27
 70
     1
102
RTVSPropertyOp28
 70
     1
102
RTVSPropertyOp29
 70
     1
102
RTVSPropertyOp30
 70
     1
102
RTVSPropertyOp31
 70
     1
102
RTVSPropertyOp32
 70
     1
102
RTVSPropertyOp33
 70
     1
102
RTVSPropertyOp34
 70
     1
102
RTVSPropertyOp35
 70
     1
102
RTVSPropertyOp36
 70
     1
102
RTVSPropertyOp37
 70
     1
102
RTVSPropertyOp38
 70
     1
102
RTVSPropertyOp39
 70
     1
102
RTVSPropertyOp40
 70
     1
102
RTVSPropertyOp41
 70
     1
102
RTVSPropertyOp42
 70
     1
102
RTVSPropertyOp43
 70
     1
102
RTVSPropertyOp44
 70
     1
102
RTVSPropertyOp45
 70
     1
102
RTVSPropertyOp46
 70
     1
102
RTVSPropertyOp47
 70
     1
102
RTVSPropertyOp48
 70
     1
102
RTVSPropertyOp49
 70
     1
102
RTVSPropertyOp50
 70
     1
102
RTVSPropertyOp51
 70
     0
102
RTVSPropertyOp52
 70
     0
102
RTVSPropertyOp53
 70
     1
102
RTVSPropertyOp54
 70
     1
102
RTVSPropertyOp55
 70
     1
102
RTVSPropertyOp56
 70
     1
102
RTVSPropertyOp57
 70
     1
102
RTVSPropertyOp58
 70
     1
102
RTVSPropertyOp59
 70
     1
102
RTVSPropertyOp60
 70
     1
102
RTVSPropertyOp61
 70
     1
102
RTVSPropertyOp62
 70
     1
  0
XRECORD
  5
23C
102
{ACAD_REACTORS
330
23B
102
}
330
23B
100
AcDbXrecord
280
     1
102
RTVSPost2010Prop28
280
     0
102
RTVSPost2010PropOp28
 70
     0
102
RTVSPost2010Prop29
280
     1
102
RTVSPost2010PropOp29
 70
     0
102
RTVSPost2010Prop30
280
     1
102
RTVSPost2010PropOp30
 70
     0
102
RTVSPost2010Prop31
280
     0
102
RTVSPost2010PropOp31
 70
     0
102
RTVSPost2010Prop32
280
     0
102
RTVSPost2010PropOp32
 70
     0
102
RTVSPost2010Prop33
280
     0
102
RTVSPost2010PropOp33
 70
     0
102
RTVSPost2010Prop34
280
     0
102
RTVSPost2010PropOp34
 70
     0
102
RTVSPost2010Prop35
280
     0
102
RTVSPost2010PropOp35
 70
     0
102
RTVSPost2010Prop36
280
     0
102
RTVSPost2010PropOp36
 70
     0
102
RTVSPost2010Prop37
 90
       50
102
RTVSPost2010PropOp37
 70
     0
102
RTVSPost2010Prop38
140
0.0
102
RTVSPost2010PropOp38
 70
     0
102
RTVSPost2010Prop39
140
1.0
102
RTVSPost2010PropOp39
 70
     0
102
RTVSPost2010Prop40
 90
        0
102
RTVSPost2010PropOp40
 70
     0
102
RTVSPost2010Prop41ColorIndex
 90
       18
102
RTVSPost2010Prop41ColorRGB
 90
        0
102
RTVSPost2010PropOp41
 70
     0
102
RTVSPost2010Prop42
 90
       50
102
RTVSPost2010PropOp42
 70
     0
102
RTVSPost2010Prop43
 90
        3
102
RTVSPost2010PropOp43
 70
     0
102
RTVSPost2010Prop44ColorIndex
 90
        5
102
RTVSPost2010Prop44ColorRGB
 90
      255
102
RTVSPost2010PropOp44
 70
     0
102
RTVSPost2010Prop45
280
     0
102
RTVSPost2010PropOp45
 70
     0
102
RTVSPost2010Prop46
 90
       50
102
RTVSPost2010PropOp46
 70
     0
102
RTVSPost2010Prop47
 90
       50
102
RTVSPost2010PropOp47
 70
     0
102
RTVSPost2010Prop48
 90
       50
102
RTVSPost2010PropOp48
 70
     0
102
RTVSPost2010Prop49
280
     0
102
RTVSPost2010PropOp49
 70
     0
102
RTVSPost2010Prop50
 90
       50
102
RTVSPost2010PropOp50
 70
     0
102
RTVSPost2010Prop51ColorIndex
 90
      256
102
RTVSPost2010Prop51ColorRGB
 90
-16777216
102
RTVSPost2010PropOp51
 70
     0
102
RTVSPost2010Prop52
140
1.0
102
RTVSPost2010PropOp52
 70
     0
102
RTVSPost2010Prop53
 90
        2
102
RTVSPost2010PropOp53
 70
     0
102
RTVSPost2010Prop54
  1
strokes_ogs.tif
102
RTVSPost2010PropOp54
 70
     0
102
RTVSPost2010Prop55
280
     0
102
RTVSPost2010PropOp55
 70
     0
102
RTVSPost2010Prop56
140
1.0
102
RTVSPost2010PropOp56
 70
     0
102
RTVSPost2010Prop57
140
1.0
102
RTVSPost2010PropOp57
 70
     0
102
RTVSPropertyOp0
 70
     0
102
RTVSPropertyOp1
 70
     0
102
RTVSPropertyOp2
 70
     0
102
RTVSPropertyOp3
 70
     0
102
RTVSPropertyOp4
 70
     0
102
RTVSPropertyOp5
 70
     0
102
RTVSPropertyOp6
 70
     0
102
RTVSPropertyOp7
 70
     0
102
RTVSPropertyOp8
 70
     0
102
RTVSPropertyOp9
 70
     0
102
RTVSPropertyOp10
 70
     0
102
RTVSPropertyOp11
 70
     0
102
RTVSPropertyOp12
 70
     0
102
RTVSPropertyOp13
 70
     0
102
RTVSPropertyOp14
 70
     2
102
RTVSPropertyOp15
 70
     0
102
RTVSPropertyOp16
 70
     0
102
RTVSPropertyOp17
 70
     0
102
RTVSPropertyOp18
 70
     0
102
RTVSPropertyOp19
 70
     0
102
RTVSPropertyOp20
 70
     0
102
RTVSPropertyOp21
 70
     0
102
RTVSPropertyOp22
 70
     0
102
RTVSPropertyOp23
 70
     0
102
RTVSPropertyOp24
 70
     0
102
RTVSPropertyOp25
 70
     0
102
RTVSPropertyOp26
 70
     0
102
RTVSPropertyOp27
 70
     0
102
RTVSPropertyOp28
 70
     0
102
RTVSPropertyOp29
 70
     0
102
RTVSPropertyOp30
 70
     0
102
RTVSPropertyOp31
 70
     0
102
RTVSPropertyOp32
 70
     0
102
RTVSPropertyOp33
 70
     0
102
RTVSPropertyOp34
 70
     0
102
RTVSPropertyOp35
 70
     0
102
RTVSPropertyOp36
 70
     0
102
RTVSPropertyOp37
 70
     0
102
RTVSPropertyOp38
 70
     0
102
RTVSPropertyOp39
 70
     0
102
RTVSPropertyOp40
 70
     0
102
RTVSPropertyOp41
 70
     0
102
RTVSPropertyOp42
 70
     0
102
RTVSPropertyOp43
 70
     0
102
RTVSPropertyOp44
 70
     0
102
RTVSPropertyOp45
 70
     0
102
RTVSPropertyOp46
 70
     0
102
RTVSPropertyOp47
 70
     0
102
RTVSPropertyOp48
 70
     0
102
RTVSPropertyOp49
 70
     0
102
RTVSPropertyOp50
 70
     0
102
RTVSPropertyOp51
 70
     0
102
RTVSPropertyOp52
 70
     0
102
RTVSPropertyOp53
 70
     0
102
RTVSPropertyOp54
 70
     0
102
RTVSPropertyOp55
 70
     0
102
RTVSPropertyOp56
 70
     0
102
RTVSPropertyOp57
 70
     0
102
RTVSPropertyOp58
 70
     0
102
RTVSPropertyOp59
 70
     0
102
RTVSPropertyOp60
 70
     0
102
RTVSPropertyOp61
 70
     0
102
RTVSPropertyOp62
 70
     0
  0
XRECORD
  5
222
102
{ACAD_REACTORS
330
221
102
}
330
221
100
AcDbXrecord
280
     1
102
RTVSPost2010Prop28
280
     0
102
RTVSPost2010PropOp28
 70
     1
102
RTVSPost2010Prop29
280
     1
102
RTVSPost2010PropOp29
 70
     1
102
RTVSPost2010Prop30
280
     1
102
RTVSPost2010PropOp30
 70
     1
102
RTVSPost2010Prop31
280
     0
102
RTVSPost2010PropOp31
 70
     1
102
RTVSPost2010Prop32
280
     0
102
RTVSPost2010PropOp32
 70
     1
102
RTVSPost2010Prop33
280
     0
102
RTVSPost2010PropOp33
 70
     1
102
RTVSPost2010Prop34
280
     0
102
RTVSPost2010PropOp34
 70
     1
102
RTVSPost2010Prop35
280
     0
102
RTVSPost2010PropOp35
 70
     1
102
RTVSPost2010Prop36
280
     0
102
RTVSPost2010PropOp36
 70
     1
102
RTVSPost2010Prop37
 90
       50
102
RTVSPost2010PropOp37
 70
     1
102
RTVSPost2010Prop38
140
0.0
102
RTVSPost2010PropOp38
 70
     1
102
RTVSPost2010Prop39
140
1.0
102
RTVSPost2010PropOp39
 70
     1
102
RTVSPost2010Prop40
 90
        0
102
RTVSPost2010PropOp40
 70
     1
102
RTVSPost2010Prop41ColorIndex
 90
       18
102
RTVSPost2010Prop41ColorRGB
 90
        0
102
RTVSPost2010PropOp41
 70
     1
102
RTVSPost2010Prop42
 90
       50
102
RTVSPost2010PropOp42
 70
     1
102
RTVSPost2010Prop43
 90
        3
102
RTVSPost2010PropOp43
 70
     1
102
RTVSPost2010Prop44ColorIndex
 90
        5
102
RTVSPost2010Prop44ColorRGB
 90
      255
102
RTVSPost2010PropOp44
 70
     1
102
RTVSPost2010Prop45
280
     0
102
RTVSPost2010PropOp45
 70
     1
102
RTVSPost2010Prop46
 90
       50
102
RTVSPost2010PropOp46
 70
     1
102
RTVSPost2010Prop47
 90
       50
102
RTVSPost2010PropOp47
 70
     1
102
RTVSPost2010Prop48
 90
       50
102
RTVSPost2010PropOp48
 70
     1
102
RTVSPost2010Prop49
280
     0
102
RTVSPost2010PropOp49
 70
     1
102
RTVSPost2010Prop50
 90
       50
102
RTVSPost2010PropOp50
 70
     1
102
RTVSPost2010Prop51ColorIndex
 90
      256
102
RTVSPost2010Prop51ColorRGB
 90
-16777216
102
RTVSPost2010PropOp51
 70
     0
102
RTVSPost2010Prop52
140
1.0
102
RTVSPost2010PropOp52
 70
     0
102
RTVSPost2010Prop53
 90
        2
102
RTVSPost2010PropOp53
 70
     1
102
RTVSPost2010Prop54
  1
strokes_ogs.tif
102
RTVSPost2010PropOp54
 70
     1
102
RTVSPost2010Prop55
280
     0
102
RTVSPost2010PropOp55
 70
     1
102
RTVSPost2010Prop56
140
1.0
102
RTVSPost2010PropOp56
 70
     1
102
RTVSPost2010Prop57
140
1.0
102
RTVSPost2010PropOp57
 70
     1
102
RTVSPropertyOp0
 70
     1
102
RTVSPropertyOp1
 70
     1
102
RTVSPropertyOp2
 70
     1
102
RTVSPropertyOp3
 70
     1
102
RTVSPropertyOp4
 70
     1
102
RTVSPropertyOp5
 70
     1
102
RTVSPropertyOp6
 70
     1
102
RTVSPropertyOp7
 70
     1
102
RTVSPropertyOp8
 70
     1
102
RTVSPropertyOp9
 70
     1
102
RTVSPropertyOp10
 70
     1
102
RTVSPropertyOp11
 70
     1
102
RTVSPropertyOp12
 70
     1
102
RTVSPropertyOp13
 70
     1
102
RTVSPropertyOp14
 70
     1
102
RTVSPropertyOp15
 70
     1
102
RTVSPropertyOp16
 70
     1
102
RTVSPropertyOp17
 70
     1
102
RTVSPropertyOp18
 70
     1
102
RTVSPropertyOp19
 70
     1
102
RTVSPropertyOp20
 70
     1
102
RTVSPropertyOp21
 70
     1
102
RTVSPropertyOp22
 70
     1
102
RTVSPropertyOp23
 70
     1
102
RTVSPropertyOp24
 70
     1
102
RTVSPropertyOp25
 70
     1
102
RTVSPropertyOp26
 70
     1
102
RTVSPropertyOp27
 70
     1
102
RTVSPropertyOp28
 70
     1
102
RTVSPropertyOp29
 70
     1
102
RTVSPropertyOp30
 70
     1
102
RTVSPropertyOp31
 70
     1
102
RTVSPropertyOp32
 70
     1
102
RTVSPropertyOp33
 70
     1
102
RTVSPropertyOp34
 70
     1
102
RTVSPropertyOp35
 70
     1
102
RTVSPropertyOp36
 70
     1
102
RTVSPropertyOp37
 70
     1
102
RTVSPropertyOp38
 70
     1
102
RTVSPropertyOp39
 70
     1
102
RTVSPropertyOp40
 70
     1
102
RTVSPropertyOp41
 70
     1
102
RTVSPropertyOp42
 70
     1
102
RTVSPropertyOp43
 70
     1
102
RTVSPropertyOp44
 70
     1
102
RTVSPropertyOp45
 70
     1
102
RTVSPropertyOp46
 70
     1
102
RTVSPropertyOp47
 70
     1
102
RTVSPropertyOp48
 70
     1
102
RTVSPropertyOp49
 70
     1
102
RTVSPropertyOp50
 70
     1
102
RTVSPropertyOp51
 70
     0
102
RTVSPropertyOp52
 70
     0
102
RTVSPropertyOp53
 70
     1
102
RTVSPropertyOp54
 70
     1
102
RTVSPropertyOp55
 70
     1
102
RTVSPropertyOp56
 70
     1
102
RTVSPropertyOp57
 70
     1
102
RTVSPropertyOp58
 70
     1
102
RTVSPropertyOp59
 70
     1
102
RTVSPropertyOp60
 70
     1
102
RTVSPropertyOp61
 70
     1
102
RTVSPropertyOp62
 70
     1
  0
XRECORD
  5
238
102
{ACAD_REACTORS
330
237
102
}
330
237
100
AcDbXrecord
280
     1
102
RTVSPost2010Prop28
280
     0
102
RTVSPost2010PropOp28
 70
     1
102
RTVSPost2010Prop29
280
     1
102
RTVSPost2010PropOp29
 70
     1
102
RTVSPost2010Prop30
280
     1
102
RTVSPost2010PropOp30
 70
     1
102
RTVSPost2010Prop31
280
     0
102
RTVSPost2010PropOp31
 70
     1
102
RTVSPost2010Prop32
280
     0
102
RTVSPost2010PropOp32
 70
     1
102
RTVSPost2010Prop33
280
     0
102
RTVSPost2010PropOp33
 70
     1
102
RTVSPost2010Prop34
280
     0
102
RTVSPost2010PropOp34
 70
     1
102
RTVSPost2010Prop35
280
     0
102
RTVSPost2010PropOp35
 70
     1
102
RTVSPost2010Prop36
280
     0
102
RTVSPost2010PropOp36
 70
     1
102
RTVSPost2010Prop37
 90
       50
102
RTVSPost2010PropOp37
 70
     1
102
RTVSPost2010Prop38
140
0.0
102
RTVSPost2010PropOp38
 70
     1
102
RTVSPost2010Prop39
140
1.0
102
RTVSPost2010PropOp39
 70
     1
102
RTVSPost2010Prop40
 90
        0
102
RTVSPost2010PropOp40
 70
     1
102
RTVSPost2010Prop41ColorIndex
 90
       18
102
RTVSPost2010Prop41ColorRGB
 90
        0
102
RTVSPost2010PropOp41
 70
     1
102
RTVSPost2010Prop42
 90
       50
102
RTVSPost2010PropOp42
 70
     1
102
RTVSPost2010Prop43
 90
        3
102
RTVSPost2010PropOp43
 70
     1
102
RTVSPost2010Prop44ColorIndex
 90
        5
102
RTVSPost2010Prop44ColorRGB
 90
      255
102
RTVSPost2010PropOp44
 70
     1
102
RTVSPost2010Prop45
280
     0
102
RTVSPost2010PropOp45
 70
     1
102
RTVSPost2010Prop46
 90
       50
102
RTVSPost2010PropOp46
 70
     1
102
RTVSPost2010Prop47
 90
       50
102
RTVSPost2010PropOp47
 70
     1
102
RTVSPost2010Prop48
 90
       50
102
RTVSPost2010PropOp48
 70
     1
102
RTVSPost2010Prop49
280
     0
102
RTVSPost2010PropOp49
 70
     1
102
RTVSPost2010Prop50
 90
       50
102
RTVSPost2010PropOp50
 70
     1
102
RTVSPost2010Prop51ColorIndex
 90
      256
102
RTVSPost2010Prop51ColorRGB
 90
-16777216
102
RTVSPost2010PropOp51
 70
     0
102
RTVSPost2010Prop52
140
1.0
102
RTVSPost2010PropOp52
 70
     0
102
RTVSPost2010Prop53
 90
        2
102
RTVSPost2010PropOp53
 70
     1
102
RTVSPost2010Prop54
  1
strokes_ogs.tif
102
RTVSPost2010PropOp54
 70
     1
102
RTVSPost2010Prop55
280
     0
102
RTVSPost2010PropOp55
 70
     1
102
RTVSPost2010Prop56
140
1.0
102
RTVSPost2010PropOp56
 70
     1
102
RTVSPost2010Prop57
140
1.0
102
RTVSPost2010PropOp57
 70
     1
102
RTVSPropertyOp0
 70
     1
102
RTVSPropertyOp1
 70
     1
102
RTVSPropertyOp2
 70
     1
102
RTVSPropertyOp3
 70
     1
102
RTVSPropertyOp4
 70
     1
102
RTVSPropertyOp5
 70
     1
102
RTVSPropertyOp6
 70
     1
102
RTVSPropertyOp7
 70
     1
102
RTVSPropertyOp8
 70
     1
102
RTVSPropertyOp9
 70
     1
102
RTVSPropertyOp10
 70
     1
102
RTVSPropertyOp11
 70
     1
102
RTVSPropertyOp12
 70
     1
102
RTVSPropertyOp13
 70
     1
102
RTVSPropertyOp14
 70
     1
102
RTVSPropertyOp15
 70
     1
102
RTVSPropertyOp16
 70
     1
102
RTVSPropertyOp17
 70
     1
102
RTVSPropertyOp18
 70
     1
102
RTVSPropertyOp19
 70
     1
102
RTVSPropertyOp20
 70
     1
102
RTVSPropertyOp21
 70
     1
102
RTVSPropertyOp22
 70
     1
102
RTVSPropertyOp23
 70
     1
102
RTVSPropertyOp24
 70
     1
102
RTVSPropertyOp25
 70
     1
102
RTVSPropertyOp26
 70
     1
102
RTVSPropertyOp27
 70
     1
102
RTVSPropertyOp28
 70
     1
102
RTVSPropertyOp29
 70
     1
102
RTVSPropertyOp30
 70
     1
102
RTVSPropertyOp31
 70
     1
102
RTVSPropertyOp32
 70
     1
102
RTVSPropertyOp33
 70
     1
102
RTVSPropertyOp34
 70
     1
102
RTVSPropertyOp35
 70
     1
102
RTVSPropertyOp36
 70
     1
102
RTVSPropertyOp37
 70
     1
102
RTVSPropertyOp38
 70
     1
102
RTVSPropertyOp39
 70
     1
102
RTVSPropertyOp40
 70
     1
102
RTVSPropertyOp41
 70
     1
102
RTVSPropertyOp42
 70
     1
102
RTVSPropertyOp43
 70
     1
102
RTVSPropertyOp44
 70
     1
102
RTVSPropertyOp45
 70
     1
102
RTVSPropertyOp46
 70
     1
102
RTVSPropertyOp47
 70
     1
102
RTVSPropertyOp48
 70
     1
102
RTVSPropertyOp49
 70
     1
102
RTVSPropertyOp50
 70
     1
102
RTVSPropertyOp51
 70
     0
102
RTVSPropertyOp52
 70
     0
102
RTVSPropertyOp53
 70
     1
102
RTVSPropertyOp54
 70
     1
102
RTVSPropertyOp55
 70
     1
102
RTVSPropertyOp56
 70
     1
102
RTVSPropertyOp57
 70
     1
102
RTVSPropertyOp58
 70
     1
102
RTVSPropertyOp59
 70
     1
102
RTVSPropertyOp60
 70
     1
102
RTVSPropertyOp61
 70
     1
102
RTVSPropertyOp62
 70
     1
  0
XRECORD
  5
236
102
{ACAD_REACTORS
330
235
102
}
330
235
100
AcDbXrecord
280
     1
102
RTVSPost2010Prop28
280
     0
102
RTVSPost2010PropOp28
 70
     1
102
RTVSPost2010Prop29
280
     1
102
RTVSPost2010PropOp29
 70
     1
102
RTVSPost2010Prop30
280
     1
102
RTVSPost2010PropOp30
 70
     1
102
RTVSPost2010Prop31
280
     0
102
RTVSPost2010PropOp31
 70
     1
102
RTVSPost2010Prop32
280
     0
102
RTVSPost2010PropOp32
 70
     1
102
RTVSPost2010Prop33
280
     0
102
RTVSPost2010PropOp33
 70
     1
102
RTVSPost2010Prop34
280
     0
102
RTVSPost2010PropOp34
 70
     1
102
RTVSPost2010Prop35
280
     0
102
RTVSPost2010PropOp35
 70
     1
102
RTVSPost2010Prop36
280
     0
102
RTVSPost2010PropOp36
 70
     1
102
RTVSPost2010Prop37
 90
       50
102
RTVSPost2010PropOp37
 70
     1
102
RTVSPost2010Prop38
140
0.0
102
RTVSPost2010PropOp38
 70
     1
102
RTVSPost2010Prop39
140
1.0
102
RTVSPost2010PropOp39
 70
     1
102
RTVSPost2010Prop40
 90
        0
102
RTVSPost2010PropOp40
 70
     1
102
RTVSPost2010Prop41ColorIndex
 90
       18
102
RTVSPost2010Prop41ColorRGB
 90
        0
102
RTVSPost2010PropOp41
 70
     1
102
RTVSPost2010Prop42
 90
       50
102
RTVSPost2010PropOp42
 70
     1
102
RTVSPost2010Prop43
 90
        3
102
RTVSPost2010PropOp43
 70
     1
102
RTVSPost2010Prop44ColorIndex
 90
        5
102
RTVSPost2010Prop44ColorRGB
 90
      255
102
RTVSPost2010PropOp44
 70
     1
102
RTVSPost2010Prop45
280
     0
102
RTVSPost2010PropOp45
 70
     1
102
RTVSPost2010Prop46
 90
       50
102
RTVSPost2010PropOp46
 70
     1
102
RTVSPost2010Prop47
 90
       50
102
RTVSPost2010PropOp47
 70
     1
102
RTVSPost2010Prop48
 90
       50
102
RTVSPost2010PropOp48
 70
     1
102
RTVSPost2010Prop49
280
     0
102
RTVSPost2010PropOp49
 70
     1
102
RTVSPost2010Prop50
 90
       50
102
RTVSPost2010PropOp50
 70
     1
102
RTVSPost2010Prop51ColorIndex
 90
      256
102
RTVSPost2010Prop51ColorRGB
 90
-16777216
102
RTVSPost2010PropOp51
 70
     0
102
RTVSPost2010Prop52
140
1.0
102
RTVSPost2010PropOp52
 70
     0
102
RTVSPost2010Prop53
 90
        2
102
RTVSPost2010PropOp53
 70
     1
102
RTVSPost2010Prop54
  1
strokes_ogs.tif
102
RTVSPost2010PropOp54
 70
     1
102
RTVSPost2010Prop55
280
     0
102
RTVSPost2010PropOp55
 70
     1
102
RTVSPost2010Prop56
140
1.0
102
RTVSPost2010PropOp56
 70
     1
102
RTVSPost2010Prop57
140
1.0
102
RTVSPost2010PropOp57
 70
     1
102
RTVSPropertyOp0
 70
     1
102
RTVSPropertyOp1
 70
     1
102
RTVSPropertyOp2
 70
     1
102
RTVSPropertyOp3
 70
     1
102
RTVSPropertyOp4
 70
     1
102
RTVSPropertyOp5
 70
     1
102
RTVSPropertyOp6
 70
     1
102
RTVSPropertyOp7
 70
     1
102
RTVSPropertyOp8
 70
     1
102
RTVSPropertyOp9
 70
     1
102
RTVSPropertyOp10
 70
     1
102
RTVSPropertyOp11
 70
     1
102
RTVSPropertyOp12
 70
     1
102
RTVSPropertyOp13
 70
     1
102
RTVSPropertyOp14
 70
     1
102
RTVSPropertyOp15
 70
     1
102
RTVSPropertyOp16
 70
     1
102
RTVSPropertyOp17
 70
     1
102
RTVSPropertyOp18
 70
     1
102
RTVSPropertyOp19
 70
     1
102
RTVSPropertyOp20
 70
     1
102
RTVSPropertyOp21
 70
     1
102
RTVSPropertyOp22
 70
     1
102
RTVSPropertyOp23
 70
     1
102
RTVSPropertyOp24
 70
     1
102
RTVSPropertyOp25
 70
     1
102
RTVSPropertyOp26
 70
     1
102
RTVSPropertyOp27
 70
     1
102
RTVSPropertyOp28
 70
     1
102
RTVSPropertyOp29
 70
     1
102
RTVSPropertyOp30
 70
     1
102
RTVSPropertyOp31
 70
     1
102
RTVSPropertyOp32
 70
     1
102
RTVSPropertyOp33
 70
     1
102
RTVSPropertyOp34
 70
     1
102
RTVSPropertyOp35
 70
     1
102
RTVSPropertyOp36
 70
     1
102
RTVSPropertyOp37
 70
     1
102
RTVSPropertyOp38
 70
     1
102
RTVSPropertyOp39
 70
     1
102
RTVSPropertyOp40
 70
     1
102
RTVSPropertyOp41
 70
     1
102
RTVSPropertyOp42
 70
     1
102
RTVSPropertyOp43
 70
     1
102
RTVSPropertyOp44
 70
     1
102
RTVSPropertyOp45
 70
     1
102
RTVSPropertyOp46
 70
     1
102
RTVSPropertyOp47
 70
     1
102
RTVSPropertyOp48
 70
     1
102
RTVSPropertyOp49
 70
     1
102
RTVSPropertyOp50
 70
     1
102
RTVSPropertyOp51
 70
     0
102
RTVSPropertyOp52
 70
     0
102
RTVSPropertyOp53
 70
     1
102
RTVSPropertyOp54
 70
     1
102
RTVSPropertyOp55
 70
     1
102
RTVSPropertyOp56
 70
     1
102
RTVSPropertyOp57
 70
     1
102
RTVSPropertyOp58
 70
     1
102
RTVSPropertyOp59
 70
     1
102
RTVSPropertyOp60
 70
     1
102
RTVSPropertyOp61
 70
     1
102
RTVSPropertyOp62
 70
     1
  0
XRECORD
  5
230
102
{ACAD_REACTORS
330
22F
102
}
330
22F
100
AcDbXrecord
280
     1
102
RTVSPost2010Prop28
280
     0
102
RTVSPost2010PropOp28
 70
     1
102
RTVSPost2010Prop29
280
     1
102
RTVSPost2010PropOp29
 70
     1
102
RTVSPost2010Prop30
280
     1
102
RTVSPost2010PropOp30
 70
     1
102
RTVSPost2010Prop31
280
     0
102
RTVSPost2010PropOp31
 70
     1
102
RTVSPost2010Prop32
280
     0
102
RTVSPost2010PropOp32
 70
     1
102
RTVSPost2010Prop33
280
     0
102
RTVSPost2010PropOp33
 70
     1
102
RTVSPost2010Prop34
280
     0
102
RTVSPost2010PropOp34
 70
     1
102
RTVSPost2010Prop35
280
     0
102
RTVSPost2010PropOp35
 70
     1
102
RTVSPost2010Prop36
280
     0
102
RTVSPost2010PropOp36
 70
     1
102
RTVSPost2010Prop37
 90
       50
102
RTVSPost2010PropOp37
 70
     1
102
RTVSPost2010Prop38
140
0.0
102
RTVSPost2010PropOp38
 70
     1
102
RTVSPost2010Prop39
140
1.0
102
RTVSPost2010PropOp39
 70
     1
102
RTVSPost2010Prop40
 90
        0
102
RTVSPost2010PropOp40
 70
     1
102
RTVSPost2010Prop41ColorIndex
 90
       18
102
RTVSPost2010Prop41ColorRGB
 90
        0
102
RTVSPost2010PropOp41
 70
     1
102
RTVSPost2010Prop42
 90
       50
102
RTVSPost2010PropOp42
 70
     1
102
RTVSPost2010Prop43
 90
        3
102
RTVSPost2010PropOp43
 70
     1
102
RTVSPost2010Prop44ColorIndex
 90
        5
102
RTVSPost2010Prop44ColorRGB
 90
      255
102
RTVSPost2010PropOp44
 70
     1
102
RTVSPost2010Prop45
280
     0
102
RTVSPost2010PropOp45
 70
     1
102
RTVSPost2010Prop46
 90
       50
102
RTVSPost2010PropOp46
 70
     1
102
RTVSPost2010Prop47
 90
       50
102
RTVSPost2010PropOp47
 70
     1
102
RTVSPost2010Prop48
 90
       50
102
RTVSPost2010PropOp48
 70
     1
102
RTVSPost2010Prop49
280
     0
102
RTVSPost2010PropOp49
 70
     1
102
RTVSPost2010Prop50
 90
       50
102
RTVSPost2010PropOp50
 70
     1
102
RTVSPost2010Prop51ColorIndex
 90
      256
102
RTVSPost2010Prop51ColorRGB
 90
-16777216
102
RTVSPost2010PropOp51
 70
     0
102
RTVSPost2010Prop52
140
1.0
102
RTVSPost2010PropOp52
 70
     0
102
RTVSPost2010Prop53
 90
        2
102
RTVSPost2010PropOp53
 70
     1
102
RTVSPost2010Prop54
  1
strokes_ogs.tif
102
RTVSPost2010PropOp54
 70
     1
102
RTVSPost2010Prop55
280
     0
102
RTVSPost2010PropOp55
 70
     1
102
RTVSPost2010Prop56
140
1.0
102
RTVSPost2010PropOp56
 70
     1
102
RTVSPost2010Prop57
140
1.0
102
RTVSPost2010PropOp57
 70
     1
102
RTVSPropertyOp0
 70
     1
102
RTVSPropertyOp1
 70
     1
102
RTVSPropertyOp2
 70
     1
102
RTVSPropertyOp3
 70
     1
102
RTVSPropertyOp4
 70
     1
102
RTVSPropertyOp5
 70
     1
102
RTVSPropertyOp6
 70
     1
102
RTVSPropertyOp7
 70
     1
102
RTVSPropertyOp8
 70
     1
102
RTVSPropertyOp9
 70
     1
102
RTVSPropertyOp10
 70
     1
102
RTVSPropertyOp11
 70
     1
102
RTVSPropertyOp12
 70
     1
102
RTVSPropertyOp13
 70
     1
102
RTVSPropertyOp14
 70
     1
102
RTVSPropertyOp15
 70
     1
102
RTVSPropertyOp16
 70
     1
102
RTVSPropertyOp17
 70
     1
102
RTVSPropertyOp18
 70
     1
102
RTVSPropertyOp19
 70
     1
102
RTVSPropertyOp20
 70
     1
102
RTVSPropertyOp21
 70
     1
102
RTVSPropertyOp22
 70
     1
102
RTVSPropertyOp23
 70
     1
102
RTVSPropertyOp24
 70
     1
102
RTVSPropertyOp25
 70
     1
102
RTVSPropertyOp26
 70
     1
102
RTVSPropertyOp27
 70
     1
102
RTVSPropertyOp28
 70
     1
102
RTVSPropertyOp29
 70
     1
102
RTVSPropertyOp30
 70
     1
102
RTVSPropertyOp31
 70
     1
102
RTVSPropertyOp32
 70
     1
102
RTVSPropertyOp33
 70
     1
102
RTVSPropertyOp34
 70
     1
102
RTVSPropertyOp35
 70
     1
102
RTVSPropertyOp36
 70
     1
102
RTVSPropertyOp37
 70
     1
102
RTVSPropertyOp38
 70
     1
102
RTVSPropertyOp39
 70
     1
102
RTVSPropertyOp40
 70
     1
102
RTVSPropertyOp41
 70
     1
102
RTVSPropertyOp42
 70
     1
102
RTVSPropertyOp43
 70
     1
102
RTVSPropertyOp44
 70
     1
102
RTVSPropertyOp45
 70
     1
102
RTVSPropertyOp46
 70
     1
102
RTVSPropertyOp47
 70
     1
102
RTVSPropertyOp48
 70
     1
102
RTVSPropertyOp49
 70
     1
102
RTVSPropertyOp50
 70
     1
102
RTVSPropertyOp51
 70
     0
102
RTVSPropertyOp52
 70
     0
102
RTVSPropertyOp53
 70
     1
102
RTVSPropertyOp54
 70
     1
102
RTVSPropertyOp55
 70
     1
102
RTVSPropertyOp56
 70
     1
102
RTVSPropertyOp57
 70
     1
102
RTVSPropertyOp58
 70
     1
102
RTVSPropertyOp59
 70
     1
102
RTVSPropertyOp60
 70
     1
102
RTVSPropertyOp61
 70
     1
102
RTVSPropertyOp62
 70
     1
  0
XRECORD
  5
232
102
{ACAD_REACTORS
330
231
102
}
330
231
100
AcDbXrecord
280
     1
102
RTVSPost2010Prop28
280
     0
102
RTVSPost2010PropOp28
 70
     1
102
RTVSPost2010Prop29
280
     1
102
RTVSPost2010PropOp29
 70
     1
102
RTVSPost2010Prop30
280
     1
102
RTVSPost2010PropOp30
 70
     1
102
RTVSPost2010Prop31
280
     0
102
RTVSPost2010PropOp31
 70
     1
102
RTVSPost2010Prop32
280
     0
102
RTVSPost2010PropOp32
 70
     1
102
RTVSPost2010Prop33
280
     0
102
RTVSPost2010PropOp33
 70
     1
102
RTVSPost2010Prop34
280
     0
102
RTVSPost2010PropOp34
 70
     1
102
RTVSPost2010Prop35
280
     0
102
RTVSPost2010PropOp35
 70
     1
102
RTVSPost2010Prop36
280
     0
102
RTVSPost2010PropOp36
 70
     1
102
RTVSPost2010Prop37
 90
       50
102
RTVSPost2010PropOp37
 70
     1
102
RTVSPost2010Prop38
140
0.0
102
RTVSPost2010PropOp38
 70
     1
102
RTVSPost2010Prop39
140
1.0
102
RTVSPost2010PropOp39
 70
     1
102
RTVSPost2010Prop40
 90
        0
102
RTVSPost2010PropOp40
 70
     1
102
RTVSPost2010Prop41ColorIndex
 90
       18
102
RTVSPost2010Prop41ColorRGB
 90
        0
102
RTVSPost2010PropOp41
 70
     1
102
RTVSPost2010Prop42
 90
       50
102
RTVSPost2010PropOp42
 70
     1
102
RTVSPost2010Prop43
 90
        3
102
RTVSPost2010PropOp43
 70
     1
102
RTVSPost2010Prop44ColorIndex
 90
        5
102
RTVSPost2010Prop44ColorRGB
 90
      255
102
RTVSPost2010PropOp44
 70
     1
102
RTVSPost2010Prop45
280
     0
102
RTVSPost2010PropOp45
 70
     1
102
RTVSPost2010Prop46
 90
       50
102
RTVSPost2010PropOp46
 70
     1
102
RTVSPost2010Prop47
 90
       50
102
RTVSPost2010PropOp47
 70
     1
102
RTVSPost2010Prop48
 90
       50
102
RTVSPost2010PropOp48
 70
     1
102
RTVSPost2010Prop49
280
     0
102
RTVSPost2010PropOp49
 70
     1
102
RTVSPost2010Prop50
 90
       50
102
RTVSPost2010PropOp50
 70
     1
102
RTVSPost2010Prop51ColorIndex
 90
      256
102
RTVSPost2010Prop51ColorRGB
 90
-16777216
102
RTVSPost2010PropOp51
 70
     0
102
RTVSPost2010Prop52
140
1.0
102
RTVSPost2010PropOp52
 70
     0
102
RTVSPost2010Prop53
 90
        2
102
RTVSPost2010PropOp53
 70
     1
102
RTVSPost2010Prop54
  1
strokes_ogs.tif
102
RTVSPost2010PropOp54
 70
     1
102
RTVSPost2010Prop55
280
     0
102
RTVSPost2010PropOp55
 70
     1
102
RTVSPost2010Prop56
140
1.0
102
RTVSPost2010PropOp56
 70
     1
102
RTVSPost2010Prop57
140
1.0
102
RTVSPost2010PropOp57
 70
     1
102
RTVSPropertyOp0
 70
     1
102
RTVSPropertyOp1
 70
     1
102
RTVSPropertyOp2
 70
     1
102
RTVSPropertyOp3
 70
     1
102
RTVSPropertyOp4
 70
     1
102
RTVSPropertyOp5
 70
     1
102
RTVSPropertyOp6
 70
     1
102
RTVSPropertyOp7
 70
     1
102
RTVSPropertyOp8
 70
     1
102
RTVSPropertyOp9
 70
     1
102
RTVSPropertyOp10
 70
     1
102
RTVSPropertyOp11
 70
     1
102
RTVSPropertyOp12
 70
     1
102
RTVSPropertyOp13
 70
     1
102
RTVSPropertyOp14
 70
     1
102
RTVSPropertyOp15
 70
     1
102
RTVSPropertyOp16
 70
     1
102
RTVSPropertyOp17
 70
     1
102
RTVSPropertyOp18
 70
     1
102
RTVSPropertyOp19
 70
     1
102
RTVSPropertyOp20
 70
     1
102
RTVSPropertyOp21
 70
     1
102
RTVSPropertyOp22
 70
     1
102
RTVSPropertyOp23
 70
     1
102
RTVSPropertyOp24
 70
     1
102
RTVSPropertyOp25
 70
     1
102
RTVSPropertyOp26
 70
     1
102
RTVSPropertyOp27
 70
     1
102
RTVSPropertyOp28
 70
     1
102
RTVSPropertyOp29
 70
     1
102
RTVSPropertyOp30
 70
     1
102
RTVSPropertyOp31
 70
     1
102
RTVSPropertyOp32
 70
     1
102
RTVSPropertyOp33
 70
     1
102
RTVSPropertyOp34
 70
     1
102
RTVSPropertyOp35
 70
     1
102
RTVSPropertyOp36
 70
     1
102
RTVSPropertyOp37
 70
     1
102
RTVSPropertyOp38
 70
     1
102
RTVSPropertyOp39
 70
     1
102
RTVSPropertyOp40
 70
     1
102
RTVSPropertyOp41
 70
     1
102
RTVSPropertyOp42
 70
     1
102
RTVSPropertyOp43
 70
     1
102
RTVSPropertyOp44
 70
     1
102
RTVSPropertyOp45
 70
     1
102
RTVSPropertyOp46
 70
     1
102
RTVSPropertyOp47
 70
     1
102
RTVSPropertyOp48
 70
     1
102
RTVSPropertyOp49
 70
     1
102
RTVSPropertyOp50
 70
     1
102
RTVSPropertyOp51
 70
     0
102
RTVSPropertyOp52
 70
     0
102
RTVSPropertyOp53
 70
     1
102
RTVSPropertyOp54
 70
     1
102
RTVSPropertyOp55
 70
     1
102
RTVSPropertyOp56
 70
     1
102
RTVSPropertyOp57
 70
     1
102
RTVSPropertyOp58
 70
     1
102
RTVSPropertyOp59
 70
     1
102
RTVSPropertyOp60
 70
     1
102
RTVSPropertyOp61
 70
     1
102
RTVSPropertyOp62
 70
     1
  0
XRECORD
  5
228
102
{ACAD_REACTORS
330
227
102
}
330
227
100
AcDbXrecord
280
     1
102
RTVSPost2010Prop28
280
     0
102
RTVSPost2010PropOp28
 70
     1
102
RTVSPost2010Prop29
280
     1
102
RTVSPost2010PropOp29
 70
     1
102
RTVSPost2010Prop30
280
     1
102
RTVSPost2010PropOp30
 70
     1
102
RTVSPost2010Prop31
280
     0
102
RTVSPost2010PropOp31
 70
     1
102
RTVSPost2010Prop32
280
     0
102
RTVSPost2010PropOp32
 70
     1
102
RTVSPost2010Prop33
280
     0
102
RTVSPost2010PropOp33
 70
     1
102
RTVSPost2010Prop34
280
     0
102
RTVSPost2010PropOp34
 70
     1
102
RTVSPost2010Prop35
280
     0
102
RTVSPost2010PropOp35
 70
     1
102
RTVSPost2010Prop36
280
     0
102
RTVSPost2010PropOp36
 70
     1
102
RTVSPost2010Prop37
 90
       50
102
RTVSPost2010PropOp37
 70
     1
102
RTVSPost2010Prop38
140
0.0
102
RTVSPost2010PropOp38
 70
     1
102
RTVSPost2010Prop39
140
1.0
102
RTVSPost2010PropOp39
 70
     1
102
RTVSPost2010Prop40
 90
        0
102
RTVSPost2010PropOp40
 70
     1
102
RTVSPost2010Prop41ColorIndex
 90
       18
102
RTVSPost2010Prop41ColorRGB
 90
        0
102
RTVSPost2010PropOp41
 70
     1
102
RTVSPost2010Prop42
 90
       50
102
RTVSPost2010PropOp42
 70
     1
102
RTVSPost2010Prop43
 90
        3
102
RTVSPost2010PropOp43
 70
     1
102
RTVSPost2010Prop44ColorIndex
 90
        5
102
RTVSPost2010Prop44ColorRGB
 90
      255
102
RTVSPost2010PropOp44
 70
     1
102
RTVSPost2010Prop45
280
     0
102
RTVSPost2010PropOp45
 70
     1
102
RTVSPost2010Prop46
 90
       50
102
RTVSPost2010PropOp46
 70
     1
102
RTVSPost2010Prop47
 90
       50
102
RTVSPost2010PropOp47
 70
     1
102
RTVSPost2010Prop48
 90
       50
102
RTVSPost2010PropOp48
 70
     1
102
RTVSPost2010Prop49
280
     0
102
RTVSPost2010PropOp49
 70
     1
102
RTVSPost2010Prop50
 90
       50
102
RTVSPost2010PropOp50
 70
     1
102
RTVSPost2010Prop51ColorIndex
 90
      256
102
RTVSPost2010Prop51ColorRGB
 90
-16777216
102
RTVSPost2010PropOp51
 70
     0
102
RTVSPost2010Prop52
140
1.0
102
RTVSPost2010PropOp52
 70
     0
102
RTVSPost2010Prop53
 90
        2
102
RTVSPost2010PropOp53
 70
     1
102
RTVSPost2010Prop54
  1
strokes_ogs.tif
102
RTVSPost2010PropOp54
 70
     1
102
RTVSPost2010Prop55
280
     0
102
RTVSPost2010PropOp55
 70
     1
102
RTVSPost2010Prop56
140
1.0
102
RTVSPost2010PropOp56
 70
     1
102
RTVSPost2010Prop57
140
1.0
102
RTVSPost2010PropOp57
 70
     1
102
RTVSPropertyOp0
 70
     1
102
RTVSPropertyOp1
 70
     1
102
RTVSPropertyOp2
 70
     1
102
RTVSPropertyOp3
 70
     1
102
RTVSPropertyOp4
 70
     1
102
RTVSPropertyOp5
 70
     1
102
RTVSPropertyOp6
 70
     1
102
RTVSPropertyOp7
 70
     1
102
RTVSPropertyOp8
 70
     1
102
RTVSPropertyOp9
 70
     1
102
RTVSPropertyOp10
 70
     1
102
RTVSPropertyOp11
 70
     1
102
RTVSPropertyOp12
 70
     1
102
RTVSPropertyOp13
 70
     1
102
RTVSPropertyOp14
 70
     1
102
RTVSPropertyOp15
 70
     1
102
RTVSPropertyOp16
 70
     1
102
RTVSPropertyOp17
 70
     1
102
RTVSPropertyOp18
 70
     1
102
RTVSPropertyOp19
 70
     1
102
RTVSPropertyOp20
 70
     1
102
RTVSPropertyOp21
 70
     1
102
RTVSPropertyOp22
 70
     1
102
RTVSPropertyOp23
 70
     1
102
RTVSPropertyOp24
 70
     1
102
RTVSPropertyOp25
 70
     1
102
RTVSPropertyOp26
 70
     1
102
RTVSPropertyOp27
 70
     1
102
RTVSPropertyOp28
 70
     1
102
RTVSPropertyOp29
 70
     1
102
RTVSPropertyOp30
 70
     1
102
RTVSPropertyOp31
 70
     1
102
RTVSPropertyOp32
 70
     1
102
RTVSPropertyOp33
 70
     1
102
RTVSPropertyOp34
 70
     1
102
RTVSPropertyOp35
 70
     1
102
RTVSPropertyOp36
 70
     1
102
RTVSPropertyOp37
 70
     1
102
RTVSPropertyOp38
 70
     1
102
RTVSPropertyOp39
 70
     1
102
RTVSPropertyOp40
 70
     1
102
RTVSPropertyOp41
 70
     1
102
RTVSPropertyOp42
 70
     1
102
RTVSPropertyOp43
 70
     1
102
RTVSPropertyOp44
 70
     1
102
RTVSPropertyOp45
 70
     1
102
RTVSPropertyOp46
 70
     1
102
RTVSPropertyOp47
 70
     1
102
RTVSPropertyOp48
 70
     1
102
RTVSPropertyOp49
 70
     1
102
RTVSPropertyOp50
 70
     1
102
RTVSPropertyOp51
 70
     0
102
RTVSPropertyOp52
 70
     0
102
RTVSPropertyOp53
 70
     1
102
RTVSPropertyOp54
 70
     1
102
RTVSPropertyOp55
 70
     1
102
RTVSPropertyOp56
 70
     1
102
RTVSPropertyOp57
 70
     1
102
RTVSPropertyOp58
 70
     1
102
RTVSPropertyOp59
 70
     1
102
RTVSPropertyOp60
 70
     1
102
RTVSPropertyOp61
 70
     1
102
RTVSPropertyOp62
 70
     1
  0
XRECORD
  5
21C
102
{ACAD_REACTORS
330
21B
102
}
330
21B
100
AcDbXrecord
280
     1
102
RTVSPost2010Prop28
280
     0
102
RTVSPost2010PropOp28
 70
     1
102
RTVSPost2010Prop29
280
     1
102
RTVSPost2010PropOp29
 70
     1
102
RTVSPost2010Prop30
280
     1
102
RTVSPost2010PropOp30
 70
     1
102
RTVSPost2010Prop31
280
     0
102
RTVSPost2010PropOp31
 70
     1
102
RTVSPost2010Prop32
280
     0
102
RTVSPost2010PropOp32
 70
     1
102
RTVSPost2010Prop33
280
     0
102
RTVSPost2010PropOp33
 70
     1
102
RTVSPost2010Prop34
280
     0
102
RTVSPost2010PropOp34
 70
     1
102
RTVSPost2010Prop35
280
     0
102
RTVSPost2010PropOp35
 70
     1
102
RTVSPost2010Prop36
280
     0
102
RTVSPost2010PropOp36
 70
     1
102
RTVSPost2010Prop37
 90
       50
102
RTVSPost2010PropOp37
 70
     1
102
RTVSPost2010Prop38
140
0.0
102
RTVSPost2010PropOp38
 70
     1
102
RTVSPost2010Prop39
140
1.0
102
RTVSPost2010PropOp39
 70
     1
102
RTVSPost2010Prop40
 90
        0
102
RTVSPost2010PropOp40
 70
     1
102
RTVSPost2010Prop41ColorIndex
 90
       18
102
RTVSPost2010Prop41ColorRGB
 90
        0
102
RTVSPost2010PropOp41
 70
     1
102
RTVSPost2010Prop42
 90
       50
102
RTVSPost2010PropOp42
 70
     1
102
RTVSPost2010Prop43
 90
        3
102
RTVSPost2010PropOp43
 70
     1
102
RTVSPost2010Prop44ColorIndex
 90
        5
102
RTVSPost2010Prop44ColorRGB
 90
      255
102
RTVSPost2010PropOp44
 70
     1
102
RTVSPost2010Prop45
280
     0
102
RTVSPost2010PropOp45
 70
     1
102
RTVSPost2010Prop46
 90
       50
102
RTVSPost2010PropOp46
 70
     1
102
RTVSPost2010Prop47
 90
       50
102
RTVSPost2010PropOp47
 70
     1
102
RTVSPost2010Prop48
 90
       50
102
RTVSPost2010PropOp48
 70
     1
102
RTVSPost2010Prop49
280
     0
102
RTVSPost2010PropOp49
 70
     1
102
RTVSPost2010Prop50
 90
       50
102
RTVSPost2010PropOp50
 70
     1
102
RTVSPost2010Prop51ColorIndex
 90
      256
102
RTVSPost2010Prop51ColorRGB
 90
-16777216
102
RTVSPost2010PropOp51
 70
     0
102
RTVSPost2010Prop52
140
1.0
102
RTVSPost2010PropOp52
 70
     0
102
RTVSPost2010Prop53
 90
        2
102
RTVSPost2010PropOp53
 70
     1
102
RTVSPost2010Prop54
  1
strokes_ogs.tif
102
RTVSPost2010PropOp54
 70
     1
102
RTVSPost2010Prop55
280
     0
102
RTVSPost2010PropOp55
 70
     1
102
RTVSPost2010Prop56
140
1.0
102
RTVSPost2010PropOp56
 70
     1
102
RTVSPost2010Prop57
140
1.0
102
RTVSPost2010PropOp57
 70
     1
102
RTVSPropertyOp0
 70
     1
102
RTVSPropertyOp1
 70
     1
102
RTVSPropertyOp2
 70
     1
102
RTVSPropertyOp3
 70
     1
102
RTVSPropertyOp4
 70
     1
102
RTVSPropertyOp5
 70
     1
102
RTVSPropertyOp6
 70
     1
102
RTVSPropertyOp7
 70
     1
102
RTVSPropertyOp8
 70
     1
102
RTVSPropertyOp9
 70
     1
102
RTVSPropertyOp10
 70
     1
102
RTVSPropertyOp11
 70
     1
102
RTVSPropertyOp12
 70
     1
102
RTVSPropertyOp13
 70
     1
102
RTVSPropertyOp14
 70
     1
102
RTVSPropertyOp15
 70
     1
102
RTVSPropertyOp16
 70
     1
102
RTVSPropertyOp17
 70
     1
102
RTVSPropertyOp18
 70
     1
102
RTVSPropertyOp19
 70
     1
102
RTVSPropertyOp20
 70
     1
102
RTVSPropertyOp21
 70
     1
102
RTVSPropertyOp22
 70
     1
102
RTVSPropertyOp23
 70
     1
102
RTVSPropertyOp24
 70
     1
102
RTVSPropertyOp25
 70
     1
102
RTVSPropertyOp26
 70
     1
102
RTVSPropertyOp27
 70
     1
102
RTVSPropertyOp28
 70
     1
102
RTVSPropertyOp29
 70
     1
102
RTVSPropertyOp30
 70
     1
102
RTVSPropertyOp31
 70
     1
102
RTVSPropertyOp32
 70
     1
102
RTVSPropertyOp33
 70
     1
102
RTVSPropertyOp34
 70
     1
102
RTVSPropertyOp35
 70
     1
102
RTVSPropertyOp36
 70
     1
102
RTVSPropertyOp37
 70
     1
102
RTVSPropertyOp38
 70
     1
102
RTVSPropertyOp39
 70
     1
102
RTVSPropertyOp40
 70
     1
102
RTVSPropertyOp41
 70
     1
102
RTVSPropertyOp42
 70
     1
102
RTVSPropertyOp43
 70
     1
102
RTVSPropertyOp44
 70
     1
102
RTVSPropertyOp45
 70
     1
102
RTVSPropertyOp46
 70
     1
102
RTVSPropertyOp47
 70
     1
102
RTVSPropertyOp48
 70
     1
102
RTVSPropertyOp49
 70
     1
102
RTVSPropertyOp50
 70
     1
102
RTVSPropertyOp51
 70
     0
102
RTVSPropertyOp52
 70
     0
102
RTVSPropertyOp53
 70
     1
102
RTVSPropertyOp54
 70
     1
102
RTVSPropertyOp55
 70
     1
102
RTVSPropertyOp56
 70
     1
102
RTVSPropertyOp57
 70
     1
102
RTVSPropertyOp58
 70
     1
102
RTVSPropertyOp59
 70
     1
102
RTVSPropertyOp60
 70
     1
102
RTVSPropertyOp61
 70
     1
102
RTVSPropertyOp62
 70
     1
  0
XRECORD
  5
234
102
{ACAD_REACTORS
330
233
102
}
330
233
100
AcDbXrecord
280
     1
102
RTVSPost2010Prop28
280
     0
102
RTVSPost2010PropOp28
 70
     1
102
RTVSPost2010Prop29
280
     1
102
RTVSPost2010PropOp29
 70
     1
102
RTVSPost2010Prop30
280
     1
102
RTVSPost2010PropOp30
 70
     1
102
RTVSPost2010Prop31
280
     0
102
RTVSPost2010PropOp31
 70
     1
102
RTVSPost2010Prop32
280
     0
102
RTVSPost2010PropOp32
 70
     1
102
RTVSPost2010Prop33
280
     0
102
RTVSPost2010PropOp33
 70
     1
102
RTVSPost2010Prop34
280
     0
102
RTVSPost2010PropOp34
 70
     1
102
RTVSPost2010Prop35
280
     0
102
RTVSPost2010PropOp35
 70
     1
102
RTVSPost2010Prop36
280
     0
102
RTVSPost2010PropOp36
 70
     1
102
RTVSPost2010Prop37
 90
       50
102
RTVSPost2010PropOp37
 70
     1
102
RTVSPost2010Prop38
140
0.0
102
RTVSPost2010PropOp38
 70
     1
102
RTVSPost2010Prop39
140
1.0
102
RTVSPost2010PropOp39
 70
     1
102
RTVSPost2010Prop40
 90
        0
102
RTVSPost2010PropOp40
 70
     1
102
RTVSPost2010Prop41ColorIndex
 90
       18
102
RTVSPost2010Prop41ColorRGB
 90
        0
102
RTVSPost2010PropOp41
 70
     1
102
RTVSPost2010Prop42
 90
       50
102
RTVSPost2010PropOp42
 70
     1
102
RTVSPost2010Prop43
 90
        3
102
RTVSPost2010PropOp43
 70
     1
102
RTVSPost2010Prop44ColorIndex
 90
        5
102
RTVSPost2010Prop44ColorRGB
 90
      255
102
RTVSPost2010PropOp44
 70
     1
102
RTVSPost2010Prop45
280
     0
102
RTVSPost2010PropOp45
 70
     1
102
RTVSPost2010Prop46
 90
       50
102
RTVSPost2010PropOp46
 70
     1
102
RTVSPost2010Prop47
 90
       50
102
RTVSPost2010PropOp47
 70
     1
102
RTVSPost2010Prop48
 90
       50
102
RTVSPost2010PropOp48
 70
     1
102
RTVSPost2010Prop49
280
     0
102
RTVSPost2010PropOp49
 70
     1
102
RTVSPost2010Prop50
 90
       50
102
RTVSPost2010PropOp50
 70
     1
102
RTVSPost2010Prop51ColorIndex
 90
      256
102
RTVSPost2010Prop51ColorRGB
 90
-16777216
102
RTVSPost2010PropOp51
 70
     0
102
RTVSPost2010Prop52
140
1.0
102
RTVSPost2010PropOp52
 70
     0
102
RTVSPost2010Prop53
 90
        2
102
RTVSPost2010PropOp53
 70
     1
102
RTVSPost2010Prop54
  1
strokes_ogs.tif
102
RTVSPost2010PropOp54
 70
     1
102
RTVSPost2010Prop55
280
     0
102
RTVSPost2010PropOp55
 70
     1
102
RTVSPost2010Prop56
140
1.0
102
RTVSPost2010PropOp56
 70
     1
102
RTVSPost2010Prop57
140
1.0
102
RTVSPost2010PropOp57
 70
     1
102
RTVSPropertyOp0
 70
     1
102
RTVSPropertyOp1
 70
     1
102
RTVSPropertyOp2
 70
     1
102
RTVSPropertyOp3
 70
     1
102
RTVSPropertyOp4
 70
     1
102
RTVSPropertyOp5
 70
     1
102
RTVSPropertyOp6
 70
     1
102
RTVSPropertyOp7
 70
     1
102
RTVSPropertyOp8
 70
     1
102
RTVSPropertyOp9
 70
     1
102
RTVSPropertyOp10
 70
     1
102
RTVSPropertyOp11
 70
     1
102
RTVSPropertyOp12
 70
     1
102
RTVSPropertyOp13
 70
     1
102
RTVSPropertyOp14
 70
     1
102
RTVSPropertyOp15
 70
     1
102
RTVSPropertyOp16
 70
     1
102
RTVSPropertyOp17
 70
     1
102
RTVSPropertyOp18
 70
     1
102
RTVSPropertyOp19
 70
     1
102
RTVSPropertyOp20
 70
     1
102
RTVSPropertyOp21
 70
     1
102
RTVSPropertyOp22
 70
     1
102
RTVSPropertyOp23
 70
     1
102
RTVSPropertyOp24
 70
     1
102
RTVSPropertyOp25
 70
     1
102
RTVSPropertyOp26
 70
     1
102
RTVSPropertyOp27
 70
     1
102
RTVSPropertyOp28
 70
     1
102
RTVSPropertyOp29
 70
     1
102
RTVSPropertyOp30
 70
     1
102
RTVSPropertyOp31
 70
     1
102
RTVSPropertyOp32
 70
     1
102
RTVSPropertyOp33
 70
     1
102
RTVSPropertyOp34
 70
     1
102
RTVSPropertyOp35
 70
     1
102
RTVSPropertyOp36
 70
     1
102
RTVSPropertyOp37
 70
     1
102
RTVSPropertyOp38
 70
     1
102
RTVSPropertyOp39
 70
     1
102
RTVSPropertyOp40
 70
     1
102
RTVSPropertyOp41
 70
     1
102
RTVSPropertyOp42
 70
     1
102
RTVSPropertyOp43
 70
     1
102
RTVSPropertyOp44
 70
     1
102
RTVSPropertyOp45
 70
     1
102
RTVSPropertyOp46
 70
     1
102
RTVSPropertyOp47
 70
     1
102
RTVSPropertyOp48
 70
     1
102
RTVSPropertyOp49
 70
     1
102
RTVSPropertyOp50
 70
     1
102
RTVSPropertyOp51
 70
     0
102
RTVSPropertyOp52
 70
     0
102
RTVSPropertyOp53
 70
     1
102
RTVSPropertyOp54
 70
     1
102
RTVSPropertyOp55
 70
     1
102
RTVSPropertyOp56
 70
     1
102
RTVSPropertyOp57
 70
     1
102
RTVSPropertyOp58
 70
     1
102
RTVSPropertyOp59
 70
     1
102
RTVSPropertyOp60
 70
     1
102
RTVSPropertyOp61
 70
     1
102
RTVSPropertyOp62
 70
     1
  0
ENDSEC
  0
EOF
