  0
SECTION
  2
HEADER
  9
$ACADVER
  1
AC1014
  9
$ACADMAINTVER
 70
     9
  9
$DWGCODEPAGE
  3
ANSI_1252
  9
$INSBASE
 10
0.0
 20
0.0
 30
0.0
  9
$EXTMIN
 10
1.000000000000000E+20
 20
1.000000000000000E+20
 30
1.000000000000000E+20
  9
$EXTMAX
 10
-1.000000000000000E+20
 20
-1.000000000000000E+20
 30
-1.000000000000000E+20
  9
$LIMMIN
 10
0.0
 20
0.0
  9
$LIMMAX
 10
12.0
 20
9.0
  9
$ORTHOMODE
 70
     0
  9
$REGENMODE
 70
     1
  9
$FILLMODE
 70
     1
  9
$QTEXTMODE
 70
     0
  9
$MIRRTEXT
 70
     1
  9
$DRAGMODE
 70
     2
  9
$LTSCALE
 40
1.0
  9
$OSMODE
 70
    37
  9
$ATTMODE
 70
     1
  9
$TEXTSIZE
 40
0.2
  9
$TRACEWID
 40
0.05
  9
$TEXTSTYLE
  7
STANDARD
  9
$CLAYER
  8
0
  9
$CELTYPE
  6
BYLAYER
  9
$CECOLOR
 62
   256
  9
$CELTSCALE
 40
1.0
  9
$DELOBJ
 70
     1
  9
$DISPSILH
 70
     0
  9
$DIMSCALE
 40
1.0
  9
$DIMASZ
 40
0.18
  9
$DIMEXO
 40
0.0625
  9
$DIMDLI
 40
0.38
  9
$DIMRND
 40
0.0
  9
$DIMDLE
 40
0.0
  9
$DIMEXE
 40
0.18
  9
$DIMTP
 40
0.0
  9
$DIMTM
 40
0.0
  9
$DIMTXT
 40
0.18
  9
$DIMCEN
 40
0.09
  9
$DIMTSZ
 40
0.0
  9
$DIMTOL
 70
     0
  9
$DIMLIM
 70
     0
  9
$DIMTIH
 70
     1
  9
$DIMTOH
 70
     1
  9
$DIMSE1
 70
     0
  9
$DIMSE2
 70
     0
  9
$DIMTAD
 70
     0
  9
$DIMZIN
 70
     0
  9
$DIMBLK
  1

  9
$DIMASO
 70
     1
  9
$DIMSHO
 70
     1
  9
$DIMPOST
  1

  9
$DIMAPOST
  1

  9
$DIMALT
 70
     0
  9
$DIMALTD
 70
     2
  9
$DIMALTF
 40
25.4
  9
$DIMLFAC
 40
1.0
  9
$DIMTOFL
 70
     0
  9
$DIMTVP
 40
0.0
  9
$DIMTIX
 70
     0
  9
$DIMSOXD
 70
     0
  9
$DIMSAH
 70
     0
  9
$DIMBLK1
  1

  9
$DIMBLK2
  1

  9
$DIMSTYLE
  2
STANDARD
  9
$DIMCLRD
 70
     0
  9
$DIMCLRE
 70
     0
  9
$DIMCLRT
 70
     0
  9
$DIMTFAC
 40
1.0
  9
$DIMGAP
 40
0.09
  9
$DIMJUST
 70
     0
  9
$DIMSD1
 70
     0
  9
$DIMSD2
 70
     0
  9
$DIMTOLJ
 70
     1
  9
$DIMTZIN
 70
     0
  9
$DIMALTZ
 70
     0
  9
$DIMALTTZ
 70
     0
  9
$DIMFIT
 70
     3
  9
$DIMUPT
 70
     0
  9
$DIMUNIT
 70
     2
  9
$DIMDEC
 70
     4
  9
$DIMTDEC
 70
     4
  9
$DIMALTU
 70
     2
  9
$DIMALTTD
 70
     2
  9
$DIMTXSTY
  7
STANDARD
  9
$DIMAUNIT
 70
     0
  9
$LUNITS
 70
     2
  9
$LUPREC
 70
     4
  9
$SKETCHINC
 40
0.1
  9
$FILLETRAD
 40
0.5
  9
$AUNITS
 70
     0
  9
$AUPREC
 70
     0
  9
$MENU
  1
.
  9
$ELEVATION
 40
0.0
  9
$PELEVATION
 40
0.0
  9
$THICKNESS
 40
0.0
  9
$LIMCHECK
 70
     0
  9
$CHAMFERA
 40
0.5
  9
$CHAMFERB
 40
0.5
  9
$CHAMFERC
 40
1.0
  9
$CHAMFERD
 40
0.0
  9
$SKPOLY
 70
     0
  9
$TDCREATE
 40
2460490.680898472
  9
$TDUPDATE
 40
2460490.680898611
  9
$TDINDWG
 40
0.0000000116
  9
$TDUSRTIMER
 40
0.0000000116
  9
$USRTIMER
 70
     1
  9
$ANGBASE
 50
0.0
  9
$ANGDIR
 70
     0
  9
$PDMODE
 70
     0
  9
$PDSIZE
 40
0.0
  9
$PLINEWID
 40
0.0
  9
$COORDS
 70
     1
  9
$SPLFRAME
 70
     0
  9
$SPLINETYPE
 70
     6
  9
$SPLINESEGS
 70
     8
  9
$ATTDIA
 70
     0
  9
$ATTREQ
 70
     1
  9
$HANDLING
 70
     1
  9
$HANDSEED
  5
642
  9
$SURFTAB1
 70
     6
  9
$SURFTAB2
 70
     6
  9
$SURFTYPE
 70
     6
  9
$SURFU
 70
     6
  9
$SURFV
 70
     6
  9
$UCSNAME
  2

  9
$UCSORG
 10
0.0
 20
0.0
 30
0.0
  9
$UCSXDIR
 10
1.0
 20
0.0
 30
0.0
  9
$UCSYDIR
 10
0.0
 20
1.0
 30
0.0
  9
$PUCSNAME
  2

  9
$PUCSORG
 10
0.0
 20
0.0
 30
0.0
  9
$PUCSXDIR
 10
1.0
 20
0.0
 30
0.0
  9
$PUCSYDIR
 10
0.0
 20
1.0
 30
0.0
  9
$USERI1
 70
     0
  9
$USERI2
 70
     0
  9
$USERI3
 70
     0
  9
$USERI4
 70
     0
  9
$USERI5
 70
     0
  9
$USERR1
 40
0.0
  9
$USERR2
 40
0.0
  9
$USERR3
 40
0.0
  9
$USERR4
 40
0.0
  9
$USERR5
 40
0.0
  9
$WORLDVIEW
 70
     1
  9
$SHADEDGE
 70
     3
  9
$SHADEDIF
 70
    70
  9
$TILEMODE
 70
     1
  9
$MAXACTVP
 70
    64
  9
$PINSBASE
 10
0.0
 20
0.0
 30
0.0
  9
$PLIMCHECK
 70
     0
  9
$PEXTMIN
 10
1.000000000000000E+20
 20
1.000000000000000E+20
 30
1.000000000000000E+20
  9
$PEXTMAX
 10
-1.000000000000000E+20
 20
-1.000000000000000E+20
 30
-1.000000000000000E+20
  9
$PLIMMIN
 10
0.0
 20
0.0
  9
$PLIMMAX
 10
12.0
 20
9.0
  9
$UNITMODE
 70
     0
  9
$VISRETAIN
 70
     1
  9
$PLINEGEN
 70
     0
  9
$PSLTSCALE
 70
     1
  9
$TREEDEPTH
 70
  3020
  9
$PICKSTYLE
 70
     1
  9
$CMLSTYLE
  2
STANDARD
  9
$CMLJUST
 70
     0
  9
$CMLSCALE
 40
1.0
  9
$PROXYGRAPHICS
 70
     1
  9
$MEASUREMENT
 70
     0
  0
ENDSEC
  0
SECTION
  2
CLASSES
  0
CLASS
  1
ACDBDICTIONARYWDFLT
  2
AcDbDictionaryWithDefault
  3
ObjectDBX Classes
 90
        0
280
     0
281
     0
  0
CLASS
  1
VISUALSTYLE
  2
AcDbVisualStyle
  3
ObjectDBX Classes
 90
     4095
280
     0
281
     0
  0
CLASS
  1
MATERIAL
  2
AcDbMaterial
  3
ObjectDBX Classes
 90
     1153
280
     0
281
     0
  0
CLASS
  1
SUN
  2
AcDbSun
  3
SCENEOE
 90
     1024
280
     0
281
     0
  0
CLASS
  1
DICTIONARYVAR
  2
AcDbDictionaryVar
  3
ObjectDBX Classes
 90
        0
280
     0
281
     0
  0
CLASS
  1
XRECORD
  2
AcDbXrecord
  3
AutoCAD 2000
 90
        0
280
     0
281
     0
  0
CLASS
  1
LWPOLYLINE
  2
AcDbPolyline
  3
AutoCAD 2000
 90
        0
280
     0
281
     1
  0
CLASS
  1
HATCH
  2
AcDbHatch
  3
AutoCAD 2000
 90
        0
280
     0
281
     1
  0
CLASS
  1
ACDBPLACEHOLDER
  2
AcDbPlaceHolder
  3
ObjectDBX Classes
 90
        0
280
     0
281
     0
  0
CLASS
  1
LAYOUT
  2
AcDbLayout
  3
ObjectDBX Classes
 90
        0
280
     0
281
     0
  0
ENDSEC
  0
SECTION
  2
TABLES
  0
TABLE
  2
VPORT
  5
8
330
0
100
AcDbSymbolTable
 70
     1
  0
VPORT
  5
29
330
8
100
AcDbSymbolTableRecord
100
AcDbViewportTableRecord
  2
*ACTIVE
 70
     0
 10
0.0
 20
0.0
 11
1.0
 21
1.0
 12
0.0
 22
0.0
 13
0.0
 23
0.0
 14
0.5
 24
0.5
 15
0.5
 25
0.5
 16
0.0
 26
0.0
 36
1.0
 17
74.99999786197374
 27
39.74999886684608
 37
0.0
 40
39.99999998999989
 41
2.0
 42
50.0
 43
0.0
 44
0.0
 50
0.0
 51
0.0
 71
     0
 72
   100
 73
     1
 74
     3
 75
     0
 76
     0
 77
     0
 78
     0
  0
ENDTAB
  0
TABLE
  2
LTYPE
  5
5
330
0
100
AcDbSymbolTable
 70
     1
  0
LTYPE
  5
14
330
5
100
AcDbSymbolTableRecord
100
AcDbLinetypeTableRecord
  2
BYBLOCK
 70
     0
  3

 72
    65
 73
     0
 40
0.0
  0
LTYPE
  5
15
330
5
100
AcDbSymbolTableRecord
100
AcDbLinetypeTableRecord
  2
BYLAYER
 70
     0
  3

 72
    65
 73
     0
 40
0.0
  0
LTYPE
  5
16
330
5
100
AcDbSymbolTableRecord
100
AcDbLinetypeTableRecord
  2
CONTINUOUS
 70
     0
  3
Solid line
 72
    65
 73
     0
 40
0.0
  0
ENDTAB
  0
TABLE
  2
LAYER
  5
2
330
0
100
AcDbSymbolTable
 70
     6
  0
LAYER
  5
10
330
2
100
AcDbSymbolTableRecord
100
AcDbLayerTableRecord
  2
0
 70
     0
 62
     7
  6
CONTINUOUS
  0
LAYER
  5
40
330
2
100
AcDbSymbolTableRecord
100
AcDbLayerTableRecord
  2
REFERENCIAS
 70
     0
 62
     7
  6
CONTINUOUS
  0
LAYER
  5
42
330
2
100
AcDbSymbolTableRecord
100
AcDbLayerTableRecord
  2
M_U_00C1RGENES
 70
     0
 62
     7
  6
CONTINUOUS
  0
LAYER
  5
56
330
2
100
AcDbSymbolTableRecord
100
AcDbLayerTableRecord
  2
DIBUJOS
 70
     0
 62
     7
  6
CONTINUOUS
  0
LAYER
  5
5E8
330
2
100
AcDbSymbolTableRecord
100
AcDbLayerTableRecord
  2
COTAS_LINEA
 70
     0
 62
     7
  6
CONTINUOUS
  0
LAYER
  5
5F5
330
2
100
AcDbSymbolTableRecord
100
AcDbLayerTableRecord
  2
COTAS_N_U_00DAMERO
 70
     0
 62
     7
  6
CONTINUOUS
  0
ENDTAB
  0
TABLE
  2
STYLE
  5
3
330
0
100
AcDbSymbolTable
 70
     1
  0
STYLE
  5
11
330
3
100
AcDbSymbolTableRecord
100
AcDbTextStyleTableRecord
  2
STANDARD
 70
     0
 40
0.0
 41
1.0
 50
0.0
 71
     0
 42
0.2
  3
txt
  4

  0
ENDTAB
  0
TABLE
  2
VIEW
  5
6
330
0
100
AcDbSymbolTable
 70
     0
  0
ENDTAB
  0
TABLE
  2
UCS
  5
7
330
0
100
AcDbSymbolTable
 70
     0
  0
ENDTAB
  0
TABLE
  2
APPID
  5
9
330
0
100
AcDbSymbolTable
 70
     1
  0
APPID
  5
12
330
9
100
AcDbSymbolTableRecord
100
AcDbRegAppTableRecord
  2
ACAD
 70
     0
  0
ENDTAB
  0
TABLE
  2
DIMSTYLE
  5
A
330
0
100
AcDbSymbolTable
 70
     1
  0
DIMSTYLE
105
27
330
A
100
AcDbSymbolTableRecord
100
AcDbDimStyleTableRecord
  2
STANDARD
 70
     0
  3

  4

  5

  6

  7

 40
1.0
 41
0.18
 42
0.0625
 43
0.38
 44
0.18
 45
0.0
 46
0.0
 47
0.0
 48
0.0
140
0.18
141
0.09
142
0.0
143
25.4
144
1.0
145
0.0
146
1.0
147
0.09
 71
     0
 72
     0
 73
     1
 74
     1
 75
     0
 76
     0
 77
     0
 78
     0
170
     0
171
     2
172
     0
173
     0
174
     0
175
     0
176
     0
177
     0
178
     0
270
     2
271
     4
272
     4
273
     2
274
     2
340
11
275
     0
280
     0
281
     0
282
     0
283
     1
284
     0
285
     0
286
     0
287
     3
288
     0
  0
ENDTAB
  0
TABLE
  2
BLOCK_RECORD
  5
1
330
0
100
AcDbSymbolTable
 70
     7
  0
BLOCK_RECORD
  5
1F
330
1
100
AcDbSymbolTableRecord
100
AcDbBlockTableRecord
  2
*MODEL_SPACE
  0
BLOCK_RECORD
  5
1B
330
1
100
AcDbSymbolTableRecord
100
AcDbBlockTableRecord
  2
*PAPER_SPACE
  0
BLOCK_RECORD
  5
57
330
1
100
AcDbSymbolTableRecord
100
AcDbBlockTableRecord
  2
BLOCK_2
  0
BLOCK_RECORD
  5
186
330
1
100
AcDbSymbolTableRecord
100
AcDbBlockTableRecord
  2
BLOCK_3
  0
BLOCK_RECORD
  5
247
330
1
100
AcDbSymbolTableRecord
100
AcDbBlockTableRecord
  2
BLOCK_4
  0
BLOCK_RECORD
  5
354
330
1
100
AcDbSymbolTableRecord
100
AcDbBlockTableRecord
  2
BLOCK_5
  0
BLOCK_RECORD
  5
411
330
1
100
AcDbSymbolTableRecord
100
AcDbBlockTableRecord
  2
BLOCK_6
  0
BLOCK_RECORD
  5
52E
330
1
100
AcDbSymbolTableRecord
100
AcDbBlockTableRecord
  2
BLOCK_7
  0
ENDTAB
  0
ENDSEC
  0
SECTION
  2
BLOCKS
  0
BLOCK
  5
20
330
1F
100
AcDbEntity
  8
0
100
AcDbBlockBegin
  2
*MODEL_SPACE
 70
     0
 10
0.0
 20
0.0
 30
0.0
  3
*MODEL_SPACE
  1

  0
ENDBLK
  5
21
330
1F
100
AcDbEntity
  8
0
100
AcDbBlockEnd
  0
BLOCK
  5
1C
330
1B
100
AcDbEntity
 67
     1
  8
0
100
AcDbBlockBegin
  2
*PAPER_SPACE
 70
     0
 10
0.0
 20
0.0
 30
0.0
  3
*PAPER_SPACE
  1

  0
ENDBLK
  5
1D
330
1B
100
AcDbEntity
 67
     1
  8
0
100
AcDbBlockEnd
  0
BLOCK
  5
59
330
57
100
AcDbEntity
  8
0
100
AcDbBlockBegin
  2
BLOCK_2
 70
     0
 10
0.0
 20
0.0
 30
0.0
  3
BLOCK_2
  1

  0
POLYLINE
  5
5B
330
57
100
AcDbEntity
  8
DIBUJOS
 62
     7
100
AcDb2dPolyline
 66
     1
 10
0.0
 20
0.0
 30
0.0
  0
VERTEX
  5
5C
330
5B
100
AcDbEntity
  8
DIBUJOS
 62
     7
100
AcDbVertex
100
AcDb2dVertex
 10
44.78662612080895
 20
48.85768054284097
 30
0.0
  0
VERTEX
  5
5D
330
5B
100
AcDbEntity
  8
DIBUJOS
 62
     7
100
AcDbVertex
100
AcDb2dVertex
 10
44.78290323805084
 20
48.90655889230674
 30
0.0
  0
VERTEX
  5
5E
330
5B
100
AcDbEntity
  8
DIBUJOS
 62
     7
100
AcDbVertex
100
AcDb2dVertex
 10
44.77452960057566
 20
48.94240649011498
 30
0.0
  0
VERTEX
  5
5F
330
5B
100
AcDbEntity
  8
DIBUJOS
 62
     7
100
AcDbVertex
100
AcDb2dVertex
 10
44.75698956484484
 20
48.95572066062053
 30
0.0
  0
VERTEX
  5
60
330
5B
100
AcDbEntity
  8
DIBUJOS
 62
     7
100
AcDbVertex
100
AcDb2dVertex
 10
44.72009607344827
 20
48.96661436900587
 30
0.0
  0
VERTEX
  5
61
330
5B
100
AcDbEntity
  8
DIBUJOS
 62
     7
100
AcDbVertex
100
AcDb2dVertex
 10
44.59308505276597
 20
48.96661436900587
 30
0.0
  0
VERTEX
  5
62
330
5B
100
AcDbEntity
  8
DIBUJOS
 62
     7
100
AcDbVertex
100
AcDb2dVertex
 10
44.56284456610516
 20
48.96056158486094
 30
0.0
  0
VERTEX
  5
63
330
5B
100
AcDbEntity
  8
DIBUJOS
 62
     7
100
AcDbVertex
100
AcDb2dVertex
 10
44.53865152563891
 20
48.93635370597038
 30
0.0
  0
VERTEX
  5
64
330
5B
100
AcDbEntity
  8
DIBUJOS
 62
     7
100
AcDbVertex
100
AcDb2dVertex
 10
44.53260407944467
 20
48.85768054284097
 30
0.0
  0
SEQEND
  5
65
330
5B
100
AcDbEntity
  8
DIBUJOS
 62
     7
  0
POLYLINE
  5
66
330
57
100
AcDbEntity
  8
DIBUJOS
 62
     7
100
AcDb2dPolyline
 66
     1
 10
0.0
 20
0.0
 30
0.0
  0
VERTEX
  5
67
330
66
100
AcDbEntity
  8
DIBUJOS
 62
     7
100
AcDbVertex
100
AcDb2dVertex
 10
43.03266487172652
 20
48.85162775869637
 30
0.0
  0
VERTEX
  5
68
330
66
100
AcDbEntity
  8
DIBUJOS
 62
     7
100
AcDbVertex
100
AcDb2dVertex
 10
43.02661579768716
 20
48.85162775869637
 30
0.0
  0
SEQEND
  5
69
330
66
100
AcDbEntity
  8
DIBUJOS
 62
     7
  0
POLYLINE
  5
6A
330
57
100
AcDbEntity
  8
DIBUJOS
 62
     7
100
AcDb2dPolyline
 66
     1
 10
0.0
 20
0.0
 30
0.0
  0
VERTEX
  5
6B
330
6A
100
AcDbEntity
  8
DIBUJOS
 62
     7
100
AcDbVertex
100
AcDb2dVertex
 10
44.52655500540531
 20
48.85162775869637
 30
0.0
  0
VERTEX
  5
6C
330
6A
100
AcDbEntity
  8
DIBUJOS
 62
     7
100
AcDbVertex
100
AcDb2dVertex
 10
43.03266487172652
 20
48.85162775869637
 30
0.0
  0
SEQEND
  5
6D
330
6A
100
AcDbEntity
  8
DIBUJOS
 62
     7
  0
POLYLINE
  5
6E
330
57
100
AcDbEntity
  8
DIBUJOS
 62
     7
100
AcDb2dPolyline
 66
     1
 10
0.0
 20
0.0
 30
0.0
  0
VERTEX
  5
6F
330
6E
100
AcDbEntity
  8
DIBUJOS
 62
     7
100
AcDbVertex
100
AcDb2dVertex
 10
44.53260407944467
 20
48.85162775869637
 30
0.0
  0
VERTEX
  5
70
330
6E
100
AcDbEntity
  8
DIBUJOS
 62
     7
100
AcDbVertex
100
AcDb2dVertex
 10
44.52655500540531
 20
48.85162775869637
 30
0.0
  0
SEQEND
  5
71
330
6E
100
AcDbEntity
  8
DIBUJOS
 62
     7
  0
POLYLINE
  5
72
330
57
100
AcDbEntity
  8
DIBUJOS
 62
     7
100
AcDb2dPolyline
 66
     1
 10
0.0
 20
0.0
 30
0.0
  0
VERTEX
  5
73
330
72
100
AcDbEntity
  8
DIBUJOS
 62
     7
100
AcDbVertex
100
AcDb2dVertex
 10
44.53260407944467
 20
48.85162775869637
 30
0.0
  0
VERTEX
  5
74
330
72
100
AcDbEntity
  8
DIBUJOS
 62
     7
100
AcDbVertex
100
AcDb2dVertex
 10
44.53260407944467
 20
48.85768054284097
 30
0.0
  0
SEQEND
  5
75
330
72
100
AcDbEntity
  8
DIBUJOS
 62
     7
  0
POLYLINE
  5
76
330
57
100
AcDbEntity
  8
DIBUJOS
 62
     7
100
AcDb2dPolyline
 66
     1
 10
0.0
 20
0.0
 30
0.0
  0
VERTEX
  5
77
330
76
100
AcDbEntity
  8
DIBUJOS
 62
     7
100
AcDbVertex
100
AcDb2dVertex
 10
44.53865152563891
 20
48.85162775869637
 30
0.0
  0
VERTEX
  5
78
330
76
100
AcDbEntity
  8
DIBUJOS
 62
     7
100
AcDbVertex
100
AcDb2dVertex
 10
44.53260407944467
 20
48.85162775869637
 30
0.0
  0
SEQEND
  5
79
330
76
100
AcDbEntity
  8
DIBUJOS
 62
     7
  0
POLYLINE
  5
7A
330
57
100
AcDbEntity
  8
DIBUJOS
 62
     7
100
AcDb2dPolyline
 66
     1
 10
0.0
 20
0.0
 30
0.0
  0
VERTEX
  5
7B
330
7A
100
AcDbEntity
  8
DIBUJOS
 62
     7
100
AcDbVertex
100
AcDb2dVertex
 10
44.78057704676926
 20
48.85162775869637
 30
0.0
  0
VERTEX
  5
7C
330
7A
100
AcDbEntity
  8
DIBUJOS
 62
     7
100
AcDbVertex
100
AcDb2dVertex
 10
44.53865152563891
 20
48.85162775869637
 30
0.0
  0
SEQEND
  5
7D
330
7A
100
AcDbEntity
  8
DIBUJOS
 62
     7
  0
POLYLINE
  5
7E
330
57
100
AcDbEntity
  8
DIBUJOS
 62
     7
100
AcDb2dPolyline
 66
     1
 10
0.0
 20
0.0
 30
0.0
  0
VERTEX
  5
7F
330
7E
100
AcDbEntity
  8
DIBUJOS
 62
     7
100
AcDbVertex
100
AcDb2dVertex
 10
44.78662612080895
 20
48.85162775869637
 30
0.0
  0
VERTEX
  5
80
330
7E
100
AcDbEntity
  8
DIBUJOS
 62
     7
100
AcDbVertex
100
AcDb2dVertex
 10
44.78057704676926
 20
48.85162775869637
 30
0.0
  0
SEQEND
  5
81
330
7E
100
AcDbEntity
  8
DIBUJOS
 62
     7
  0
POLYLINE
  5
82
330
57
100
AcDbEntity
  8
DIBUJOS
 62
     7
100
AcDb2dPolyline
 66
     1
 10
0.0
 20
0.0
 30
0.0
  0
VERTEX
  5
83
330
82
100
AcDbEntity
  8
DIBUJOS
 62
     7
100
AcDbVertex
100
AcDb2dVertex
 10
44.78662612080895
 20
48.85162775869637
 30
0.0
  0
VERTEX
  5
84
330
82
100
AcDbEntity
  8
DIBUJOS
 62
     7
100
AcDbVertex
100
AcDb2dVertex
 10
44.78662612080895
 20
48.85768054284097
 30
0.0
  0
SEQEND
  5
85
330
82
100
AcDbEntity
  8
DIBUJOS
 62
     7
  0
POLYLINE
  5
86
330
57
100
AcDbEntity
  8
DIBUJOS
 62
     7
100
AcDb2dPolyline
 66
     1
 10
0.0
 20
0.0
 30
0.0
  0
VERTEX
  5
87
330
86
100
AcDbEntity
  8
DIBUJOS
 62
     7
100
AcDbVertex
100
AcDb2dVertex
 10
44.79267356700287
 20
48.85162775869637
 30
0.0
  0
VERTEX
  5
88
330
86
100
AcDbEntity
  8
DIBUJOS
 62
     7
100
AcDbVertex
100
AcDb2dVertex
 10
44.78662612080895
 20
48.85162775869637
 30
0.0
  0
SEQEND
  5
89
330
86
100
AcDbEntity
  8
DIBUJOS
 62
     7
  0
POLYLINE
  5
8A
330
57
100
AcDbEntity
  8
DIBUJOS
 62
     7
100
AcDb2dPolyline
 66
     1
 10
0.0
 20
0.0
 30
0.0
  0
VERTEX
  5
8B
330
8A
100
AcDbEntity
  8
DIBUJOS
 62
     7
100
AcDbVertex
100
AcDb2dVertex
 10
46.28051625448773
 20
48.85162775869637
 30
0.0
  0
VERTEX
  5
8C
330
8A
100
AcDbEntity
  8
DIBUJOS
 62
     7
100
AcDbVertex
100
AcDb2dVertex
 10
44.79267356700287
 20
48.85162775869637
 30
0.0
  0
SEQEND
  5
8D
330
8A
100
AcDbEntity
  8
DIBUJOS
 62
     7
  0
POLYLINE
  5
8E
330
57
100
AcDbEntity
  8
DIBUJOS
 62
     7
100
AcDb2dPolyline
 66
     1
 10
0.0
 20
0.0
 30
0.0
  0
VERTEX
  5
8F
330
8E
100
AcDbEntity
  8
DIBUJOS
 62
     7
100
AcDbVertex
100
AcDb2dVertex
 10
46.28656370068165
 20
48.85162775869637
 30
0.0
  0
VERTEX
  5
90
330
8E
100
AcDbEntity
  8
DIBUJOS
 62
     7
100
AcDbVertex
100
AcDb2dVertex
 10
46.28051625448773
 20
48.85162775869637
 30
0.0
  0
SEQEND
  5
91
330
8E
100
AcDbEntity
  8
DIBUJOS
 62
     7
  0
POLYLINE
  5
92
330
57
100
AcDbEntity
  8
DIBUJOS
 62
     7
100
AcDb2dPolyline
 66
     1
 10
0.0
 20
0.0
 30
0.0
  0
VERTEX
  5
93
330
92
100
AcDbEntity
  8
DIBUJOS
 62
     7
100
AcDbVertex
100
AcDb2dVertex
 10
46.28656370068165
 20
48.85162775869637
 30
0.0
  0
VERTEX
  5
94
330
92
100
AcDbEntity
  8
DIBUJOS
 62
     7
100
AcDbVertex
100
AcDb2dVertex
 10
46.28656370068165
 20
48.85768054284097
 30
0.0
  0
SEQEND
  5
95
330
92
100
AcDbEntity
  8
DIBUJOS
 62
     7
  0
POLYLINE
  5
96
330
57
100
AcDbEntity
  8
DIBUJOS
 62
     7
100
AcDb2dPolyline
 66
     1
 10
0.0
 20
0.0
 30
0.0
  0
VERTEX
  5
97
330
96
100
AcDbEntity
  8
DIBUJOS
 62
     7
100
AcDbVertex
100
AcDb2dVertex
 10
43.02661579768716
 20
48.84557497455209
 30
0.0
  0
VERTEX
  5
98
330
96
100
AcDbEntity
  8
DIBUJOS
 62
     7
100
AcDbVertex
100
AcDb2dVertex
 10
43.02661579768716
 20
48.85162775869637
 30
0.0
  0
SEQEND
  5
99
330
96
100
AcDbEntity
  8
DIBUJOS
 62
     7
  0
POLYLINE
  5
9A
330
57
100
AcDbEntity
  8
DIBUJOS
 62
     7
100
AcDb2dPolyline
 66
     1
 10
0.0
 20
0.0
 30
0.0
  0
VERTEX
  5
9B
330
9A
100
AcDbEntity
  8
DIBUJOS
 62
     7
100
AcDbVertex
100
AcDb2dVertex
 10
46.28656370068165
 20
48.84557497455209
 30
0.0
  0
VERTEX
  5
9C
330
9A
100
AcDbEntity
  8
DIBUJOS
 62
     7
100
AcDbVertex
100
AcDb2dVertex
 10
46.28656370068165
 20
48.85162775869637
 30
0.0
  0
SEQEND
  5
9D
330
9A
100
AcDbEntity
  8
DIBUJOS
 62
     7
  0
POLYLINE
  5
9E
330
57
100
AcDbEntity
  8
DIBUJOS
 62
     7
100
AcDb2dPolyline
 66
     1
 10
0.0
 20
0.0
 30
0.0
  0
VERTEX
  5
9F
330
9E
100
AcDbEntity
  8
DIBUJOS
 62
     7
100
AcDbVertex
100
AcDb2dVertex
 10
43.83101892867378
 20
48.64586567465674
 30
0.0
  0
VERTEX
  5
A0
330
9E
100
AcDbEntity
  8
DIBUJOS
 62
     7
100
AcDbVertex
100
AcDb2dVertex
 10
43.09921933677038
 20
48.65491878937056
 30
0.0
  0
VERTEX
  5
A1
330
9E
100
AcDbEntity
  8
DIBUJOS
 62
     7
100
AcDbVertex
100
AcDb2dVertex
 10
43.05685791219341
 20
48.67007355354762
 30
0.0
  0
VERTEX
  5
A2
330
9E
100
AcDbEntity
  8
DIBUJOS
 62
     7
100
AcDbVertex
100
AcDb2dVertex
 10
43.0447613919598
 20
48.6821758641493
 30
0.0
  0
VERTEX
  5
A3
330
9E
100
AcDbEntity
  8
DIBUJOS
 62
     7
100
AcDbVertex
100
AcDb2dVertex
 10
43.03447829166175
 20
48.70698967299196
 30
0.0
  0
VERTEX
  5
A4
330
9E
100
AcDbEntity
  8
DIBUJOS
 62
     7
100
AcDbVertex
100
AcDb2dVertex
 10
43.03084982394552
 20
48.71788338137698
 30
0.0
  0
VERTEX
  5
A5
330
9E
100
AcDbEntity
  8
DIBUJOS
 62
     7
100
AcDbVertex
100
AcDb2dVertex
 10
43.02056835149323
 20
48.76690181142267
 30
0.0
  0
VERTEX
  5
A6
330
9E
100
AcDbEntity
  8
DIBUJOS
 62
     7
100
AcDbVertex
100
AcDb2dVertex
 10
43.02056835149323
 20
48.839525448095
 30
0.0
  0
VERTEX
  5
A7
330
9E
100
AcDbEntity
  8
DIBUJOS
 62
     7
100
AcDbVertex
100
AcDb2dVertex
 10
43.02661579768716
 20
48.84557497455209
 30
0.0
  0
SEQEND
  5
A8
330
9E
100
AcDbEntity
  8
DIBUJOS
 62
     7
  0
POLYLINE
  5
A9
330
57
100
AcDbEntity
  8
DIBUJOS
 62
     7
100
AcDb2dPolyline
 66
     1
 10
0.0
 20
0.0
 30
0.0
  0
VERTEX
  5
AA
330
A9
100
AcDbEntity
  8
DIBUJOS
 62
     7
100
AcDbVertex
100
AcDb2dVertex
 10
43.83706800271314
 20
48.64586567465674
 30
0.0
  0
VERTEX
  5
AB
330
A9
100
AcDbEntity
  8
DIBUJOS
 62
     7
100
AcDbVertex
100
AcDb2dVertex
 10
43.83101892867378
 20
48.64586567465674
 30
0.0
  0
SEQEND
  5
AC
330
A9
100
AcDbEntity
  8
DIBUJOS
 62
     7
  0
POLYLINE
  5
AD
330
57
100
AcDbEntity
  8
DIBUJOS
 62
     7
100
AcDb2dPolyline
 66
     1
 10
0.0
 20
0.0
 30
0.0
  0
VERTEX
  5
AE
330
AD
100
AcDbEntity
  8
DIBUJOS
 62
     7
100
AcDbVertex
100
AcDb2dVertex
 10
43.84311544890706
 20
48.64586567465674
 30
0.0
  0
VERTEX
  5
AF
330
AD
100
AcDbEntity
  8
DIBUJOS
 62
     7
100
AcDbVertex
100
AcDb2dVertex
 10
43.83706800271314
 20
48.64586567465674
 30
0.0
  0
SEQEND
  5
B0
330
AD
100
AcDbEntity
  8
DIBUJOS
 62
     7
  0
POLYLINE
  5
B1
330
57
100
AcDbEntity
  8
DIBUJOS
 62
     7
100
AcDb2dPolyline
 66
     1
 10
0.0
 20
0.0
 30
0.0
  0
VERTEX
  5
B2
330
B1
100
AcDbEntity
  8
DIBUJOS
 62
     7
100
AcDbVertex
100
AcDb2dVertex
 10
44.53260407944467
 20
48.64586567465674
 30
0.0
  0
VERTEX
  5
B3
330
B1
100
AcDbEntity
  8
DIBUJOS
 62
     7
100
AcDbVertex
100
AcDb2dVertex
 10
44.52716056394745
 20
48.64707427687308
 30
0.0
  0
VERTEX
  5
B4
330
B1
100
AcDbEntity
  8
DIBUJOS
 62
     7
100
AcDbVertex
100
AcDb2dVertex
 10
44.52050755921138
 20
48.65191845880166
 30
0.0
  0
VERTEX
  5
B5
330
B1
100
AcDbEntity
  8
DIBUJOS
 62
     7
100
AcDbVertex
100
AcDb2dVertex
 10
43.84916289510066
 20
48.65191845880166
 30
0.0
  0
VERTEX
  5
B6
330
B1
100
AcDbEntity
  8
DIBUJOS
 62
     7
100
AcDbVertex
100
AcDb2dVertex
 10
43.84311544890706
 20
48.64586567465674
 30
0.0
  0
SEQEND
  5
B7
330
B1
100
AcDbEntity
  8
DIBUJOS
 62
     7
  0
POLYLINE
  5
B8
330
57
100
AcDbEntity
  8
DIBUJOS
 62
     7
100
AcDb2dPolyline
 66
     1
 10
0.0
 20
0.0
 30
0.0
  0
VERTEX
  5
B9
330
B8
100
AcDbEntity
  8
DIBUJOS
 62
     7
100
AcDbVertex
100
AcDb2dVertex
 10
44.53865152563891
 20
48.64586567465674
 30
0.0
  0
VERTEX
  5
BA
330
B8
100
AcDbEntity
  8
DIBUJOS
 62
     7
100
AcDbVertex
100
AcDb2dVertex
 10
44.53260407944467
 20
48.64586567465674
 30
0.0
  0
SEQEND
  5
BB
330
B8
100
AcDbEntity
  8
DIBUJOS
 62
     7
  0
POLYLINE
  5
BC
330
57
100
AcDbEntity
  8
DIBUJOS
 62
     7
100
AcDb2dPolyline
 66
     1
 10
0.0
 20
0.0
 30
0.0
  0
VERTEX
  5
BD
330
BC
100
AcDbEntity
  8
DIBUJOS
 62
     7
100
AcDbVertex
100
AcDb2dVertex
 10
44.54469897183251
 20
48.64586567465674
 30
0.0
  0
VERTEX
  5
BE
330
BC
100
AcDbEntity
  8
DIBUJOS
 62
     7
100
AcDbVertex
100
AcDb2dVertex
 10
44.53865152563891
 20
48.64586567465674
 30
0.0
  0
SEQEND
  5
BF
330
BC
100
AcDbEntity
  8
DIBUJOS
 62
     7
  0
POLYLINE
  5
C0
330
57
100
AcDbEntity
  8
DIBUJOS
 62
     7
100
AcDb2dPolyline
 66
     1
 10
0.0
 20
0.0
 30
0.0
  0
VERTEX
  5
C1
330
C0
100
AcDbEntity
  8
DIBUJOS
 62
     7
100
AcDbVertex
100
AcDb2dVertex
 10
44.78057704676926
 20
48.64586567465674
 30
0.0
  0
VERTEX
  5
C2
330
C0
100
AcDbEntity
  8
DIBUJOS
 62
     7
100
AcDbVertex
100
AcDb2dVertex
 10
44.77452960057566
 20
48.65191845880166
 30
0.0
  0
VERTEX
  5
C3
330
C0
100
AcDbEntity
  8
DIBUJOS
 62
     7
100
AcDbVertex
100
AcDb2dVertex
 10
44.55074804587188
 20
48.65191845880166
 30
0.0
  0
VERTEX
  5
C4
330
C0
100
AcDbEntity
  8
DIBUJOS
 62
     7
100
AcDbVertex
100
AcDb2dVertex
 10
44.54469897183251
 20
48.64586567465674
 30
0.0
  0
SEQEND
  5
C5
330
C0
100
AcDbEntity
  8
DIBUJOS
 62
     7
  0
POLYLINE
  5
C6
330
57
100
AcDbEntity
  8
DIBUJOS
 62
     7
100
AcDb2dPolyline
 66
     1
 10
0.0
 20
0.0
 30
0.0
  0
VERTEX
  5
C7
330
C6
100
AcDbEntity
  8
DIBUJOS
 62
     7
100
AcDbVertex
100
AcDb2dVertex
 10
44.78662612080895
 20
48.64586567465674
 30
0.0
  0
VERTEX
  5
C8
330
C6
100
AcDbEntity
  8
DIBUJOS
 62
     7
100
AcDbVertex
100
AcDb2dVertex
 10
44.78057704676926
 20
48.64586567465674
 30
0.0
  0
SEQEND
  5
C9
330
C6
100
AcDbEntity
  8
DIBUJOS
 62
     7
  0
POLYLINE
  5
CA
330
57
100
AcDbEntity
  8
DIBUJOS
 62
     7
100
AcDb2dPolyline
 66
     1
 10
0.0
 20
0.0
 30
0.0
  0
VERTEX
  5
CB
330
CA
100
AcDbEntity
  8
DIBUJOS
 62
     7
100
AcDbVertex
100
AcDb2dVertex
 10
45.47006567730719
 20
48.64586567465674
 30
0.0
  0
VERTEX
  5
CC
330
CA
100
AcDbEntity
  8
DIBUJOS
 62
     7
100
AcDbVertex
100
AcDb2dVertex
 10
45.46401660326783
 20
48.65191845880166
 30
0.0
  0
VERTEX
  5
CD
330
CA
100
AcDbEntity
  8
DIBUJOS
 62
     7
100
AcDbVertex
100
AcDb2dVertex
 10
44.79267356700287
 20
48.65191845880166
 30
0.0
  0
VERTEX
  5
CE
330
CA
100
AcDbEntity
  8
DIBUJOS
 62
     7
100
AcDbVertex
100
AcDb2dVertex
 10
44.78662612080895
 20
48.64586567465674
 30
0.0
  0
SEQEND
  5
CF
330
CA
100
AcDbEntity
  8
DIBUJOS
 62
     7
  0
POLYLINE
  5
D0
330
57
100
AcDbEntity
  8
DIBUJOS
 62
     7
100
AcDb2dPolyline
 66
     1
 10
0.0
 20
0.0
 30
0.0
  0
VERTEX
  5
D1
330
D0
100
AcDbEntity
  8
DIBUJOS
 62
     7
100
AcDbVertex
100
AcDb2dVertex
 10
45.47611312350111
 20
48.64586567465674
 30
0.0
  0
VERTEX
  5
D2
330
D0
100
AcDbEntity
  8
DIBUJOS
 62
     7
100
AcDbVertex
100
AcDb2dVertex
 10
45.47006567730719
 20
48.64586567465674
 30
0.0
  0
SEQEND
  5
D3
330
D0
100
AcDbEntity
  8
DIBUJOS
 62
     7
  0
POLYLINE
  5
D4
330
57
100
AcDbEntity
  8
DIBUJOS
 62
     7
100
AcDb2dPolyline
 66
     1
 10
0.0
 20
0.0
 30
0.0
  0
VERTEX
  5
D5
330
D4
100
AcDbEntity
  8
DIBUJOS
 62
     7
100
AcDbVertex
100
AcDb2dVertex
 10
45.47611312350111
 20
48.64586567465674
 30
0.0
  0
VERTEX
  5
D6
330
D4
100
AcDbEntity
  8
DIBUJOS
 62
     7
100
AcDbVertex
100
AcDb2dVertex
 10
46.22001086348323
 20
48.65491878937056
 30
0.0
  0
VERTEX
  5
D7
330
D4
100
AcDbEntity
  8
DIBUJOS
 62
     7
100
AcDbVertex
100
AcDb2dVertex
 10
46.25027576782692
 20
48.66402076940302
 30
0.0
  0
VERTEX
  5
D8
330
D4
100
AcDbEntity
  8
DIBUJOS
 62
     7
100
AcDbVertex
100
AcDb2dVertex
 10
46.27446880829381
 20
48.68822864829358
 30
0.0
  0
VERTEX
  5
D9
330
D4
100
AcDbEntity
  8
DIBUJOS
 62
     7
100
AcDbVertex
100
AcDb2dVertex
 10
46.27930676524888
 20
48.70093688884703
 30
0.0
  0
VERTEX
  5
DA
330
D4
100
AcDbEntity
  8
DIBUJOS
 62
     7
100
AcDbVertex
100
AcDb2dVertex
 10
46.28172574372658
 20
48.70577781308777
 30
0.0
  0
VERTEX
  5
DB
330
D4
100
AcDbEntity
  8
DIBUJOS
 62
     7
100
AcDbVertex
100
AcDb2dVertex
 10
46.29261277472101
 20
48.76084902727807
 30
0.0
  0
VERTEX
  5
DC
330
D4
100
AcDbEntity
  8
DIBUJOS
 62
     7
100
AcDbVertex
100
AcDb2dVertex
 10
46.29261277472101
 20
48.839525448095
 30
0.0
  0
VERTEX
  5
DD
330
D4
100
AcDbEntity
  8
DIBUJOS
 62
     7
100
AcDbVertex
100
AcDb2dVertex
 10
46.28656370068165
 20
48.84557497455209
 30
0.0
  0
SEQEND
  5
DE
330
D4
100
AcDbEntity
  8
DIBUJOS
 62
     7
  0
POLYLINE
  5
DF
330
57
100
AcDbEntity
  8
DIBUJOS
 62
     7
100
AcDb2dPolyline
 66
     1
 10
0.0
 20
0.0
 30
0.0
  0
VERTEX
  5
E0
330
DF
100
AcDbEntity
  8
DIBUJOS
 62
     7
100
AcDbVertex
100
AcDb2dVertex
 10
43.83706800271314
 20
48.63981289051213
 30
0.0
  0
VERTEX
  5
E1
330
DF
100
AcDbEntity
  8
DIBUJOS
 62
     7
100
AcDbVertex
100
AcDb2dVertex
 10
43.83706800271314
 20
48.64586567465674
 30
0.0
  0
SEQEND
  5
E2
330
DF
100
AcDbEntity
  8
DIBUJOS
 62
     7
  0
POLYLINE
  5
E3
330
57
100
AcDbEntity
  8
DIBUJOS
 62
     7
100
AcDb2dPolyline
 66
     1
 10
0.0
 20
0.0
 30
0.0
  0
VERTEX
  5
E4
330
E3
100
AcDbEntity
  8
DIBUJOS
 62
     7
100
AcDbVertex
100
AcDb2dVertex
 10
44.53865152563891
 20
48.63981289051213
 30
0.0
  0
VERTEX
  5
E5
330
E3
100
AcDbEntity
  8
DIBUJOS
 62
     7
100
AcDbVertex
100
AcDb2dVertex
 10
44.53865152563891
 20
48.64586567465674
 30
0.0
  0
SEQEND
  5
E6
330
E3
100
AcDbEntity
  8
DIBUJOS
 62
     7
  0
POLYLINE
  5
E7
330
57
100
AcDbEntity
  8
DIBUJOS
 62
     7
100
AcDb2dPolyline
 66
     1
 10
0.0
 20
0.0
 30
0.0
  0
VERTEX
  5
E8
330
E7
100
AcDbEntity
  8
DIBUJOS
 62
     7
100
AcDbVertex
100
AcDb2dVertex
 10
44.78662612080895
 20
48.63981289051213
 30
0.0
  0
VERTEX
  5
E9
330
E7
100
AcDbEntity
  8
DIBUJOS
 62
     7
100
AcDbVertex
100
AcDb2dVertex
 10
44.78662612080895
 20
48.64586567465674
 30
0.0
  0
SEQEND
  5
EA
330
E7
100
AcDbEntity
  8
DIBUJOS
 62
     7
  0
POLYLINE
  5
EB
330
57
100
AcDbEntity
  8
DIBUJOS
 62
     7
100
AcDb2dPolyline
 66
     1
 10
0.0
 20
0.0
 30
0.0
  0
VERTEX
  5
EC
330
EB
100
AcDbEntity
  8
DIBUJOS
 62
     7
100
AcDbVertex
100
AcDb2dVertex
 10
45.47611312350111
 20
48.63981289051213
 30
0.0
  0
VERTEX
  5
ED
330
EB
100
AcDbEntity
  8
DIBUJOS
 62
     7
100
AcDbVertex
100
AcDb2dVertex
 10
45.47611312350111
 20
48.64586567465674
 30
0.0
  0
SEQEND
  5
EE
330
EB
100
AcDbEntity
  8
DIBUJOS
 62
     7
  0
POLYLINE
  5
EF
330
57
100
AcDbEntity
  8
DIBUJOS
 62
     7
100
AcDb2dPolyline
 66
     1
 10
0.0
 20
0.0
 30
0.0
  0
VERTEX
  5
F0
330
EF
100
AcDbEntity
  8
DIBUJOS
 62
     7
100
AcDbVertex
100
AcDb2dVertex
 10
43.02661579768716
 20
48.85162775869637
 30
0.0
  0
VERTEX
  5
F1
330
EF
100
AcDbEntity
  8
DIBUJOS
 62
     7
100
AcDbVertex
100
AcDb2dVertex
 10
43.02289454277481
 20
48.85814639221314
 30
0.0
  0
VERTEX
  5
F2
330
EF
100
AcDbEntity
  8
DIBUJOS
 62
     7
100
AcDbVertex
100
AcDb2dVertex
 10
43.00847183125995
 20
48.91819861122442
 30
0.0
  0
VERTEX
  5
F3
330
EF
100
AcDbEntity
  8
DIBUJOS
 62
     7
100
AcDbVertex
100
AcDb2dVertex
 10
42.97823134459913
 20
48.9484592742599
 30
0.0
  0
VERTEX
  5
F4
330
EF
100
AcDbEntity
  8
DIBUJOS
 62
     7
100
AcDbVertex
100
AcDb2dVertex
 10
42.94752529411291
 20
48.95823233800233
 30
0.0
  0
VERTEX
  5
F5
330
EF
100
AcDbEntity
  8
DIBUJOS
 62
     7
100
AcDbVertex
100
AcDb2dVertex
 10
42.91775037127783
 20
48.96661436900587
 30
0.0
  0
VERTEX
  5
F6
330
EF
100
AcDbEntity
  8
DIBUJOS
 62
     7
100
AcDbVertex
100
AcDb2dVertex
 10
42.73630582346846
 20
48.96661436900587
 30
0.0
  0
VERTEX
  5
F7
330
EF
100
AcDbEntity
  8
DIBUJOS
 62
     7
100
AcDbVertex
100
AcDb2dVertex
 10
42.69336325803221
 20
48.95632659057262
 30
0.0
  0
VERTEX
  5
F8
330
EF
100
AcDbEntity
  8
DIBUJOS
 62
     7
100
AcDbVertex
100
AcDb2dVertex
 10
42.66977577610746
 20
48.9484592742599
 30
0.0
  0
VERTEX
  5
F9
330
EF
100
AcDbEntity
  8
DIBUJOS
 62
     7
100
AcDbVertex
100
AcDb2dVertex
 10
42.64558436348634
 20
48.9242513953687
 30
0.0
  0
VERTEX
  5
FA
330
EF
100
AcDbEntity
  8
DIBUJOS
 62
     7
100
AcDbVertex
100
AcDb2dVertex
 10
42.62743876921369
 20
48.85162775869637
 30
0.0
  0
VERTEX
  5
FB
330
EF
100
AcDbEntity
  8
DIBUJOS
 62
     7
100
AcDbVertex
100
AcDb2dVertex
 10
42.62743876921369
 20
43.35049559889009
 30
0.0
  0
VERTEX
  5
FC
330
EF
100
AcDbEntity
  8
DIBUJOS
 62
     7
100
AcDbVertex
100
AcDb2dVertex
 10
42.63609239612267
 20
43.30240723874385
 30
0.0
  0
VERTEX
  5
FD
330
EF
100
AcDbEntity
  8
DIBUJOS
 62
     7
100
AcDbVertex
100
AcDb2dVertex
 10
42.66033427195562
 20
43.10266536196973
 30
0.0
  0
VERTEX
  5
FE
330
EF
100
AcDbEntity
  8
DIBUJOS
 62
     7
100
AcDbVertex
100
AcDb2dVertex
 10
42.67098526534632
 20
43.07876859227451
 30
0.0
  0
VERTEX
  5
FF
330
EF
100
AcDbEntity
  8
DIBUJOS
 62
     7
100
AcDbVertex
100
AcDb2dVertex
 10
42.71695236780208
 20
42.99283241394087
 30
0.0
  0
VERTEX
  5
100
330
EF
100
AcDbEntity
  8
DIBUJOS
 62
     7
100
AcDbVertex
100
AcDb2dVertex
 10
42.74840234370174
 20
42.92686586252099
 30
0.0
  0
VERTEX
  5
101
330
EF
100
AcDbEntity
  8
DIBUJOS
 62
     7
100
AcDbVertex
100
AcDb2dVertex
 10
42.77259375632288
 20
42.90265961247435
 30
0.0
  0
VERTEX
  5
102
330
EF
100
AcDbEntity
  8
DIBUJOS
 62
     7
100
AcDbVertex
100
AcDb2dVertex
 10
42.89464635947959
 20
42.8193849651663
 30
0.0
  0
VERTEX
  5
103
330
EF
100
AcDbEntity
  8
DIBUJOS
 62
     7
100
AcDbVertex
100
AcDb2dVertex
 10
42.93625734726136
 20
42.80231956702775
 30
0.0
  0
VERTEX
  5
104
330
EF
100
AcDbEntity
  8
DIBUJOS
 62
     7
100
AcDbVertex
100
AcDb2dVertex
 10
43.08064073558303
 20
42.77916880786519
 30
0.0
  0
VERTEX
  5
105
330
EF
100
AcDbEntity
  8
DIBUJOS
 62
     7
100
AcDbVertex
100
AcDb2dVertex
 10
43.12338633170832
 20
42.76951790741921
 30
0.0
  0
VERTEX
  5
106
330
EF
100
AcDbEntity
  8
DIBUJOS
 62
     7
100
AcDbVertex
100
AcDb2dVertex
 10
43.34716788641179
 20
42.76951790741921
 30
0.0
  0
VERTEX
  5
107
330
EF
100
AcDbEntity
  8
DIBUJOS
 62
     7
100
AcDbVertex
100
AcDb2dVertex
 10
43.42010838952271
 20
42.78513200559211
 30
0.0
  0
VERTEX
  5
108
330
EF
100
AcDbEntity
  8
DIBUJOS
 62
     7
100
AcDbVertex
100
AcDb2dVertex
 10
43.45567193111055
 20
42.79021562758215
 30
0.0
  0
VERTEX
  5
109
330
EF
100
AcDbEntity
  8
DIBUJOS
 62
     7
100
AcDbVertex
100
AcDb2dVertex
 10
43.55155366146521
 20
42.80896036384065
 30
0.0
  0
VERTEX
  5
10A
330
EF
100
AcDbEntity
  8
DIBUJOS
 62
     7
100
AcDbVertex
100
AcDb2dVertex
 10
43.71005698203115
 20
42.91476355191995
 30
0.0
  0
VERTEX
  5
10B
330
EF
100
AcDbEntity
  8
DIBUJOS
 62
     7
100
AcDbVertex
100
AcDb2dVertex
 10
43.71731391746361
 20
42.92626156141314
 30
0.0
  0
VERTEX
  5
10C
330
EF
100
AcDbEntity
  8
DIBUJOS
 62
     7
100
AcDbVertex
100
AcDb2dVertex
 10
43.74755440412442
 20
42.98677962979627
 30
0.0
  0
VERTEX
  5
10D
330
EF
100
AcDbEntity
  8
DIBUJOS
 62
     7
100
AcDbVertex
100
AcDb2dVertex
 10
43.80449969692499
 20
43.09678360644055
 30
0.0
  0
VERTEX
  5
10E
330
EF
100
AcDbEntity
  8
DIBUJOS
 62
     7
100
AcDbVertex
100
AcDb2dVertex
 10
43.80915207948846
 20
43.12005978658805
 30
0.0
  0
VERTEX
  5
10F
330
EF
100
AcDbEntity
  8
DIBUJOS
 62
     7
100
AcDbVertex
100
AcDb2dVertex
 10
43.8340467213845
 20
43.3202398223867
 30
0.0
  0
VERTEX
  5
110
330
EF
100
AcDbEntity
  8
DIBUJOS
 62
     7
100
AcDbVertex
100
AcDb2dVertex
 10
43.83706800271314
 20
48.63981289051213
 30
0.0
  0
SEQEND
  5
111
330
EF
100
AcDbEntity
  8
DIBUJOS
 62
     7
  0
POLYLINE
  5
112
330
57
100
AcDbEntity
  8
DIBUJOS
 62
     7
100
AcDb2dPolyline
 66
     1
 10
0.0
 20
0.0
 30
0.0
  0
VERTEX
  5
113
330
112
100
AcDbEntity
  8
DIBUJOS
 62
     7
100
AcDbVertex
100
AcDb2dVertex
 10
44.53865152563891
 20
48.63981289051213
 30
0.0
  0
VERTEX
  5
114
330
112
100
AcDbEntity
  8
DIBUJOS
 62
     7
100
AcDbVertex
100
AcDb2dVertex
 10
44.53260407944467
 20
48.63376010636753
 30
0.0
  0
VERTEX
  5
115
330
112
100
AcDbEntity
  8
DIBUJOS
 62
     7
100
AcDbVertex
100
AcDb2dVertex
 10
44.53260407944467
 20
42.82398482050134
 30
0.0
  0
VERTEX
  5
116
330
112
100
AcDbEntity
  8
DIBUJOS
 62
     7
100
AcDbVertex
100
AcDb2dVertex
 10
44.54078563114616
 20
42.80031120242866
 30
0.0
  0
VERTEX
  5
117
330
112
100
AcDbEntity
  8
DIBUJOS
 62
     7
100
AcDbVertex
100
AcDb2dVertex
 10
44.54469897183251
 20
42.7876746310091
 30
0.0
  0
VERTEX
  5
118
330
112
100
AcDbEntity
  8
DIBUJOS
 62
     7
100
AcDbVertex
100
AcDb2dVertex
 10
44.57494108633877
 20
42.76951790741921
 30
0.0
  0
VERTEX
  5
119
330
112
100
AcDbEntity
  8
DIBUJOS
 62
     7
100
AcDbVertex
100
AcDb2dVertex
 10
44.74428911391485
 20
42.76951790741921
 30
0.0
  0
VERTEX
  5
11A
330
112
100
AcDbEntity
  8
DIBUJOS
 62
     7
100
AcDbVertex
100
AcDb2dVertex
 10
44.7563840063027
 20
42.77557069156381
 30
0.0
  0
VERTEX
  5
11B
330
112
100
AcDbEntity
  8
DIBUJOS
 62
     7
100
AcDbVertex
100
AcDb2dVertex
 10
44.77573908981451
 20
42.7991726405026
 30
0.0
  0
VERTEX
  5
11C
330
112
100
AcDbEntity
  8
DIBUJOS
 62
     7
100
AcDbVertex
100
AcDb2dVertex
 10
44.78290323805084
 20
42.82957175527409
 30
0.0
  0
VERTEX
  5
11D
330
112
100
AcDbEntity
  8
DIBUJOS
 62
     7
100
AcDbVertex
100
AcDb2dVertex
 10
44.78662612080895
 20
42.93896980196659
 30
0.0
  0
VERTEX
  5
11E
330
112
100
AcDbEntity
  8
DIBUJOS
 62
     7
100
AcDbVertex
100
AcDb2dVertex
 10
44.78057704676926
 20
42.94502258611152
 30
0.0
  0
VERTEX
  5
11F
330
112
100
AcDbEntity
  8
DIBUJOS
 62
     7
100
AcDbVertex
100
AcDb2dVertex
 10
44.78662612080895
 20
42.97528162030276
 30
0.0
  0
VERTEX
  5
120
330
112
100
AcDbEntity
  8
DIBUJOS
 62
     7
100
AcDbVertex
100
AcDb2dVertex
 10
44.78057704676926
 20
42.98133277560344
 30
0.0
  0
VERTEX
  5
121
330
112
100
AcDbEntity
  8
DIBUJOS
 62
     7
100
AcDbVertex
100
AcDb2dVertex
 10
44.78662612080895
 20
43.04185247283049
 30
0.0
  0
VERTEX
  5
122
330
112
100
AcDbEntity
  8
DIBUJOS
 62
     7
100
AcDbVertex
100
AcDb2dVertex
 10
44.78057704676926
 20
43.04790362813117
 30
0.0
  0
VERTEX
  5
123
330
112
100
AcDbEntity
  8
DIBUJOS
 62
     7
100
AcDbVertex
100
AcDb2dVertex
 10
44.78662612080895
 20
43.07816266232273
 30
0.0
  0
VERTEX
  5
124
330
112
100
AcDbEntity
  8
DIBUJOS
 62
     7
100
AcDbVertex
100
AcDb2dVertex
 10
44.78057704676926
 20
43.08421544646734
 30
0.0
  0
VERTEX
  5
125
330
112
100
AcDbEntity
  8
DIBUJOS
 62
     7
100
AcDbVertex
100
AcDb2dVertex
 10
44.78662612080895
 20
43.1992004279326
 30
0.0
  0
VERTEX
  5
126
330
112
100
AcDbEntity
  8
DIBUJOS
 62
     7
100
AcDbVertex
100
AcDb2dVertex
 10
44.78057704676926
 20
43.20525158323327
 30
0.0
  0
VERTEX
  5
127
330
112
100
AcDbEntity
  8
DIBUJOS
 62
     7
100
AcDbVertex
100
AcDb2dVertex
 10
44.78662612080895
 20
43.26576965161608
 30
0.0
  0
VERTEX
  5
128
330
112
100
AcDbEntity
  8
DIBUJOS
 62
     7
100
AcDbVertex
100
AcDb2dVertex
 10
44.78057704676926
 20
43.271822435761
 30
0.0
  0
VERTEX
  5
129
330
112
100
AcDbEntity
  8
DIBUJOS
 62
     7
100
AcDbVertex
100
AcDb2dVertex
 10
44.78057704676926
 20
43.28392637520628
 30
0.0
  0
VERTEX
  5
12A
330
112
100
AcDbEntity
  8
DIBUJOS
 62
     7
100
AcDbVertex
100
AcDb2dVertex
 10
44.78662612080895
 20
43.28997753050729
 30
0.0
  0
VERTEX
  5
12B
330
112
100
AcDbEntity
  8
DIBUJOS
 62
     7
100
AcDbVertex
100
AcDb2dVertex
 10
44.78662612080895
 20
43.52599864873848
 30
0.0
  0
VERTEX
  5
12C
330
112
100
AcDbEntity
  8
DIBUJOS
 62
     7
100
AcDbVertex
100
AcDb2dVertex
 10
44.78057704676926
 20
43.53810421702768
 30
0.0
  0
VERTEX
  5
12D
330
112
100
AcDbEntity
  8
DIBUJOS
 62
     7
100
AcDbVertex
100
AcDb2dVertex
 10
44.78662612080895
 20
43.54415374348444
 30
0.0
  0
VERTEX
  5
12E
330
112
100
AcDbEntity
  8
DIBUJOS
 62
     7
100
AcDbVertex
100
AcDb2dVertex
 10
44.78662612080895
 20
43.55625931177364
 30
0.0
  0
VERTEX
  5
12F
330
112
100
AcDbEntity
  8
DIBUJOS
 62
     7
100
AcDbVertex
100
AcDb2dVertex
 10
44.78057704676926
 20
43.56231209591856
 30
0.0
  0
VERTEX
  5
130
330
112
100
AcDbEntity
  8
DIBUJOS
 62
     7
100
AcDbVertex
100
AcDb2dVertex
 10
44.78662612080895
 20
43.59256950126588
 30
0.0
  0
VERTEX
  5
131
330
112
100
AcDbEntity
  8
DIBUJOS
 62
     7
100
AcDbVertex
100
AcDb2dVertex
 10
44.78057704676926
 20
43.59862228541081
 30
0.0
  0
VERTEX
  5
132
330
112
100
AcDbEntity
  8
DIBUJOS
 62
     7
100
AcDbVertex
100
AcDb2dVertex
 10
44.78057704676926
 20
43.62283016430138
 30
0.0
  0
VERTEX
  5
133
330
112
100
AcDbEntity
  8
DIBUJOS
 62
     7
100
AcDbVertex
100
AcDb2dVertex
 10
44.78662612080895
 20
43.62887969075813
 30
0.0
  0
VERTEX
  5
134
330
112
100
AcDbEntity
  8
DIBUJOS
 62
     7
100
AcDbVertex
100
AcDb2dVertex
 10
44.78057704676926
 20
43.67729544853958
 30
0.0
  0
VERTEX
  5
135
330
112
100
AcDbEntity
  8
DIBUJOS
 62
     7
100
AcDbVertex
100
AcDb2dVertex
 10
44.78662612080895
 20
43.6833482326845
 30
0.0
  0
VERTEX
  5
136
330
112
100
AcDbEntity
  8
DIBUJOS
 62
     7
100
AcDbVertex
100
AcDb2dVertex
 10
44.78057704676926
 20
43.89516310086874
 30
0.0
  0
VERTEX
  5
137
330
112
100
AcDbEntity
  8
DIBUJOS
 62
     7
100
AcDbVertex
100
AcDb2dVertex
 10
44.78662612080895
 20
43.90121588501366
 30
0.0
  0
VERTEX
  5
138
330
112
100
AcDbEntity
  8
DIBUJOS
 62
     7
100
AcDbVertex
100
AcDb2dVertex
 10
44.78360158378911
 20
44.01619923763467
 30
0.0
  0
VERTEX
  5
139
330
112
100
AcDbEntity
  8
DIBUJOS
 62
     7
100
AcDbVertex
100
AcDb2dVertex
 10
44.78360158378911
 20
47.24788754463985
 30
0.0
  0
VERTEX
  5
13A
330
112
100
AcDbEntity
  8
DIBUJOS
 62
     7
100
AcDbVertex
100
AcDb2dVertex
 10
44.78057704676926
 20
47.27209542353042
 30
0.0
  0
VERTEX
  5
13B
330
112
100
AcDbEntity
  8
DIBUJOS
 62
     7
100
AcDbVertex
100
AcDb2dVertex
 10
44.78662612080895
 20
47.60494642848091
 30
0.0
  0
VERTEX
  5
13C
330
112
100
AcDbEntity
  8
DIBUJOS
 62
     7
100
AcDbVertex
100
AcDb2dVertex
 10
44.78057704676926
 20
47.61099921262551
 30
0.0
  0
VERTEX
  5
13D
330
112
100
AcDbEntity
  8
DIBUJOS
 62
     7
100
AcDbVertex
100
AcDb2dVertex
 10
44.78057704676926
 20
47.62310152322686
 30
0.0
  0
VERTEX
  5
13E
330
112
100
AcDbEntity
  8
DIBUJOS
 62
     7
100
AcDbVertex
100
AcDb2dVertex
 10
44.78662612080895
 20
47.62915430737147
 30
0.0
  0
VERTEX
  5
13F
330
112
100
AcDbEntity
  8
DIBUJOS
 62
     7
100
AcDbVertex
100
AcDb2dVertex
 10
44.78057704676926
 20
47.71993303879008
 30
0.0
  0
VERTEX
  5
140
330
112
100
AcDbEntity
  8
DIBUJOS
 62
     7
100
AcDbVertex
100
AcDb2dVertex
 10
44.78662612080895
 20
47.72598256524685
 30
0.0
  0
VERTEX
  5
141
330
112
100
AcDbEntity
  8
DIBUJOS
 62
     7
100
AcDbVertex
100
AcDb2dVertex
 10
44.78662612080895
 20
47.73808813353605
 30
0.0
  0
VERTEX
  5
142
330
112
100
AcDbEntity
  8
DIBUJOS
 62
     7
100
AcDbVertex
100
AcDb2dVertex
 10
44.78057704676926
 20
47.74414091768097
 30
0.0
  0
VERTEX
  5
143
330
112
100
AcDbEntity
  8
DIBUJOS
 62
     7
100
AcDbVertex
100
AcDb2dVertex
 10
44.78662612080895
 20
47.75624322828201
 30
0.0
  0
VERTEX
  5
144
330
112
100
AcDbEntity
  8
DIBUJOS
 62
     7
100
AcDbVertex
100
AcDb2dVertex
 10
44.78057704676926
 20
47.82281408080974
 30
0.0
  0
VERTEX
  5
145
330
112
100
AcDbEntity
  8
DIBUJOS
 62
     7
100
AcDbVertex
100
AcDb2dVertex
 10
44.78662612080895
 20
47.85912427030198
 30
0.0
  0
VERTEX
  5
146
330
112
100
AcDbEntity
  8
DIBUJOS
 62
     7
100
AcDbVertex
100
AcDb2dVertex
 10
44.78057704676926
 20
47.86517705444658
 30
0.0
  0
VERTEX
  5
147
330
112
100
AcDbEntity
  8
DIBUJOS
 62
     7
100
AcDbVertex
100
AcDb2dVertex
 10
44.78662612080895
 20
47.87727936504827
 30
0.0
  0
VERTEX
  5
148
330
112
100
AcDbEntity
  8
DIBUJOS
 62
     7
100
AcDbVertex
100
AcDb2dVertex
 10
44.78057704676926
 20
47.90148724393915
 30
0.0
  0
VERTEX
  5
149
330
112
100
AcDbEntity
  8
DIBUJOS
 62
     7
100
AcDbVertex
100
AcDb2dVertex
 10
44.78662612080895
 20
47.90754002808375
 30
0.0
  0
VERTEX
  5
14A
330
112
100
AcDbEntity
  8
DIBUJOS
 62
     7
100
AcDbVertex
100
AcDb2dVertex
 10
44.78662612080895
 20
47.98621319121252
 30
0.0
  0
VERTEX
  5
14B
330
112
100
AcDbEntity
  8
DIBUJOS
 62
     7
100
AcDbVertex
100
AcDb2dVertex
 10
44.78057704676926
 20
47.99226597535744
 30
0.0
  0
VERTEX
  5
14C
330
112
100
AcDbEntity
  8
DIBUJOS
 62
     7
100
AcDbVertex
100
AcDb2dVertex
 10
44.78057704676926
 20
48.01647385424832
 30
0.0
  0
VERTEX
  5
14D
330
112
100
AcDbEntity
  8
DIBUJOS
 62
     7
100
AcDbVertex
100
AcDb2dVertex
 10
44.78662612080895
 20
48.02252338070476
 30
0.0
  0
VERTEX
  5
14E
330
112
100
AcDbEntity
  8
DIBUJOS
 62
     7
100
AcDbVertex
100
AcDb2dVertex
 10
44.78057704676926
 20
48.05278404374025
 30
0.0
  0
VERTEX
  5
14F
330
112
100
AcDbEntity
  8
DIBUJOS
 62
     7
100
AcDbVertex
100
AcDb2dVertex
 10
44.78662612080895
 20
48.05883682788485
 30
0.0
  0
VERTEX
  5
150
330
112
100
AcDbEntity
  8
DIBUJOS
 62
     7
100
AcDbVertex
100
AcDb2dVertex
 10
44.78662612080895
 20
48.07093913848653
 30
0.0
  0
VERTEX
  5
151
330
112
100
AcDbEntity
  8
DIBUJOS
 62
     7
100
AcDbVertex
100
AcDb2dVertex
 10
44.78057704676926
 20
48.07699192263114
 30
0.0
  0
VERTEX
  5
152
330
112
100
AcDbEntity
  8
DIBUJOS
 62
     7
100
AcDbVertex
100
AcDb2dVertex
 10
44.78662612080895
 20
48.10724932797878
 30
0.0
  0
VERTEX
  5
153
330
112
100
AcDbEntity
  8
DIBUJOS
 62
     7
100
AcDbVertex
100
AcDb2dVertex
 10
44.78057704676926
 20
48.11330211212338
 30
0.0
  0
VERTEX
  5
154
330
112
100
AcDbEntity
  8
DIBUJOS
 62
     7
100
AcDbVertex
100
AcDb2dVertex
 10
44.78057704676926
 20
48.13145720686966
 30
0.0
  0
VERTEX
  5
155
330
112
100
AcDbEntity
  8
DIBUJOS
 62
     7
100
AcDbVertex
100
AcDb2dVertex
 10
44.78662612080895
 20
48.13750999101426
 30
0.0
  0
VERTEX
  5
156
330
112
100
AcDbEntity
  8
DIBUJOS
 62
     7
100
AcDbVertex
100
AcDb2dVertex
 10
44.78057704676926
 20
48.25249334363528
 30
0.0
  0
VERTEX
  5
157
330
112
100
AcDbEntity
  8
DIBUJOS
 62
     7
100
AcDbVertex
100
AcDb2dVertex
 10
44.78057704676926
 20
48.2645989119248
 30
0.0
  0
VERTEX
  5
158
330
112
100
AcDbEntity
  8
DIBUJOS
 62
     7
100
AcDbVertex
100
AcDb2dVertex
 10
44.78662612080895
 20
48.27065169606941
 30
0.0
  0
VERTEX
  5
159
330
112
100
AcDbEntity
  8
DIBUJOS
 62
     7
100
AcDbVertex
100
AcDb2dVertex
 10
44.78662612080895
 20
48.28275400667108
 30
0.0
  0
VERTEX
  5
15A
330
112
100
AcDbEntity
  8
DIBUJOS
 62
     7
100
AcDbVertex
100
AcDb2dVertex
 10
44.78057704676926
 20
48.28880679081536
 30
0.0
  0
VERTEX
  5
15B
330
112
100
AcDbEntity
  8
DIBUJOS
 62
     7
100
AcDbVertex
100
AcDb2dVertex
 10
44.78662612080895
 20
48.40984292758162
 30
0.0
  0
VERTEX
  5
15C
330
112
100
AcDbEntity
  8
DIBUJOS
 62
     7
100
AcDbVertex
100
AcDb2dVertex
 10
44.78057704676926
 20
48.42194523818298
 30
0.0
  0
VERTEX
  5
15D
330
112
100
AcDbEntity
  8
DIBUJOS
 62
     7
100
AcDbVertex
100
AcDb2dVertex
 10
44.78662612080895
 20
48.47641378010935
 30
0.0
  0
VERTEX
  5
15E
330
112
100
AcDbEntity
  8
DIBUJOS
 62
     7
100
AcDbVertex
100
AcDb2dVertex
 10
44.78057704676926
 20
48.48246656425395
 30
0.0
  0
VERTEX
  5
15F
330
112
100
AcDbEntity
  8
DIBUJOS
 62
     7
100
AcDbVertex
100
AcDb2dVertex
 10
44.78057704676926
 20
48.49456887485531
 30
0.0
  0
VERTEX
  5
160
330
112
100
AcDbEntity
  8
DIBUJOS
 62
     7
100
AcDbVertex
100
AcDb2dVertex
 10
44.78662612080895
 20
48.58534760627393
 30
0.0
  0
VERTEX
  5
161
330
112
100
AcDbEntity
  8
DIBUJOS
 62
     7
100
AcDbVertex
100
AcDb2dVertex
 10
44.78057704676926
 20
48.59139713273068
 30
0.0
  0
VERTEX
  5
162
330
112
100
AcDbEntity
  8
DIBUJOS
 62
     7
100
AcDbVertex
100
AcDb2dVertex
 10
44.78057704676926
 20
48.63376010636753
 30
0.0
  0
VERTEX
  5
163
330
112
100
AcDbEntity
  8
DIBUJOS
 62
     7
100
AcDbVertex
100
AcDb2dVertex
 10
44.78662612080895
 20
48.63981289051213
 30
0.0
  0
SEQEND
  5
164
330
112
100
AcDbEntity
  8
DIBUJOS
 62
     7
  0
POLYLINE
  5
165
330
57
100
AcDbEntity
  8
DIBUJOS
 62
     7
100
AcDb2dPolyline
 66
     1
 10
0.0
 20
0.0
 30
0.0
  0
VERTEX
  5
166
330
165
100
AcDbEntity
  8
DIBUJOS
 62
     7
100
AcDbVertex
100
AcDb2dVertex
 10
45.47611312350111
 20
48.63981289051213
 30
0.0
  0
VERTEX
  5
167
330
165
100
AcDbEntity
  8
DIBUJOS
 62
     7
100
AcDbVertex
100
AcDb2dVertex
 10
45.47006567730719
 20
48.63376010636753
 30
0.0
  0
VERTEX
  5
168
330
165
100
AcDbEntity
  8
DIBUJOS
 62
     7
100
AcDbVertex
100
AcDb2dVertex
 10
45.47308858648159
 20
48.50667118545699
 30
0.0
  0
VERTEX
  5
169
330
165
100
AcDbEntity
  8
DIBUJOS
 62
     7
100
AcDbVertex
100
AcDb2dVertex
 10
45.47950555361392
 20
43.30783780449713
 30
0.0
  0
VERTEX
  5
16A
330
165
100
AcDbEntity
  8
DIBUJOS
 62
     7
100
AcDbVertex
100
AcDb2dVertex
 10
45.49165253705903
 20
43.21097696974267
 30
0.0
  0
VERTEX
  5
16B
330
165
100
AcDbEntity
  8
DIBUJOS
 62
     7
100
AcDbVertex
100
AcDb2dVertex
 10
45.50948232929628
 20
43.09151918277124
 30
0.0
  0
VERTEX
  5
16C
330
165
100
AcDbEntity
  8
DIBUJOS
 62
     7
100
AcDbVertex
100
AcDb2dVertex
 10
45.59707669798917
 20
42.92081470722031
 30
0.0
  0
VERTEX
  5
16D
330
165
100
AcDbEntity
  8
DIBUJOS
 62
     7
100
AcDbVertex
100
AcDb2dVertex
 10
45.61413163574804
 20
42.90725783896546
 30
0.0
  0
VERTEX
  5
16E
330
165
100
AcDbEntity
  8
DIBUJOS
 62
     7
100
AcDbVertex
100
AcDb2dVertex
 10
45.73525311125395
 20
42.82258890123003
 30
0.0
  0
VERTEX
  5
16F
330
165
100
AcDbEntity
  8
DIBUJOS
 62
     7
100
AcDbVertex
100
AcDb2dVertex
 10
45.76090958486422
 20
42.80796514018301
 30
0.0
  0
VERTEX
  5
170
330
165
100
AcDbEntity
  8
DIBUJOS
 62
     7
100
AcDbVertex
100
AcDb2dVertex
 10
45.77798731246084
 20
42.80369431132743
 30
0.0
  0
VERTEX
  5
171
330
165
100
AcDbEntity
  8
DIBUJOS
 62
     7
100
AcDbVertex
100
AcDb2dVertex
 10
45.96601323980214
 20
42.76951790741921
 30
0.0
  0
VERTEX
  5
172
330
165
100
AcDbEntity
  8
DIBUJOS
 62
     7
100
AcDbVertex
100
AcDb2dVertex
 10
46.18979479450561
 20
42.76951790741921
 30
0.0
  0
VERTEX
  5
173
330
165
100
AcDbEntity
  8
DIBUJOS
 62
     7
100
AcDbVertex
100
AcDb2dVertex
 10
46.22567413812884
 20
42.77802373056311
 30
0.0
  0
VERTEX
  5
174
330
165
100
AcDbEntity
  8
DIBUJOS
 62
     7
100
AcDbVertex
100
AcDb2dVertex
 10
46.3948968215981
 20
42.80796514018301
 30
0.0
  0
VERTEX
  5
175
330
165
100
AcDbEntity
  8
DIBUJOS
 62
     7
100
AcDbVertex
100
AcDb2dVertex
 10
46.46707874868597
 20
42.85564140280813
 30
0.0
  0
VERTEX
  5
176
330
165
100
AcDbEntity
  8
DIBUJOS
 62
     7
100
AcDbVertex
100
AcDb2dVertex
 10
46.55873133631858
 20
42.92081470722031
 30
0.0
  0
VERTEX
  5
177
330
165
100
AcDbEntity
  8
DIBUJOS
 62
     7
100
AcDbVertex
100
AcDb2dVertex
 10
46.61800282040105
 20
43.03640561863798
 30
0.0
  0
VERTEX
  5
178
330
165
100
AcDbEntity
  8
DIBUJOS
 62
     7
100
AcDbVertex
100
AcDb2dVertex
 10
46.64763774851971
 20
43.09692368702079
 30
0.0
  0
VERTEX
  5
179
330
165
100
AcDbEntity
  8
DIBUJOS
 62
     7
100
AcDbVertex
100
AcDb2dVertex
 10
46.67685757602448
 20
43.30830039618082
 30
0.0
  0
VERTEX
  5
17A
330
165
100
AcDbEntity
  8
DIBUJOS
 62
     7
100
AcDbVertex
100
AcDb2dVertex
 10
46.68253061774336
 20
43.40479636988889
 30
0.0
  0
VERTEX
  5
17B
330
165
100
AcDbEntity
  8
DIBUJOS
 62
     7
100
AcDbVertex
100
AcDb2dVertex
 10
46.6796932829612
 20
43.54415374348444
 30
0.0
  0
VERTEX
  5
17C
330
165
100
AcDbEntity
  8
DIBUJOS
 62
     7
100
AcDbVertex
100
AcDb2dVertex
 10
46.68265270615931
 20
48.60961738123516
 30
0.0
  0
VERTEX
  5
17D
330
165
100
AcDbEntity
  8
DIBUJOS
 62
     7
100
AcDbVertex
100
AcDb2dVertex
 10
46.67673385976309
 20
48.89392883626319
 30
0.0
  0
VERTEX
  5
17E
330
165
100
AcDbEntity
  8
DIBUJOS
 62
     7
100
AcDbVertex
100
AcDb2dVertex
 10
46.66638727348906
 20
48.917592681272
 30
0.0
  0
VERTEX
  5
17F
330
165
100
AcDbEntity
  8
DIBUJOS
 62
     7
100
AcDbVertex
100
AcDb2dVertex
 10
46.64945279630039
 20
48.94240649011498
 30
0.0
  0
VERTEX
  5
180
330
165
100
AcDbEntity
  8
DIBUJOS
 62
     7
100
AcDbVertex
100
AcDb2dVertex
 10
46.57687530274579
 20
48.96661436900587
 30
0.0
  0
VERTEX
  5
181
330
165
100
AcDbEntity
  8
DIBUJOS
 62
     7
100
AcDbVertex
100
AcDb2dVertex
 10
46.39543075493643
 20
48.96661436900587
 30
0.0
  0
VERTEX
  5
182
330
165
100
AcDbEntity
  8
DIBUJOS
 62
     7
100
AcDbVertex
100
AcDb2dVertex
 10
46.32285326138151
 20
48.94240649011498
 30
0.0
  0
VERTEX
  5
183
330
165
100
AcDbEntity
  8
DIBUJOS
 62
     7
100
AcDbVertex
100
AcDb2dVertex
 10
46.30349980571577
 20
48.91275175703159
 30
0.0
  0
VERTEX
  5
184
330
165
100
AcDbEntity
  8
DIBUJOS
 62
     7
100
AcDbVertex
100
AcDb2dVertex
 10
46.28656370068165
 20
48.85768054284097
 30
0.0
  0
SEQEND
  5
185
330
165
100
AcDbEntity
  8
DIBUJOS
 62
     7
  0
ENDBLK
  5
5A
330
57
100
AcDbEntity
  8
0
100
AcDbBlockEnd
  0
BLOCK
  5
188
330
186
100
AcDbEntity
  8
0
100
AcDbBlockBegin
  2
BLOCK_3
 70
     0
 10
0.0
 20
0.0
 30
0.0
  3
BLOCK_3
  1

  0
POLYLINE
  5
18A
330
186
100
AcDbEntity
  8
DIBUJOS
 62
     7
100
AcDb2dPolyline
 66
     1
 10
0.0
 20
0.0
 30
0.0
  0
VERTEX
  5
18B
330
18A
100
AcDbEntity
  8
DIBUJOS
 62
     7
100
AcDbVertex
100
AcDb2dVertex
 10
44.78057704676926
 20
30.36322593133271
 30
0.0
  0
VERTEX
  5
18C
330
18A
100
AcDbEntity
  8
DIBUJOS
 62
     7
100
AcDbVertex
100
AcDb2dVertex
 10
44.78271115227684
 20
30.34560509740431
 30
0.0
  0
VERTEX
  5
18D
330
18A
100
AcDbEntity
  8
DIBUJOS
 62
     7
100
AcDbVertex
100
AcDb2dVertex
 10
44.78057704676926
 20
30.33296689714082
 30
0.0
  0
VERTEX
  5
18E
330
18A
100
AcDbEntity
  8
DIBUJOS
 62
     7
100
AcDbVertex
100
AcDb2dVertex
 10
44.78662612080895
 20
30.2058779762306
 30
0.0
  0
VERTEX
  5
18F
330
18A
100
AcDbEntity
  8
DIBUJOS
 62
     7
100
AcDbVertex
100
AcDb2dVertex
 10
44.78057704676926
 20
30.19982682092928
 30
0.0
  0
VERTEX
  5
190
330
18A
100
AcDbEntity
  8
DIBUJOS
 62
     7
100
AcDbVertex
100
AcDb2dVertex
 10
44.78057704676926
 20
30.187722881484
 30
0.0
  0
VERTEX
  5
191
330
18A
100
AcDbEntity
  8
DIBUJOS
 62
     7
100
AcDbVertex
100
AcDb2dVertex
 10
44.78662612080895
 20
30.07273790001906
 30
0.0
  0
VERTEX
  5
192
330
18A
100
AcDbEntity
  8
DIBUJOS
 62
     7
100
AcDbVertex
100
AcDb2dVertex
 10
44.78290323805084
 20
30.06622089534686
 30
0.0
  0
VERTEX
  5
193
330
18A
100
AcDbEntity
  8
DIBUJOS
 62
     7
100
AcDbVertex
100
AcDb2dVertex
 10
44.77452960057566
 20
30.0303749263819
 30
0.0
  0
VERTEX
  5
194
330
18A
100
AcDbEntity
  8
DIBUJOS
 62
     7
100
AcDbVertex
100
AcDb2dVertex
 10
44.75698956484484
 20
30.01706075587635
 30
0.0
  0
VERTEX
  5
195
330
18A
100
AcDbEntity
  8
DIBUJOS
 62
     7
100
AcDbVertex
100
AcDb2dVertex
 10
44.73219259368156
 20
30.00616704749133
 30
0.0
  0
VERTEX
  5
196
330
18A
100
AcDbEntity
  8
DIBUJOS
 62
     7
100
AcDbVertex
100
AcDb2dVertex
 10
44.58703597872661
 20
30.00616704749133
 30
0.0
  0
VERTEX
  5
197
330
18A
100
AcDbEntity
  8
DIBUJOS
 62
     7
100
AcDbVertex
100
AcDb2dVertex
 10
44.56284456610516
 20
30.01221820279266
 30
0.0
  0
VERTEX
  5
198
330
18A
100
AcDbEntity
  8
DIBUJOS
 62
     7
100
AcDbVertex
100
AcDb2dVertex
 10
44.53865152563891
 20
30.03642608168322
 30
0.0
  0
VERTEX
  5
199
330
18A
100
AcDbEntity
  8
DIBUJOS
 62
     7
100
AcDbVertex
100
AcDb2dVertex
 10
44.53260407944467
 20
30.36322593133271
 30
0.0
  0
SEQEND
  5
19A
330
18A
100
AcDbEntity
  8
DIBUJOS
 62
     7
  0
POLYLINE
  5
19B
330
186
100
AcDbEntity
  8
DIBUJOS
 62
     7
100
AcDb2dPolyline
 66
     1
 10
0.0
 20
0.0
 30
0.0
  0
VERTEX
  5
19C
330
19B
100
AcDbEntity
  8
DIBUJOS
 62
     7
100
AcDbVertex
100
AcDb2dVertex
 10
44.53260407944467
 20
30.36927871547667
 30
0.0
  0
VERTEX
  5
19D
330
19B
100
AcDbEntity
  8
DIBUJOS
 62
     7
100
AcDbVertex
100
AcDb2dVertex
 10
44.52655500540531
 20
30.36927871547667
 30
0.0
  0
SEQEND
  5
19E
330
19B
100
AcDbEntity
  8
DIBUJOS
 62
     7
  0
POLYLINE
  5
19F
330
186
100
AcDbEntity
  8
DIBUJOS
 62
     7
100
AcDb2dPolyline
 66
     1
 10
0.0
 20
0.0
 30
0.0
  0
VERTEX
  5
1A0
330
19F
100
AcDbEntity
  8
DIBUJOS
 62
     7
100
AcDbVertex
100
AcDb2dVertex
 10
44.53260407944467
 20
30.36927871547667
 30
0.0
  0
VERTEX
  5
1A1
330
19F
100
AcDbEntity
  8
DIBUJOS
 62
     7
100
AcDbVertex
100
AcDb2dVertex
 10
44.53260407944467
 20
30.36322593133271
 30
0.0
  0
SEQEND
  5
1A2
330
19F
100
AcDbEntity
  8
DIBUJOS
 62
     7
  0
POLYLINE
  5
1A3
330
186
100
AcDbEntity
  8
DIBUJOS
 62
     7
100
AcDb2dPolyline
 66
     1
 10
0.0
 20
0.0
 30
0.0
  0
VERTEX
  5
1A4
330
1A3
100
AcDbEntity
  8
DIBUJOS
 62
     7
100
AcDbVertex
100
AcDb2dVertex
 10
44.53865152563891
 20
30.36927871547667
 30
0.0
  0
VERTEX
  5
1A5
330
1A3
100
AcDbEntity
  8
DIBUJOS
 62
     7
100
AcDbVertex
100
AcDb2dVertex
 10
44.53260407944467
 20
30.36927871547667
 30
0.0
  0
SEQEND
  5
1A6
330
1A3
100
AcDbEntity
  8
DIBUJOS
 62
     7
  0
POLYLINE
  5
1A7
330
186
100
AcDbEntity
  8
DIBUJOS
 62
     7
100
AcDb2dPolyline
 66
     1
 10
0.0
 20
0.0
 30
0.0
  0
VERTEX
  5
1A8
330
1A7
100
AcDbEntity
  8
DIBUJOS
 62
     7
100
AcDbVertex
100
AcDb2dVertex
 10
44.77452960057566
 20
30.36927871547667
 30
0.0
  0
VERTEX
  5
1A9
330
1A7
100
AcDbEntity
  8
DIBUJOS
 62
     7
100
AcDbVertex
100
AcDb2dVertex
 10
44.63554252023027
 20
30.36638263092171
 30
0.0
  0
VERTEX
  5
1AA
330
1A7
100
AcDbEntity
  8
DIBUJOS
 62
     7
100
AcDbVertex
100
AcDb2dVertex
 10
44.59308505276597
 20
30.36322593133271
 30
0.0
  0
VERTEX
  5
1AB
330
1A7
100
AcDbEntity
  8
DIBUJOS
 62
     7
100
AcDbVertex
100
AcDb2dVertex
 10
44.53865152563891
 20
30.36927871547667
 30
0.0
  0
SEQEND
  5
1AC
330
1A7
100
AcDbEntity
  8
DIBUJOS
 62
     7
  0
POLYLINE
  5
1AD
330
186
100
AcDbEntity
  8
DIBUJOS
 62
     7
100
AcDb2dPolyline
 66
     1
 10
0.0
 20
0.0
 30
0.0
  0
VERTEX
  5
1AE
330
1AD
100
AcDbEntity
  8
DIBUJOS
 62
     7
100
AcDbVertex
100
AcDb2dVertex
 10
44.78057704676926
 20
30.36927871547667
 30
0.0
  0
VERTEX
  5
1AF
330
1AD
100
AcDbEntity
  8
DIBUJOS
 62
     7
100
AcDbVertex
100
AcDb2dVertex
 10
44.77452960057566
 20
30.36927871547667
 30
0.0
  0
SEQEND
  5
1B0
330
1AD
100
AcDbEntity
  8
DIBUJOS
 62
     7
  0
POLYLINE
  5
1B1
330
186
100
AcDbEntity
  8
DIBUJOS
 62
     7
100
AcDb2dPolyline
 66
     1
 10
0.0
 20
0.0
 30
0.0
  0
VERTEX
  5
1B2
330
1B1
100
AcDbEntity
  8
DIBUJOS
 62
     7
100
AcDbVertex
100
AcDb2dVertex
 10
44.78057704676926
 20
30.36927871547667
 30
0.0
  0
VERTEX
  5
1B3
330
1B1
100
AcDbEntity
  8
DIBUJOS
 62
     7
100
AcDbVertex
100
AcDb2dVertex
 10
44.78057704676926
 20
30.36322593133271
 30
0.0
  0
SEQEND
  5
1B4
330
1B1
100
AcDbEntity
  8
DIBUJOS
 62
     7
  0
POLYLINE
  5
1B5
330
186
100
AcDbEntity
  8
DIBUJOS
 62
     7
100
AcDb2dPolyline
 66
     1
 10
0.0
 20
0.0
 30
0.0
  0
VERTEX
  5
1B6
330
1B5
100
AcDbEntity
  8
DIBUJOS
 62
     7
100
AcDbVertex
100
AcDb2dVertex
 10
44.78662612080895
 20
30.36927871547667
 30
0.0
  0
VERTEX
  5
1B7
330
1B5
100
AcDbEntity
  8
DIBUJOS
 62
     7
100
AcDbVertex
100
AcDb2dVertex
 10
44.78057704676926
 20
30.36927871547667
 30
0.0
  0
SEQEND
  5
1B8
330
1B5
100
AcDbEntity
  8
DIBUJOS
 62
     7
  0
POLYLINE
  5
1B9
330
186
100
AcDbEntity
  8
DIBUJOS
 62
     7
100
AcDb2dPolyline
 66
     1
 10
0.0
 20
0.0
 30
0.0
  0
VERTEX
  5
1BA
330
1B9
100
AcDbEntity
  8
DIBUJOS
 62
     7
100
AcDbVertex
100
AcDb2dVertex
 10
42.90565385104454
 20
33.17733728611307
 30
0.0
  0
VERTEX
  5
1BB
330
1B9
100
AcDbEntity
  8
DIBUJOS
 62
     7
100
AcDbVertex
100
AcDb2dVertex
 10
42.90351974553696
 20
33.15971482334076
 30
0.0
  0
VERTEX
  5
1BC
330
1B9
100
AcDbEntity
  8
DIBUJOS
 62
     7
100
AcDbVertex
100
AcDb2dVertex
 10
42.8500108346783
 20
33.05085266631102
 30
0.0
  0
VERTEX
  5
1BD
330
1B9
100
AcDbEntity
  8
DIBUJOS
 62
     7
100
AcDbVertex
100
AcDb2dVertex
 10
42.84698629765846
 20
33.04359127994944
 30
0.0
  0
VERTEX
  5
1BE
330
1B9
100
AcDbEntity
  8
DIBUJOS
 62
     7
100
AcDbVertex
100
AcDb2dVertex
 10
42.7628250552166
 20
32.77139679511841
 30
0.0
  0
VERTEX
  5
1BF
330
1B9
100
AcDbEntity
  8
DIBUJOS
 62
     7
100
AcDbVertex
100
AcDb2dVertex
 10
42.74607615242017
 20
32.68154976244317
 30
0.0
  0
VERTEX
  5
1C0
330
1B9
100
AcDbEntity
  8
DIBUJOS
 62
     7
100
AcDbVertex
100
AcDb2dVertex
 10
42.72097151844902
 20
32.52960142505917
 30
0.0
  0
VERTEX
  5
1C1
330
1B9
100
AcDbEntity
  8
DIBUJOS
 62
     7
100
AcDbVertex
100
AcDb2dVertex
 10
42.70606533680764
 20
32.28771483973898
 30
0.0
  0
VERTEX
  5
1C2
330
1B9
100
AcDbEntity
  8
DIBUJOS
 62
     7
100
AcDbVertex
100
AcDb2dVertex
 10
42.73397963218688
 20
32.00886326965453
 30
0.0
  0
VERTEX
  5
1C3
330
1B9
100
AcDbEntity
  8
DIBUJOS
 62
     7
100
AcDbVertex
100
AcDb2dVertex
 10
42.76295039932343
 20
31.85844278790215
 30
0.0
  0
VERTEX
  5
1C4
330
1B9
100
AcDbEntity
  8
DIBUJOS
 62
     7
100
AcDbVertex
100
AcDb2dVertex
 10
42.78045787814323
 20
31.79206902549292
 30
0.0
  0
VERTEX
  5
1C5
330
1B9
100
AcDbEntity
  8
DIBUJOS
 62
     7
100
AcDbVertex
100
AcDb2dVertex
 10
42.80706826924206
 20
31.71218400245965
 30
0.0
  0
VERTEX
  5
1C6
330
1B9
100
AcDbEntity
  8
DIBUJOS
 62
     7
100
AcDbVertex
100
AcDb2dVertex
 10
42.86452633338929
 20
31.54999349427385
 30
0.0
  0
VERTEX
  5
1C7
330
1B9
100
AcDbEntity
  8
DIBUJOS
 62
     7
100
AcDbVertex
100
AcDb2dVertex
 10
42.94073229466011
 20
31.39143530811148
 30
0.0
  0
VERTEX
  5
1C8
330
1B9
100
AcDbEntity
  8
DIBUJOS
 62
     7
100
AcDbVertex
100
AcDb2dVertex
 10
42.99498024739589
 20
31.30033243674486
 30
0.0
  0
VERTEX
  5
1C9
330
1B9
100
AcDbEntity
  8
DIBUJOS
 62
     7
100
AcDbVertex
100
AcDb2dVertex
 10
43.03126818025031
 20
31.24586552366241
 30
0.0
  0
VERTEX
  5
1CA
330
1B9
100
AcDbEntity
  8
DIBUJOS
 62
     7
100
AcDbVertex
100
AcDb2dVertex
 10
43.10673672749008
 20
31.13309251229076
 30
0.0
  0
VERTEX
  5
1CB
330
1B9
100
AcDbEntity
  8
DIBUJOS
 62
     7
100
AcDbVertex
100
AcDb2dVertex
 10
43.20955470770549
 20
31.01205637552579
 30
0.0
  0
VERTEX
  5
1CC
330
1B9
100
AcDbEntity
  8
DIBUJOS
 62
     7
100
AcDbVertex
100
AcDb2dVertex
 10
43.28063783905144
 20
30.93209968335863
 30
0.0
  0
VERTEX
  5
1CD
330
1B9
100
AcDbEntity
  8
DIBUJOS
 62
     7
100
AcDbVertex
100
AcDb2dVertex
 10
43.45126698107018
 20
30.78229979115365
 30
0.0
  0
VERTEX
  5
1CE
330
1B9
100
AcDbEntity
  8
DIBUJOS
 62
     7
100
AcDbVertex
100
AcDb2dVertex
 10
43.59002453519359
 20
30.68537054495218
 30
0.0
  0
VERTEX
  5
1CF
330
1B9
100
AcDbEntity
  8
DIBUJOS
 62
     7
100
AcDbVertex
100
AcDb2dVertex
 10
43.63654836082544
 20
30.65231804337504
 30
0.0
  0
VERTEX
  5
1D0
330
1B9
100
AcDbEntity
  8
DIBUJOS
 62
     7
100
AcDbVertex
100
AcDb2dVertex
 10
43.8739614941097
 20
30.5284412027472
 30
0.0
  0
VERTEX
  5
1D1
330
1B9
100
AcDbEntity
  8
DIBUJOS
 62
     7
100
AcDbVertex
100
AcDb2dVertex
 10
44.06629144506838
 20
30.45823965703996
 30
0.0
  0
VERTEX
  5
1D2
330
1B9
100
AcDbEntity
  8
DIBUJOS
 62
     7
100
AcDbVertex
100
AcDb2dVertex
 10
44.1339593564641
 20
30.43798498243331
 30
0.0
  0
VERTEX
  5
1D3
330
1B9
100
AcDbEntity
  8
DIBUJOS
 62
     7
100
AcDbVertex
100
AcDb2dVertex
 10
44.22966202380891
 20
30.41555742998752
 30
0.0
  0
VERTEX
  5
1D4
330
1B9
100
AcDbEntity
  8
DIBUJOS
 62
     7
100
AcDbVertex
100
AcDb2dVertex
 10
44.34540672548477
 20
30.39009045471773
 30
0.0
  0
VERTEX
  5
1D5
330
1B9
100
AcDbEntity
  8
DIBUJOS
 62
     7
100
AcDbVertex
100
AcDb2dVertex
 10
44.52655500540531
 20
30.36927871547667
 30
0.0
  0
SEQEND
  5
1D6
330
1B9
100
AcDbEntity
  8
DIBUJOS
 62
     7
  0
POLYLINE
  5
1D7
330
186
100
AcDbEntity
  8
DIBUJOS
 62
     7
100
AcDb2dPolyline
 66
     1
 10
0.0
 20
0.0
 30
0.0
  0
VERTEX
  5
1D8
330
1D7
100
AcDbEntity
  8
DIBUJOS
 62
     7
100
AcDbVertex
100
AcDb2dVertex
 10
46.40752727516971
 20
33.17733728611307
 30
0.0
  0
VERTEX
  5
1D9
330
1D7
100
AcDbEntity
  8
DIBUJOS
 62
     7
100
AcDbVertex
100
AcDb2dVertex
 10
46.49341077819676
 20
32.97217950318193
 30
0.0
  0
VERTEX
  5
1DA
330
1D7
100
AcDbEntity
  8
DIBUJOS
 62
     7
100
AcDbVertex
100
AcDb2dVertex
 10
46.52030767011115
 20
32.89236614928254
 30
0.0
  0
VERTEX
  5
1DB
330
1D7
100
AcDbEntity
  8
DIBUJOS
 62
     7
100
AcDbVertex
100
AcDb2dVertex
 10
46.54844823602085
 20
32.78457251388795
 30
0.0
  0
VERTEX
  5
1DC
330
1D7
100
AcDbEntity
  8
DIBUJOS
 62
     7
100
AcDbVertex
100
AcDb2dVertex
 10
46.57433423585279
 20
32.68072230971373
 30
0.0
  0
VERTEX
  5
1DD
330
1D7
100
AcDbEntity
  8
DIBUJOS
 62
     7
100
AcDbVertex
100
AcDb2dVertex
 10
46.60711578940661
 20
32.44506279484109
 30
0.0
  0
VERTEX
  5
1DE
330
1D7
100
AcDbEntity
  8
DIBUJOS
 62
     7
100
AcDbVertex
100
AcDb2dVertex
 10
46.60711578940661
 20
32.18483379771805
 30
0.0
  0
VERTEX
  5
1DF
330
1D7
100
AcDbEntity
  8
DIBUJOS
 62
     7
100
AcDbVertex
100
AcDb2dVertex
 10
46.57426912203073
 20
31.94913681943518
 30
0.0
  0
VERTEX
  5
1E0
330
1D7
100
AcDbEntity
  8
DIBUJOS
 62
     7
100
AcDbVertex
100
AcDb2dVertex
 10
46.55659560296557
 20
31.87672330363337
 30
0.0
  0
VERTEX
  5
1E1
330
1D7
100
AcDbEntity
  8
DIBUJOS
 62
     7
100
AcDbVertex
100
AcDb2dVertex
 10
46.52635511630507
 20
31.76173832216715
 30
0.0
  0
VERTEX
  5
1E2
330
1D7
100
AcDbEntity
  8
DIBUJOS
 62
     7
100
AcDbVertex
100
AcDb2dVertex
 10
46.48736333200284
 20
31.64561314993192
 30
0.0
  0
VERTEX
  5
1E3
330
1D7
100
AcDbEntity
  8
DIBUJOS
 62
     7
100
AcDbVertex
100
AcDb2dVertex
 10
46.40268931821464
 20
31.44590222119393
 30
0.0
  0
VERTEX
  5
1E4
330
1D7
100
AcDbEntity
  8
DIBUJOS
 62
     7
100
AcDbVertex
100
AcDb2dVertex
 10
46.29116073649635
 20
31.24788529017025
 30
0.0
  0
VERTEX
  5
1E5
330
1D7
100
AcDbEntity
  8
DIBUJOS
 62
     7
100
AcDbVertex
100
AcDb2dVertex
 10
46.25777525224583
 20
31.20334455216218
 30
0.0
  0
VERTEX
  5
1E6
330
1D7
100
AcDbEntity
  8
DIBUJOS
 62
     7
100
AcDbVertex
100
AcDb2dVertex
 10
46.14594714694751
 20
31.05458549124564
 30
0.0
  0
VERTEX
  5
1E7
330
1D7
100
AcDbEntity
  8
DIBUJOS
 62
     7
100
AcDbVertex
100
AcDb2dVertex
 10
45.96601323980214
 20
30.86553045967482
 30
0.0
  0
VERTEX
  5
1E8
330
1D7
100
AcDbEntity
  8
DIBUJOS
 62
     7
100
AcDbVertex
100
AcDb2dVertex
 10
45.74921025894341
 20
30.70073380115617
 30
0.0
  0
VERTEX
  5
1E9
330
1D7
100
AcDbEntity
  8
DIBUJOS
 62
     7
100
AcDbVertex
100
AcDb2dVertex
 10
45.59614557033836
 20
30.60669738182437
 30
0.0
  0
VERTEX
  5
1EA
330
1D7
100
AcDbEntity
  8
DIBUJOS
 62
     7
100
AcDbVertex
100
AcDb2dVertex
 10
45.44526707829815
 20
30.53388805694036
 30
0.0
  0
VERTEX
  5
1EB
330
1D7
100
AcDbEntity
  8
DIBUJOS
 62
     7
100
AcDbVertex
100
AcDb2dVertex
 10
45.34365858732191
 20
30.48910462118266
 30
0.0
  0
VERTEX
  5
1EC
330
1D7
100
AcDbEntity
  8
DIBUJOS
 62
     7
100
AcDbVertex
100
AcDb2dVertex
 10
45.09467147222367
 20
30.41409472811282
 30
0.0
  0
VERTEX
  5
1ED
330
1D7
100
AcDbEntity
  8
DIBUJOS
 62
     7
100
AcDbVertex
100
AcDb2dVertex
 10
45.06524816402555
 20
30.40918702127093
 30
0.0
  0
VERTEX
  5
1EE
330
1D7
100
AcDbEntity
  8
DIBUJOS
 62
     7
100
AcDbVertex
100
AcDb2dVertex
 10
44.81645801823825
 20
30.37173175447693
 30
0.0
  0
VERTEX
  5
1EF
330
1D7
100
AcDbEntity
  8
DIBUJOS
 62
     7
100
AcDbVertex
100
AcDb2dVertex
 10
44.78662612080895
 20
30.36927871547667
 30
0.0
  0
SEQEND
  5
1F0
330
1D7
100
AcDbEntity
  8
DIBUJOS
 62
     7
  0
POLYLINE
  5
1F1
330
186
100
AcDbEntity
  8
DIBUJOS
 62
     7
100
AcDb2dPolyline
 66
     1
 10
0.0
 20
0.0
 30
0.0
  0
VERTEX
  5
1F2
330
1F1
100
AcDbEntity
  8
DIBUJOS
 62
     7
100
AcDbVertex
100
AcDb2dVertex
 10
46.40752727516971
 20
33.18338844141311
 30
0.0
  0
VERTEX
  5
1F3
330
1F1
100
AcDbEntity
  8
DIBUJOS
 62
     7
100
AcDbVertex
100
AcDb2dVertex
 10
46.40752727516971
 20
33.17733728611307
 30
0.0
  0
SEQEND
  5
1F4
330
1F1
100
AcDbEntity
  8
DIBUJOS
 62
     7
  0
POLYLINE
  5
1F5
330
186
100
AcDbEntity
  8
DIBUJOS
 62
     7
100
AcDb2dPolyline
 66
     1
 10
0.0
 20
0.0
 30
0.0
  0
VERTEX
  5
1F6
330
1F5
100
AcDbEntity
  8
DIBUJOS
 62
     7
100
AcDbVertex
100
AcDb2dVertex
 10
46.41357472136364
 20
33.18338844141311
 30
0.0
  0
VERTEX
  5
1F7
330
1F5
100
AcDbEntity
  8
DIBUJOS
 62
     7
100
AcDbVertex
100
AcDb2dVertex
 10
46.40752727516971
 20
33.18338844141311
 30
0.0
  0
SEQEND
  5
1F8
330
1F5
100
AcDbEntity
  8
DIBUJOS
 62
     7
  0
POLYLINE
  5
1F9
330
186
100
AcDbEntity
  8
DIBUJOS
 62
     7
100
AcDb2dPolyline
 66
     1
 10
0.0
 20
0.0
 30
0.0
  0
VERTEX
  5
1FA
330
1F9
100
AcDbEntity
  8
DIBUJOS
 62
     7
100
AcDbVertex
100
AcDb2dVertex
 10
43.03266487172652
 20
33.39520330959766
 30
0.0
  0
VERTEX
  5
1FB
330
1F9
100
AcDbEntity
  8
DIBUJOS
 62
     7
100
AcDbVertex
100
AcDb2dVertex
 10
43.01843424598565
 20
33.35337459677999
 30
0.0
  0
VERTEX
  5
1FC
330
1F9
100
AcDbEntity
  8
DIBUJOS
 62
     7
100
AcDbVertex
100
AcDb2dVertex
 10
42.95869068669539
 20
33.24483820853994
 30
0.0
  0
VERTEX
  5
1FD
330
1F9
100
AcDbEntity
  8
DIBUJOS
 62
     7
100
AcDbVertex
100
AcDb2dVertex
 10
42.90565385104454
 20
33.17733728611307
 30
0.0
  0
SEQEND
  5
1FE
330
1F9
100
AcDbEntity
  8
DIBUJOS
 62
     7
  0
POLYLINE
  5
1FF
330
186
100
AcDbEntity
  8
DIBUJOS
 62
     7
100
AcDb2dPolyline
 66
     1
 10
0.0
 20
0.0
 30
0.0
  0
VERTEX
  5
200
330
1FF
100
AcDbEntity
  8
DIBUJOS
 62
     7
100
AcDbVertex
100
AcDb2dVertex
 10
46.28051625448773
 20
33.39520330959766
 30
0.0
  0
VERTEX
  5
201
330
1FF
100
AcDbEntity
  8
DIBUJOS
 62
     7
100
AcDbVertex
100
AcDb2dVertex
 10
46.29684680097971
 20
33.34618325070836
 30
0.0
  0
VERTEX
  5
202
330
1FF
100
AcDbEntity
  8
DIBUJOS
 62
     7
100
AcDbVertex
100
AcDb2dVertex
 10
46.37123771446954
 20
33.21364747560499
 30
0.0
  0
VERTEX
  5
203
330
1FF
100
AcDbEntity
  8
DIBUJOS
 62
     7
100
AcDbVertex
100
AcDb2dVertex
 10
46.40752727516971
 20
33.18338844141311
 30
0.0
  0
SEQEND
  5
204
330
1FF
100
AcDbEntity
  8
DIBUJOS
 62
     7
  0
POLYLINE
  5
205
330
186
100
AcDbEntity
  8
DIBUJOS
 62
     7
100
AcDb2dPolyline
 66
     1
 10
0.0
 20
0.0
 30
0.0
  0
VERTEX
  5
206
330
205
100
AcDbEntity
  8
DIBUJOS
 62
     7
100
AcDbVertex
100
AcDb2dVertex
 10
46.28051625448773
 20
33.40125609374291
 30
0.0
  0
VERTEX
  5
207
330
205
100
AcDbEntity
  8
DIBUJOS
 62
     7
100
AcDbVertex
100
AcDb2dVertex
 10
46.28051625448773
 20
33.39520330959766
 30
0.0
  0
SEQEND
  5
208
330
205
100
AcDbEntity
  8
DIBUJOS
 62
     7
  0
POLYLINE
  5
209
330
186
100
AcDbEntity
  8
DIBUJOS
 62
     7
100
AcDb2dPolyline
 66
     1
 10
0.0
 20
0.0
 30
0.0
  0
VERTEX
  5
20A
330
209
100
AcDbEntity
  8
DIBUJOS
 62
     7
100
AcDbVertex
100
AcDb2dVertex
 10
46.28656370068165
 20
33.40125609374291
 30
0.0
  0
VERTEX
  5
20B
330
209
100
AcDbEntity
  8
DIBUJOS
 62
     7
100
AcDbVertex
100
AcDb2dVertex
 10
46.28051625448773
 20
33.40125609374291
 30
0.0
  0
SEQEND
  5
20C
330
209
100
AcDbEntity
  8
DIBUJOS
 62
     7
  0
POLYLINE
  5
20D
330
186
100
AcDbEntity
  8
DIBUJOS
 62
     7
100
AcDb2dPolyline
 66
     1
 10
0.0
 20
0.0
 30
0.0
  0
VERTEX
  5
20E
330
20D
100
AcDbEntity
  8
DIBUJOS
 62
     7
100
AcDbVertex
100
AcDb2dVertex
 10
42.90565385104454
 20
33.17733728611307
 30
0.0
  0
VERTEX
  5
20F
330
20D
100
AcDbEntity
  8
DIBUJOS
 62
     7
100
AcDbVertex
100
AcDb2dVertex
 10
42.86271128560829
 20
33.2063860892447
 30
0.0
  0
VERTEX
  5
210
330
20D
100
AcDbEntity
  8
DIBUJOS
 62
     7
100
AcDbVertex
100
AcDb2dVertex
 10
42.65163180968026
 20
33.32863245707122
 30
0.0
  0
VERTEX
  5
211
330
20D
100
AcDbEntity
  8
DIBUJOS
 62
     7
100
AcDbVertex
100
AcDb2dVertex
 10
42.63348784325305
 20
33.34678918066046
 30
0.0
  0
VERTEX
  5
212
330
20D
100
AcDbEntity
  8
DIBUJOS
 62
     7
100
AcDbVertex
100
AcDb2dVertex
 10
42.62743876921369
 20
33.37704821485234
 30
0.0
  0
VERTEX
  5
213
330
20D
100
AcDbEntity
  8
DIBUJOS
 62
     7
100
AcDbVertex
100
AcDb2dVertex
 10
42.63167279547206
 20
33.38370530010447
 30
0.0
  0
VERTEX
  5
214
330
20D
100
AcDbEntity
  8
DIBUJOS
 62
     7
100
AcDbVertex
100
AcDb2dVertex
 10
42.70001626276828
 20
33.51624107520784
 30
0.0
  0
VERTEX
  5
215
330
20D
100
AcDbEntity
  8
DIBUJOS
 62
     7
100
AcDbVertex
100
AcDb2dVertex
 10
42.73025674942878
 20
33.54650010939972
 30
0.0
  0
VERTEX
  5
216
330
20D
100
AcDbEntity
  8
DIBUJOS
 62
     7
100
AcDbVertex
100
AcDb2dVertex
 10
42.77259375632288
 20
33.54650010939972
 30
0.0
  0
VERTEX
  5
217
330
20D
100
AcDbEntity
  8
DIBUJOS
 62
     7
100
AcDbVertex
100
AcDb2dVertex
 10
43.02601186699045
 20
33.40004423383872
 30
0.0
  0
VERTEX
  5
218
330
20D
100
AcDbEntity
  8
DIBUJOS
 62
     7
100
AcDbVertex
100
AcDb2dVertex
 10
43.03266487172652
 20
33.39520330959766
 30
0.0
  0
SEQEND
  5
219
330
20D
100
AcDbEntity
  8
DIBUJOS
 62
     7
  0
POLYLINE
  5
21A
330
186
100
AcDbEntity
  8
DIBUJOS
 62
     7
100
AcDb2dPolyline
 66
     1
 10
0.0
 20
0.0
 30
0.0
  0
VERTEX
  5
21B
330
21A
100
AcDbEntity
  8
DIBUJOS
 62
     7
100
AcDbVertex
100
AcDb2dVertex
 10
46.28656370068165
 20
33.40125609374291
 30
0.0
  0
VERTEX
  5
21C
330
21A
100
AcDbEntity
  8
DIBUJOS
 62
     7
100
AcDbVertex
100
AcDb2dVertex
 10
46.29805629021823
 20
33.40851748010449
 30
0.0
  0
VERTEX
  5
21D
330
21A
100
AcDbEntity
  8
DIBUJOS
 62
     7
100
AcDbVertex
100
AcDb2dVertex
 10
46.53453829585201
 20
33.54650010939972
 30
0.0
  0
VERTEX
  5
21E
330
21A
100
AcDbEntity
  8
DIBUJOS
 62
     7
100
AcDbVertex
100
AcDb2dVertex
 10
46.57687530274579
 20
33.54650010939972
 30
0.0
  0
VERTEX
  5
21F
330
21A
100
AcDbEntity
  8
DIBUJOS
 62
     7
100
AcDbVertex
100
AcDb2dVertex
 10
46.5889718229794
 20
33.54044732525448
 30
0.0
  0
VERTEX
  5
220
330
21A
100
AcDbEntity
  8
DIBUJOS
 62
     7
100
AcDbVertex
100
AcDb2dVertex
 10
46.66880625196676
 20
33.41396433429636
 30
0.0
  0
VERTEX
  5
221
330
21A
100
AcDbEntity
  8
DIBUJOS
 62
     7
100
AcDbVertex
100
AcDb2dVertex
 10
46.67485532600612
 20
33.40186039485108
 30
0.0
  0
VERTEX
  5
222
330
21A
100
AcDbEntity
  8
DIBUJOS
 62
     7
100
AcDbVertex
100
AcDb2dVertex
 10
46.6796932829612
 20
33.39520330959766
 30
0.0
  0
VERTEX
  5
223
330
21A
100
AcDbEntity
  8
DIBUJOS
 62
     7
100
AcDbVertex
100
AcDb2dVertex
 10
46.6796932829612
 20
33.35284033596178
 30
0.0
  0
VERTEX
  5
224
330
21A
100
AcDbEntity
  8
DIBUJOS
 62
     7
100
AcDbVertex
100
AcDb2dVertex
 10
46.64340535010678
 20
33.31652851762465
 30
0.0
  0
VERTEX
  5
225
330
21A
100
AcDbEntity
  8
DIBUJOS
 62
     7
100
AcDbVertex
100
AcDb2dVertex
 10
46.44288570821908
 20
33.20294108427494
 30
0.0
  0
VERTEX
  5
226
330
21A
100
AcDbEntity
  8
DIBUJOS
 62
     7
100
AcDbVertex
100
AcDb2dVertex
 10
46.41357472136364
 20
33.18338844141311
 30
0.0
  0
SEQEND
  5
227
330
21A
100
AcDbEntity
  8
DIBUJOS
 62
     7
  0
POLYLINE
  5
228
330
186
100
AcDbEntity
  8
DIBUJOS
 62
     7
100
AcDb2dPolyline
 66
     1
 10
0.0
 20
0.0
 30
0.0
  0
VERTEX
  5
229
330
228
100
AcDbEntity
  8
DIBUJOS
 62
     7
100
AcDbVertex
100
AcDb2dVertex
 10
43.03266487172652
 20
33.39520330959766
 30
0.0
  0
VERTEX
  5
22A
330
228
100
AcDbEntity
  8
DIBUJOS
 62
     7
100
AcDbVertex
100
AcDb2dVertex
 10
43.07360518714441
 20
33.45060029258053
 30
0.0
  0
VERTEX
  5
22B
330
228
100
AcDbEntity
  8
DIBUJOS
 62
     7
100
AcDbVertex
100
AcDb2dVertex
 10
43.23225338596341
 20
33.64938115141938
 30
0.0
  0
VERTEX
  5
22C
330
228
100
AcDbEntity
  8
DIBUJOS
 62
     7
100
AcDbVertex
100
AcDb2dVertex
 10
43.42716184426244
 20
33.82943030475271
 30
0.0
  0
VERTEX
  5
22D
330
228
100
AcDbEntity
  8
DIBUJOS
 62
     7
100
AcDbVertex
100
AcDb2dVertex
 10
43.47511003474489
 20
33.86585125563266
 30
0.0
  0
VERTEX
  5
22E
330
228
100
AcDbEntity
  8
DIBUJOS
 62
     7
100
AcDbVertex
100
AcDb2dVertex
 10
43.49945934838388
 20
33.88395096968461
 30
0.0
  0
VERTEX
  5
22F
330
228
100
AcDbEntity
  8
DIBUJOS
 62
     7
100
AcDbVertex
100
AcDb2dVertex
 10
43.66711441659491
 20
33.99554632687573
 30
0.0
  0
VERTEX
  5
230
330
228
100
AcDbEntity
  8
DIBUJOS
 62
     7
100
AcDbVertex
100
AcDb2dVertex
 10
43.67888536771954
 20
34.00178479923073
 30
0.0
  0
VERTEX
  5
231
330
228
100
AcDbEntity
  8
DIBUJOS
 62
     7
100
AcDbVertex
100
AcDb2dVertex
 10
43.86791242007034
 20
34.10145376096801
 30
0.0
  0
VERTEX
  5
232
330
228
100
AcDbEntity
  8
DIBUJOS
 62
     7
100
AcDbVertex
100
AcDb2dVertex
 10
44.03121300145249
 20
34.16197345819442
 30
0.0
  0
VERTEX
  5
233
330
228
100
AcDbEntity
  8
DIBUJOS
 62
     7
100
AcDbVertex
100
AcDb2dVertex
 10
44.13900893333972
 20
34.1963746425691
 30
0.0
  0
VERTEX
  5
234
330
228
100
AcDbEntity
  8
DIBUJOS
 62
     7
100
AcDbVertex
100
AcDb2dVertex
 10
44.16313360429368
 20
34.20223522312633
 30
0.0
  0
VERTEX
  5
235
330
228
100
AcDbEntity
  8
DIBUJOS
 62
     7
100
AcDbVertex
100
AcDb2dVertex
 10
44.36957372042271
 20
34.2458182008873
 30
0.0
  0
VERTEX
  5
236
330
228
100
AcDbEntity
  8
DIBUJOS
 62
     7
100
AcDbVertex
100
AcDb2dVertex
 10
44.48394940399676
 20
34.25726245852975
 30
0.0
  0
VERTEX
  5
237
330
228
100
AcDbEntity
  8
DIBUJOS
 62
     7
100
AcDbVertex
100
AcDb2dVertex
 10
44.5567954920658
 20
34.26666903238251
 30
0.0
  0
VERTEX
  5
238
330
228
100
AcDbEntity
  8
DIBUJOS
 62
     7
100
AcDbVertex
100
AcDb2dVertex
 10
44.72009607344827
 20
34.26666903238251
 30
0.0
  0
VERTEX
  5
239
330
228
100
AcDbEntity
  8
DIBUJOS
 62
     7
100
AcDbVertex
100
AcDb2dVertex
 10
44.85302431268072
 20
34.25773482327762
 30
0.0
  0
VERTEX
  5
23A
330
228
100
AcDbEntity
  8
DIBUJOS
 62
     7
100
AcDbVertex
100
AcDb2dVertex
 10
45.04023794509628
 20
34.22790580389032
 30
0.0
  0
VERTEX
  5
23B
330
228
100
AcDbEntity
  8
DIBUJOS
 62
     7
100
AcDbVertex
100
AcDb2dVertex
 10
45.082622159511
 20
34.22176506217325
 30
0.0
  0
VERTEX
  5
23C
330
228
100
AcDbEntity
  8
DIBUJOS
 62
     7
100
AcDbVertex
100
AcDb2dVertex
 10
45.34244909808307
 20
34.14442266455598
 30
0.0
  0
VERTEX
  5
23D
330
228
100
AcDbEntity
  8
DIBUJOS
 62
     7
100
AcDbVertex
100
AcDb2dVertex
 10
45.43921963210455
 20
34.10145376096801
 30
0.0
  0
VERTEX
  5
23E
330
228
100
AcDbEntity
  8
DIBUJOS
 62
     7
100
AcDbVertex
100
AcDb2dVertex
 10
45.57832717301982
 20
34.03548883839237
 30
0.0
  0
VERTEX
  5
23F
330
228
100
AcDbEntity
  8
DIBUJOS
 62
     7
100
AcDbVertex
100
AcDb2dVertex
 10
45.75493213602867
 20
33.92897710319193
 30
0.0
  0
VERTEX
  5
240
330
228
100
AcDbEntity
  8
DIBUJOS
 62
     7
100
AcDbVertex
100
AcDb2dVertex
 10
45.89461593426657
 20
33.82030877859285
 30
0.0
  0
VERTEX
  5
241
330
228
100
AcDbEntity
  8
DIBUJOS
 62
     7
100
AcDbVertex
100
AcDb2dVertex
 10
45.91871618753734
 20
33.80212925118741
 30
0.0
  0
VERTEX
  5
242
330
228
100
AcDbEntity
  8
DIBUJOS
 62
     7
100
AcDbVertex
100
AcDb2dVertex
 10
45.95996416576278
 20
33.77041891702956
 30
0.0
  0
VERTEX
  5
243
330
228
100
AcDbEntity
  8
DIBUJOS
 62
     7
100
AcDbVertex
100
AcDb2dVertex
 10
46.15199622098687
 20
33.56929089404799
 30
0.0
  0
VERTEX
  5
244
330
228
100
AcDbEntity
  8
DIBUJOS
 62
     7
100
AcDbVertex
100
AcDb2dVertex
 10
46.20648672270815
 20
33.4969962838551
 30
0.0
  0
VERTEX
  5
245
330
228
100
AcDbEntity
  8
DIBUJOS
 62
     7
100
AcDbVertex
100
AcDb2dVertex
 10
46.28051625448773
 20
33.40125609374291
 30
0.0
  0
SEQEND
  5
246
330
228
100
AcDbEntity
  8
DIBUJOS
 62
     7
  0
ENDBLK
  5
189
330
186
100
AcDbEntity
  8
0
100
AcDbBlockEnd
  0
BLOCK
  5
249
330
247
100
AcDbEntity
  8
0
100
AcDbBlockBegin
  2
BLOCK_4
 70
     0
 10
0.0
 20
0.0
 30
0.0
  3
BLOCK_4
  1

  0
POLYLINE
  5
24B
330
247
100
AcDbEntity
  8
DIBUJOS
 62
     7
100
AcDb2dPolyline
 66
     1
 10
0.0
 20
0.0
 30
0.0
  0
VERTEX
  5
24C
330
24B
100
AcDbEntity
  8
DIBUJOS
 62
     7
100
AcDbVertex
100
AcDb2dVertex
 10
61.31412229387119
 20
46.87872635019713
 30
0.0
  0
VERTEX
  5
24D
330
24B
100
AcDbEntity
  8
DIBUJOS
 62
     7
100
AcDbVertex
100
AcDb2dVertex
 10
61.31021390166368
 20
46.92162032696401
 30
0.0
  0
VERTEX
  5
24E
330
24B
100
AcDbEntity
  8
DIBUJOS
 62
     7
100
AcDbVertex
100
AcDb2dVertex
 10
61.30204106987246
 20
46.95134672918129
 30
0.0
  0
VERTEX
  5
24F
330
24B
100
AcDbEntity
  8
DIBUJOS
 62
     7
100
AcDbVertex
100
AcDb2dVertex
 10
61.28452483957239
 20
46.96466089968716
 30
0.0
  0
VERTEX
  5
250
330
24B
100
AcDbEntity
  8
DIBUJOS
 62
     7
100
AcDbVertex
100
AcDb2dVertex
 10
61.25371779966534
 20
46.9755546080725
 30
0.0
  0
VERTEX
  5
251
330
24B
100
AcDbEntity
  8
DIBUJOS
 62
     7
100
AcDbVertex
100
AcDb2dVertex
 10
61.11478616236239
 20
46.9755546080725
 30
0.0
  0
VERTEX
  5
252
330
24B
100
AcDbEntity
  8
DIBUJOS
 62
     7
100
AcDbVertex
100
AcDb2dVertex
 10
61.09062371436524
 20
46.96950182392757
 30
0.0
  0
VERTEX
  5
253
330
24B
100
AcDbEntity
  8
DIBUJOS
 62
     7
100
AcDbVertex
100
AcDb2dVertex
 10
61.06646289215527
 20
46.94529394503669
 30
0.0
  0
VERTEX
  5
254
330
24B
100
AcDbEntity
  8
DIBUJOS
 62
     7
100
AcDbVertex
100
AcDb2dVertex
 10
61.06042146726247
 20
46.87872635019713
 30
0.0
  0
SEQEND
  5
255
330
24B
100
AcDbEntity
  8
DIBUJOS
 62
     7
  0
POLYLINE
  5
256
330
247
100
AcDbEntity
  8
DIBUJOS
 62
     7
100
AcDb2dPolyline
 66
     1
 10
0.0
 20
0.0
 30
0.0
  0
VERTEX
  5
257
330
256
100
AcDbEntity
  8
DIBUJOS
 62
     7
100
AcDbVertex
100
AcDb2dVertex
 10
58.63818401626914
 20
46.87267356605252
 30
0.0
  0
VERTEX
  5
258
330
256
100
AcDbEntity
  8
DIBUJOS
 62
     7
100
AcDbVertex
100
AcDb2dVertex
 10
58.28179522435337
 20
46.87267356605252
 30
0.0
  0
SEQEND
  5
259
330
256
100
AcDbEntity
  8
DIBUJOS
 62
     7
  0
POLYLINE
  5
25A
330
247
100
AcDbEntity
  8
DIBUJOS
 62
     7
100
AcDb2dPolyline
 66
     1
 10
0.0
 20
0.0
 30
0.0
  0
VERTEX
  5
25B
330
25A
100
AcDbEntity
  8
DIBUJOS
 62
     7
100
AcDbVertex
100
AcDb2dVertex
 10
58.64422544116195
 20
46.87267356605252
 30
0.0
  0
VERTEX
  5
25C
330
25A
100
AcDbEntity
  8
DIBUJOS
 62
     7
100
AcDbVertex
100
AcDb2dVertex
 10
58.63818401626914
 20
46.87267356605252
 30
0.0
  0
SEQEND
  5
25D
330
25A
100
AcDbEntity
  8
DIBUJOS
 62
     7
  0
POLYLINE
  5
25E
330
247
100
AcDbEntity
  8
DIBUJOS
 62
     7
100
AcDb2dPolyline
 66
     1
 10
0.0
 20
0.0
 30
0.0
  0
VERTEX
  5
25F
330
25E
100
AcDbEntity
  8
DIBUJOS
 62
     7
100
AcDbVertex
100
AcDb2dVertex
 10
58.64422544116195
 20
46.87267356605252
 30
0.0
  0
VERTEX
  5
260
330
25E
100
AcDbEntity
  8
DIBUJOS
 62
     7
100
AcDbVertex
100
AcDb2dVertex
 10
58.64422544116195
 20
46.87872635019713
 30
0.0
  0
SEQEND
  5
261
330
25E
100
AcDbEntity
  8
DIBUJOS
 62
     7
  0
POLYLINE
  5
262
330
247
100
AcDbEntity
  8
DIBUJOS
 62
     7
100
AcDb2dPolyline
 66
     1
 10
0.0
 20
0.0
 30
0.0
  0
VERTEX
  5
263
330
262
100
AcDbEntity
  8
DIBUJOS
 62
     7
100
AcDbVertex
100
AcDb2dVertex
 10
58.65026524026788
 20
46.87267356605252
 30
0.0
  0
VERTEX
  5
264
330
262
100
AcDbEntity
  8
DIBUJOS
 62
     7
100
AcDbVertex
100
AcDb2dVertex
 10
58.64422544116195
 20
46.87267356605252
 30
0.0
  0
SEQEND
  5
265
330
262
100
AcDbEntity
  8
DIBUJOS
 62
     7
  0
POLYLINE
  5
266
330
247
100
AcDbEntity
  8
DIBUJOS
 62
     7
100
AcDb2dPolyline
 66
     1
 10
0.0
 20
0.0
 30
0.0
  0
VERTEX
  5
267
330
266
100
AcDbEntity
  8
DIBUJOS
 62
     7
100
AcDbVertex
100
AcDb2dVertex
 10
61.05438166815654
 20
46.87267356605252
 30
0.0
  0
VERTEX
  5
268
330
266
100
AcDbEntity
  8
DIBUJOS
 62
     7
100
AcDbVertex
100
AcDb2dVertex
 10
58.65026524026788
 20
46.87267356605252
 30
0.0
  0
SEQEND
  5
269
330
266
100
AcDbEntity
  8
DIBUJOS
 62
     7
  0
POLYLINE
  5
26A
330
247
100
AcDbEntity
  8
DIBUJOS
 62
     7
100
AcDb2dPolyline
 66
     1
 10
0.0
 20
0.0
 30
0.0
  0
VERTEX
  5
26B
330
26A
100
AcDbEntity
  8
DIBUJOS
 62
     7
100
AcDbVertex
100
AcDb2dVertex
 10
61.06042146726247
 20
46.87267356605252
 30
0.0
  0
VERTEX
  5
26C
330
26A
100
AcDbEntity
  8
DIBUJOS
 62
     7
100
AcDbVertex
100
AcDb2dVertex
 10
61.05438166815654
 20
46.87267356605252
 30
0.0
  0
SEQEND
  5
26D
330
26A
100
AcDbEntity
  8
DIBUJOS
 62
     7
  0
POLYLINE
  5
26E
330
247
100
AcDbEntity
  8
DIBUJOS
 62
     7
100
AcDb2dPolyline
 66
     1
 10
0.0
 20
0.0
 30
0.0
  0
VERTEX
  5
26F
330
26E
100
AcDbEntity
  8
DIBUJOS
 62
     7
100
AcDbVertex
100
AcDb2dVertex
 10
61.06042146726247
 20
46.87267356605252
 30
0.0
  0
VERTEX
  5
270
330
26E
100
AcDbEntity
  8
DIBUJOS
 62
     7
100
AcDbVertex
100
AcDb2dVertex
 10
61.06042146726247
 20
46.87872635019713
 30
0.0
  0
SEQEND
  5
271
330
26E
100
AcDbEntity
  8
DIBUJOS
 62
     7
  0
POLYLINE
  5
272
330
247
100
AcDbEntity
  8
DIBUJOS
 62
     7
100
AcDb2dPolyline
 66
     1
 10
0.0
 20
0.0
 30
0.0
  0
VERTEX
  5
273
330
272
100
AcDbEntity
  8
DIBUJOS
 62
     7
100
AcDbVertex
100
AcDb2dVertex
 10
61.31412229387119
 20
46.87267356605252
 30
0.0
  0
VERTEX
  5
274
330
272
100
AcDbEntity
  8
DIBUJOS
 62
     7
100
AcDbVertex
100
AcDb2dVertex
 10
61.31412229387119
 20
46.87872635019713
 30
0.0
  0
SEQEND
  5
275
330
272
100
AcDbEntity
  8
DIBUJOS
 62
     7
  0
POLYLINE
  5
276
330
247
100
AcDbEntity
  8
DIBUJOS
 62
     7
100
AcDb2dPolyline
 66
     1
 10
0.0
 20
0.0
 30
0.0
  0
VERTEX
  5
277
330
276
100
AcDbEntity
  8
DIBUJOS
 62
     7
100
AcDbVertex
100
AcDb2dVertex
 10
61.320163718764
 20
46.87267356605252
 30
0.0
  0
VERTEX
  5
278
330
276
100
AcDbEntity
  8
DIBUJOS
 62
     7
100
AcDbVertex
100
AcDb2dVertex
 10
61.31412229387119
 20
46.87267356605252
 30
0.0
  0
SEQEND
  5
279
330
276
100
AcDbEntity
  8
DIBUJOS
 62
     7
  0
POLYLINE
  5
27A
330
247
100
AcDbEntity
  8
DIBUJOS
 62
     7
100
AcDb2dPolyline
 66
     1
 10
0.0
 20
0.0
 30
0.0
  0
VERTEX
  5
27B
330
27A
100
AcDbEntity
  8
DIBUJOS
 62
     7
100
AcDbVertex
100
AcDb2dVertex
 10
63.72427852086578
 20
46.87267356605252
 30
0.0
  0
VERTEX
  5
27C
330
27A
100
AcDbEntity
  8
DIBUJOS
 62
     7
100
AcDbVertex
100
AcDb2dVertex
 10
61.320163718764
 20
46.87267356605252
 30
0.0
  0
SEQEND
  5
27D
330
27A
100
AcDbEntity
  8
DIBUJOS
 62
     7
  0
POLYLINE
  5
27E
330
247
100
AcDbEntity
  8
DIBUJOS
 62
     7
100
AcDb2dPolyline
 66
     1
 10
0.0
 20
0.0
 30
0.0
  0
VERTEX
  5
27F
330
27E
100
AcDbEntity
  8
DIBUJOS
 62
     7
100
AcDbVertex
100
AcDb2dVertex
 10
63.73031994575859
 20
46.87267356605252
 30
0.0
  0
VERTEX
  5
280
330
27E
100
AcDbEntity
  8
DIBUJOS
 62
     7
100
AcDbVertex
100
AcDb2dVertex
 10
63.72427852086578
 20
46.87267356605252
 30
0.0
  0
SEQEND
  5
281
330
27E
100
AcDbEntity
  8
DIBUJOS
 62
     7
  0
POLYLINE
  5
282
330
247
100
AcDbEntity
  8
DIBUJOS
 62
     7
100
AcDb2dPolyline
 66
     1
 10
0.0
 20
0.0
 30
0.0
  0
VERTEX
  5
283
330
282
100
AcDbEntity
  8
DIBUJOS
 62
     7
100
AcDbVertex
100
AcDb2dVertex
 10
63.73031994575859
 20
46.87267356605252
 30
0.0
  0
VERTEX
  5
284
330
282
100
AcDbEntity
  8
DIBUJOS
 62
     7
100
AcDbVertex
100
AcDb2dVertex
 10
63.73031994575859
 20
46.87872635019713
 30
0.0
  0
SEQEND
  5
285
330
282
100
AcDbEntity
  8
DIBUJOS
 62
     7
  0
POLYLINE
  5
286
330
247
100
AcDbEntity
  8
DIBUJOS
 62
     7
100
AcDb2dPolyline
 66
     1
 10
0.0
 20
0.0
 30
0.0
  0
VERTEX
  5
287
330
286
100
AcDbEntity
  8
DIBUJOS
 62
     7
100
AcDbVertex
100
AcDb2dVertex
 10
63.73635974486452
 20
46.87267356605252
 30
0.0
  0
VERTEX
  5
288
330
286
100
AcDbEntity
  8
DIBUJOS
 62
     7
100
AcDbVertex
100
AcDb2dVertex
 10
63.73031994575859
 20
46.87267356605252
 30
0.0
  0
SEQEND
  5
289
330
286
100
AcDbEntity
  8
DIBUJOS
 62
     7
  0
POLYLINE
  5
28A
330
247
100
AcDbEntity
  8
DIBUJOS
 62
     7
100
AcDb2dPolyline
 66
     1
 10
0.0
 20
0.0
 30
0.0
  0
VERTEX
  5
28B
330
28A
100
AcDbEntity
  8
DIBUJOS
 62
     7
100
AcDbVertex
100
AcDb2dVertex
 10
61.06042146726247
 20
46.86662078190792
 30
0.0
  0
VERTEX
  5
28C
330
28A
100
AcDbEntity
  8
DIBUJOS
 62
     7
100
AcDbVertex
100
AcDb2dVertex
 10
61.06042146726247
 20
46.87267356605252
 30
0.0
  0
SEQEND
  5
28D
330
28A
100
AcDbEntity
  8
DIBUJOS
 62
     7
  0
POLYLINE
  5
28E
330
247
100
AcDbEntity
  8
DIBUJOS
 62
     7
100
AcDb2dPolyline
 66
     1
 10
0.0
 20
0.0
 30
0.0
  0
VERTEX
  5
28F
330
28E
100
AcDbEntity
  8
DIBUJOS
 62
     7
100
AcDbVertex
100
AcDb2dVertex
 10
61.31412229387119
 20
46.86662078190792
 30
0.0
  0
VERTEX
  5
290
330
28E
100
AcDbEntity
  8
DIBUJOS
 62
     7
100
AcDbVertex
100
AcDb2dVertex
 10
61.31412229387119
 20
46.87267356605252
 30
0.0
  0
SEQEND
  5
291
330
28E
100
AcDbEntity
  8
DIBUJOS
 62
     7
  0
POLYLINE
  5
292
330
247
100
AcDbEntity
  8
DIBUJOS
 62
     7
100
AcDb2dPolyline
 66
     1
 10
0.0
 20
0.0
 30
0.0
  0
VERTEX
  5
293
330
292
100
AcDbEntity
  8
DIBUJOS
 62
     7
100
AcDbVertex
100
AcDb2dVertex
 10
64.09878996167309
 20
46.86662078190792
 30
0.0
  0
VERTEX
  5
294
330
292
100
AcDbEntity
  8
DIBUJOS
 62
     7
100
AcDbVertex
100
AcDb2dVertex
 10
64.09274853678029
 20
46.87267356605252
 30
0.0
  0
VERTEX
  5
295
330
292
100
AcDbEntity
  8
DIBUJOS
 62
     7
100
AcDbVertex
100
AcDb2dVertex
 10
63.73635974486452
 20
46.87267356605252
 30
0.0
  0
SEQEND
  5
296
330
292
100
AcDbEntity
  8
DIBUJOS
 62
     7
  0
POLYLINE
  5
297
330
247
100
AcDbEntity
  8
DIBUJOS
 62
     7
100
AcDb2dPolyline
 66
     1
 10
0.0
 20
0.0
 30
0.0
  0
VERTEX
  5
298
330
297
100
AcDbEntity
  8
DIBUJOS
 62
     7
100
AcDbVertex
100
AcDb2dVertex
 10
61.06042146726247
 20
46.67901379261393
 30
0.0
  0
VERTEX
  5
299
330
297
100
AcDbEntity
  8
DIBUJOS
 62
     7
100
AcDbVertex
100
AcDb2dVertex
 10
61.06042146726247
 20
46.86662078190792
 30
0.0
  0
SEQEND
  5
29A
330
297
100
AcDbEntity
  8
DIBUJOS
 62
     7
  0
POLYLINE
  5
29B
330
247
100
AcDbEntity
  8
DIBUJOS
 62
     7
100
AcDb2dPolyline
 66
     1
 10
0.0
 20
0.0
 30
0.0
  0
VERTEX
  5
29C
330
29B
100
AcDbEntity
  8
DIBUJOS
 62
     7
100
AcDbVertex
100
AcDb2dVertex
 10
61.31412229387119
 20
46.67901379261393
 30
0.0
  0
VERTEX
  5
29D
330
29B
100
AcDbEntity
  8
DIBUJOS
 62
     7
100
AcDbVertex
100
AcDb2dVertex
 10
61.31412229387119
 20
46.86662078190792
 30
0.0
  0
SEQEND
  5
29E
330
29B
100
AcDbEntity
  8
DIBUJOS
 62
     7
  0
POLYLINE
  5
29F
330
247
100
AcDbEntity
  8
DIBUJOS
 62
     7
100
AcDb2dPolyline
 66
     1
 10
0.0
 20
0.0
 30
0.0
  0
VERTEX
  5
2A0
330
29F
100
AcDbEntity
  8
DIBUJOS
 62
     7
100
AcDbVertex
100
AcDb2dVertex
 10
61.06042146726247
 20
46.67296100846933
 30
0.0
  0
VERTEX
  5
2A1
330
29F
100
AcDbEntity
  8
DIBUJOS
 62
     7
100
AcDbVertex
100
AcDb2dVertex
 10
61.05438166815654
 20
46.67296100846933
 30
0.0
  0
SEQEND
  5
2A2
330
29F
100
AcDbEntity
  8
DIBUJOS
 62
     7
  0
POLYLINE
  5
2A3
330
247
100
AcDbEntity
  8
DIBUJOS
 62
     7
100
AcDb2dPolyline
 66
     1
 10
0.0
 20
0.0
 30
0.0
  0
VERTEX
  5
2A4
330
2A3
100
AcDbEntity
  8
DIBUJOS
 62
     7
100
AcDbVertex
100
AcDb2dVertex
 10
61.06042146726247
 20
46.67296100846933
 30
0.0
  0
VERTEX
  5
2A5
330
2A3
100
AcDbEntity
  8
DIBUJOS
 62
     7
100
AcDbVertex
100
AcDb2dVertex
 10
61.06042146726247
 20
46.67901379261393
 30
0.0
  0
SEQEND
  5
2A6
330
2A3
100
AcDbEntity
  8
DIBUJOS
 62
     7
  0
POLYLINE
  5
2A7
330
247
100
AcDbEntity
  8
DIBUJOS
 62
     7
100
AcDb2dPolyline
 66
     1
 10
0.0
 20
0.0
 30
0.0
  0
VERTEX
  5
2A8
330
2A7
100
AcDbEntity
  8
DIBUJOS
 62
     7
100
AcDbVertex
100
AcDb2dVertex
 10
61.31412229387119
 20
46.67296100846933
 30
0.0
  0
VERTEX
  5
2A9
330
2A7
100
AcDbEntity
  8
DIBUJOS
 62
     7
100
AcDbVertex
100
AcDb2dVertex
 10
61.31412229387119
 20
46.67901379261393
 30
0.0
  0
SEQEND
  5
2AA
330
2A7
100
AcDbEntity
  8
DIBUJOS
 62
     7
  0
POLYLINE
  5
2AB
330
247
100
AcDbEntity
  8
DIBUJOS
 62
     7
100
AcDb2dPolyline
 66
     1
 10
0.0
 20
0.0
 30
0.0
  0
VERTEX
  5
2AC
330
2AB
100
AcDbEntity
  8
DIBUJOS
 62
     7
100
AcDbVertex
100
AcDb2dVertex
 10
61.320163718764
 20
46.67296100846933
 30
0.0
  0
VERTEX
  5
2AD
330
2AB
100
AcDbEntity
  8
DIBUJOS
 62
     7
100
AcDbVertex
100
AcDb2dVertex
 10
61.31412229387119
 20
46.67296100846933
 30
0.0
  0
SEQEND
  5
2AE
330
2AB
100
AcDbEntity
  8
DIBUJOS
 62
     7
  0
POLYLINE
  5
2AF
330
247
100
AcDbEntity
  8
DIBUJOS
 62
     7
100
AcDb2dPolyline
 66
     1
 10
0.0
 20
0.0
 30
0.0
  0
VERTEX
  5
2B0
330
2AF
100
AcDbEntity
  8
DIBUJOS
 62
     7
100
AcDbVertex
100
AcDb2dVertex
 10
64.12295240966994
 20
46.67296100846933
 30
0.0
  0
VERTEX
  5
2B1
330
2AF
100
AcDbEntity
  8
DIBUJOS
 62
     7
100
AcDbVertex
100
AcDb2dVertex
 10
64.11691098477712
 20
46.67296100846933
 30
0.0
  0
SEQEND
  5
2B2
330
2AF
100
AcDbEntity
  8
DIBUJOS
 62
     7
  0
POLYLINE
  5
2B3
330
247
100
AcDbEntity
  8
DIBUJOS
 62
     7
100
AcDb2dPolyline
 66
     1
 10
0.0
 20
0.0
 30
0.0
  0
VERTEX
  5
2B4
330
2B3
100
AcDbEntity
  8
DIBUJOS
 62
     7
100
AcDbVertex
100
AcDb2dVertex
 10
64.12295240966994
 20
46.67296100846933
 30
0.0
  0
VERTEX
  5
2B5
330
2B3
100
AcDbEntity
  8
DIBUJOS
 62
     7
100
AcDbVertex
100
AcDb2dVertex
 10
64.1531546567727
 20
46.69111610321561
 30
0.0
  0
VERTEX
  5
2B6
330
2B3
100
AcDbEntity
  8
DIBUJOS
 62
     7
100
AcDbVertex
100
AcDb2dVertex
 10
64.16644384059249
 20
46.70866852569765
 30
0.0
  0
VERTEX
  5
2B7
330
2B3
100
AcDbEntity
  8
DIBUJOS
 62
     7
100
AcDbVertex
100
AcDb2dVertex
 10
64.17963872876012
 20
46.75117157991474
 30
0.0
  0
VERTEX
  5
2B8
330
2B3
100
AcDbEntity
  8
DIBUJOS
 62
     7
100
AcDbVertex
100
AcDb2dVertex
 10
64.18335690387579
 20
46.78794761877851
 30
0.0
  0
VERTEX
  5
2B9
330
2B3
100
AcDbEntity
  8
DIBUJOS
 62
     7
100
AcDbVertex
100
AcDb2dVertex
 10
64.16523588077143
 20
46.84241290301703
 30
0.0
  0
VERTEX
  5
2BA
330
2B3
100
AcDbEntity
  8
DIBUJOS
 62
     7
100
AcDbVertex
100
AcDb2dVertex
 10
64.1480431821057
 20
46.85591276173363
 30
0.0
  0
VERTEX
  5
2BB
330
2B3
100
AcDbEntity
  8
DIBUJOS
 62
     7
100
AcDbVertex
100
AcDb2dVertex
 10
64.11691098477712
 20
46.87872635019713
 30
0.0
  0
VERTEX
  5
2BC
330
2B3
100
AcDbEntity
  8
DIBUJOS
 62
     7
100
AcDbVertex
100
AcDb2dVertex
 10
64.11446254939283
 20
46.9085765445551
 30
0.0
  0
VERTEX
  5
2BD
330
2B3
100
AcDbEntity
  8
DIBUJOS
 62
     7
100
AcDbVertex
100
AcDb2dVertex
 10
64.10482976077871
 20
46.93319163443533
 30
0.0
  0
VERTEX
  5
2BE
330
2B3
100
AcDbEntity
  8
DIBUJOS
 62
     7
100
AcDbVertex
100
AcDb2dVertex
 10
64.08670873767436
 20
46.95134672918129
 30
0.0
  0
VERTEX
  5
2BF
330
2B3
100
AcDbEntity
  8
DIBUJOS
 62
     7
100
AcDbVertex
100
AcDb2dVertex
 10
64.02026281857569
 20
46.9755546080725
 30
0.0
  0
VERTEX
  5
2C0
330
2B3
100
AcDbEntity
  8
DIBUJOS
 62
     7
100
AcDbVertex
100
AcDb2dVertex
 10
63.82696811196002
 20
46.9755546080725
 30
0.0
  0
VERTEX
  5
2C1
330
2B3
100
AcDbEntity
  8
DIBUJOS
 62
     7
100
AcDbVertex
100
AcDb2dVertex
 10
63.76656199196729
 20
46.95739951332622
 30
0.0
  0
VERTEX
  5
2C2
330
2B3
100
AcDbEntity
  8
DIBUJOS
 62
     7
100
AcDbVertex
100
AcDb2dVertex
 10
63.74844096886294
 20
46.93924441857993
 30
0.0
  0
VERTEX
  5
2C3
330
2B3
100
AcDbEntity
  8
DIBUJOS
 62
     7
100
AcDbVertex
100
AcDb2dVertex
 10
63.73264319553572
 20
46.90246837971616
 30
0.0
  0
VERTEX
  5
2C4
330
2B3
100
AcDbEntity
  8
DIBUJOS
 62
     7
100
AcDbVertex
100
AcDb2dVertex
 10
63.73031994575859
 20
46.87872635019713
 30
0.0
  0
SEQEND
  5
2C5
330
2B3
100
AcDbEntity
  8
DIBUJOS
 62
     7
  0
POLYLINE
  5
2C6
330
247
100
AcDbEntity
  8
DIBUJOS
 62
     7
100
AcDb2dPolyline
 66
     1
 10
0.0
 20
0.0
 30
0.0
  0
VERTEX
  5
2C7
330
2C6
100
AcDbEntity
  8
DIBUJOS
 62
     7
100
AcDbVertex
100
AcDb2dVertex
 10
59.45365119119493
 20
46.66691148201257
 30
0.0
  0
VERTEX
  5
2C8
330
2C6
100
AcDbEntity
  8
DIBUJOS
 62
     7
100
AcDbVertex
100
AcDb2dVertex
 10
59.44760976630212
 20
46.67296100846933
 30
0.0
  0
VERTEX
  5
2C9
330
2C6
100
AcDbEntity
  8
DIBUJOS
 62
     7
100
AcDbVertex
100
AcDb2dVertex
 10
58.28179522435337
 20
46.67296100846933
 30
0.0
  0
SEQEND
  5
2CA
330
2C6
100
AcDbEntity
  8
DIBUJOS
 62
     7
  0
POLYLINE
  5
2CB
330
247
100
AcDbEntity
  8
DIBUJOS
 62
     7
100
AcDb2dPolyline
 66
     1
 10
0.0
 20
0.0
 30
0.0
  0
VERTEX
  5
2CC
330
2CB
100
AcDbEntity
  8
DIBUJOS
 62
     7
100
AcDbVertex
100
AcDb2dVertex
 10
59.45969099030054
 20
46.66691148201257
 30
0.0
  0
VERTEX
  5
2CD
330
2CB
100
AcDbEntity
  8
DIBUJOS
 62
     7
100
AcDbVertex
100
AcDb2dVertex
 10
59.45365119119493
 20
46.66691148201257
 30
0.0
  0
SEQEND
  5
2CE
330
2CB
100
AcDbEntity
  8
DIBUJOS
 62
     7
  0
POLYLINE
  5
2CF
330
247
100
AcDbEntity
  8
DIBUJOS
 62
     7
100
AcDb2dPolyline
 66
     1
 10
0.0
 20
0.0
 30
0.0
  0
VERTEX
  5
2D0
330
2CF
100
AcDbEntity
  8
DIBUJOS
 62
     7
100
AcDbVertex
100
AcDb2dVertex
 10
59.46573241519334
 20
46.66691148201257
 30
0.0
  0
VERTEX
  5
2D1
330
2CF
100
AcDbEntity
  8
DIBUJOS
 62
     7
100
AcDbVertex
100
AcDb2dVertex
 10
59.45969099030054
 20
46.66691148201257
 30
0.0
  0
SEQEND
  5
2D2
330
2CF
100
AcDbEntity
  8
DIBUJOS
 62
     7
  0
POLYLINE
  5
2D3
330
247
100
AcDbEntity
  8
DIBUJOS
 62
     7
100
AcDb2dPolyline
 66
     1
 10
0.0
 20
0.0
 30
0.0
  0
VERTEX
  5
2D4
330
2D3
100
AcDbEntity
  8
DIBUJOS
 62
     7
100
AcDbVertex
100
AcDb2dVertex
 10
59.46573241519334
 20
46.66691148201257
 30
0.0
  0
VERTEX
  5
2D5
330
2D3
100
AcDbEntity
  8
DIBUJOS
 62
     7
100
AcDbVertex
100
AcDb2dVertex
 10
59.47177221429928
 20
46.67296100846933
 30
0.0
  0
VERTEX
  5
2D6
330
2D3
100
AcDbEntity
  8
DIBUJOS
 62
     7
100
AcDbVertex
100
AcDb2dVertex
 10
61.05438166815654
 20
46.67296100846933
 30
0.0
  0
SEQEND
  5
2D7
330
2D3
100
AcDbEntity
  8
DIBUJOS
 62
     7
  0
POLYLINE
  5
2D8
330
247
100
AcDbEntity
  8
DIBUJOS
 62
     7
100
AcDb2dPolyline
 66
     1
 10
0.0
 20
0.0
 30
0.0
  0
VERTEX
  5
2D9
330
2D8
100
AcDbEntity
  8
DIBUJOS
 62
     7
100
AcDbVertex
100
AcDb2dVertex
 10
61.06042146726247
 20
46.66691148201257
 30
0.0
  0
VERTEX
  5
2DA
330
2D8
100
AcDbEntity
  8
DIBUJOS
 62
     7
100
AcDbVertex
100
AcDb2dVertex
 10
61.06042146726247
 20
46.67296100846933
 30
0.0
  0
SEQEND
  5
2DB
330
2D8
100
AcDbEntity
  8
DIBUJOS
 62
     7
  0
POLYLINE
  5
2DC
330
247
100
AcDbEntity
  8
DIBUJOS
 62
     7
100
AcDb2dPolyline
 66
     1
 10
0.0
 20
0.0
 30
0.0
  0
VERTEX
  5
2DD
330
2DC
100
AcDbEntity
  8
DIBUJOS
 62
     7
100
AcDbVertex
100
AcDb2dVertex
 10
61.31412229387119
 20
46.66691148201257
 30
0.0
  0
VERTEX
  5
2DE
330
2DC
100
AcDbEntity
  8
DIBUJOS
 62
     7
100
AcDbVertex
100
AcDb2dVertex
 10
61.31412229387119
 20
46.67296100846933
 30
0.0
  0
SEQEND
  5
2DF
330
2DC
100
AcDbEntity
  8
DIBUJOS
 62
     7
  0
POLYLINE
  5
2E0
330
247
100
AcDbEntity
  8
DIBUJOS
 62
     7
100
AcDb2dPolyline
 66
     1
 10
0.0
 20
0.0
 30
0.0
  0
VERTEX
  5
2E1
330
2E0
100
AcDbEntity
  8
DIBUJOS
 62
     7
100
AcDbVertex
100
AcDb2dVertex
 10
62.90881297172687
 20
46.66691148201257
 30
0.0
  0
VERTEX
  5
2E2
330
2E0
100
AcDbEntity
  8
DIBUJOS
 62
     7
100
AcDbVertex
100
AcDb2dVertex
 10
62.90277154683407
 20
46.67296100846933
 30
0.0
  0
VERTEX
  5
2E3
330
2E0
100
AcDbEntity
  8
DIBUJOS
 62
     7
100
AcDbVertex
100
AcDb2dVertex
 10
61.320163718764
 20
46.67296100846933
 30
0.0
  0
SEQEND
  5
2E4
330
2E0
100
AcDbEntity
  8
DIBUJOS
 62
     7
  0
POLYLINE
  5
2E5
330
247
100
AcDbEntity
  8
DIBUJOS
 62
     7
100
AcDb2dPolyline
 66
     1
 10
0.0
 20
0.0
 30
0.0
  0
VERTEX
  5
2E6
330
2E5
100
AcDbEntity
  8
DIBUJOS
 62
     7
100
AcDbVertex
100
AcDb2dVertex
 10
62.9148527708328
 20
46.66691148201257
 30
0.0
  0
VERTEX
  5
2E7
330
2E5
100
AcDbEntity
  8
DIBUJOS
 62
     7
100
AcDbVertex
100
AcDb2dVertex
 10
62.90881297172687
 20
46.66691148201257
 30
0.0
  0
SEQEND
  5
2E8
330
2E5
100
AcDbEntity
  8
DIBUJOS
 62
     7
  0
POLYLINE
  5
2E9
330
247
100
AcDbEntity
  8
DIBUJOS
 62
     7
100
AcDb2dPolyline
 66
     1
 10
0.0
 20
0.0
 30
0.0
  0
VERTEX
  5
2EA
330
2E9
100
AcDbEntity
  8
DIBUJOS
 62
     7
100
AcDbVertex
100
AcDb2dVertex
 10
62.92089419572561
 20
46.66691148201257
 30
0.0
  0
VERTEX
  5
2EB
330
2E9
100
AcDbEntity
  8
DIBUJOS
 62
     7
100
AcDbVertex
100
AcDb2dVertex
 10
62.9148527708328
 20
46.66691148201257
 30
0.0
  0
SEQEND
  5
2EC
330
2E9
100
AcDbEntity
  8
DIBUJOS
 62
     7
  0
POLYLINE
  5
2ED
330
247
100
AcDbEntity
  8
DIBUJOS
 62
     7
100
AcDb2dPolyline
 66
     1
 10
0.0
 20
0.0
 30
0.0
  0
VERTEX
  5
2EE
330
2ED
100
AcDbEntity
  8
DIBUJOS
 62
     7
100
AcDbVertex
100
AcDb2dVertex
 10
62.92089419572561
 20
46.66691148201257
 30
0.0
  0
VERTEX
  5
2EF
330
2ED
100
AcDbEntity
  8
DIBUJOS
 62
     7
100
AcDbVertex
100
AcDb2dVertex
 10
62.92693399483122
 20
46.67296100846933
 30
0.0
  0
VERTEX
  5
2F0
330
2ED
100
AcDbEntity
  8
DIBUJOS
 62
     7
100
AcDbVertex
100
AcDb2dVertex
 10
64.11691098477712
 20
46.67296100846933
 30
0.0
  0
SEQEND
  5
2F1
330
2ED
100
AcDbEntity
  8
DIBUJOS
 62
     7
  0
POLYLINE
  5
2F2
330
247
100
AcDbEntity
  8
DIBUJOS
 62
     7
100
AcDb2dPolyline
 66
     1
 10
0.0
 20
0.0
 30
0.0
  0
VERTEX
  5
2F3
330
2F2
100
AcDbEntity
  8
DIBUJOS
 62
     7
100
AcDbVertex
100
AcDb2dVertex
 10
64.12295240966994
 20
46.66691148201257
 30
0.0
  0
VERTEX
  5
2F4
330
2F2
100
AcDbEntity
  8
DIBUJOS
 62
     7
100
AcDbVertex
100
AcDb2dVertex
 10
64.12295240966994
 20
46.67296100846933
 30
0.0
  0
SEQEND
  5
2F5
330
2F2
100
AcDbEntity
  8
DIBUJOS
 62
     7
  0
POLYLINE
  5
2F6
330
247
100
AcDbEntity
  8
DIBUJOS
 62
     7
100
AcDb2dPolyline
 66
     1
 10
0.0
 20
0.0
 30
0.0
  0
VERTEX
  5
2F7
330
2F6
100
AcDbEntity
  8
DIBUJOS
 62
     7
100
AcDbVertex
100
AcDb2dVertex
 10
59.45969099030054
 20
46.66085869786797
 30
0.0
  0
VERTEX
  5
2F8
330
2F6
100
AcDbEntity
  8
DIBUJOS
 62
     7
100
AcDbVertex
100
AcDb2dVertex
 10
59.45969099030054
 20
46.66691148201257
 30
0.0
  0
SEQEND
  5
2F9
330
2F6
100
AcDbEntity
  8
DIBUJOS
 62
     7
  0
POLYLINE
  5
2FA
330
247
100
AcDbEntity
  8
DIBUJOS
 62
     7
100
AcDb2dPolyline
 66
     1
 10
0.0
 20
0.0
 30
0.0
  0
VERTEX
  5
2FB
330
2FA
100
AcDbEntity
  8
DIBUJOS
 62
     7
100
AcDbVertex
100
AcDb2dVertex
 10
62.9148527708328
 20
46.66085869786797
 30
0.0
  0
VERTEX
  5
2FC
330
2FA
100
AcDbEntity
  8
DIBUJOS
 62
     7
100
AcDbVertex
100
AcDb2dVertex
 10
62.9148527708328
 20
46.66691148201257
 30
0.0
  0
SEQEND
  5
2FD
330
2FA
100
AcDbEntity
  8
DIBUJOS
 62
     7
  0
POLYLINE
  5
2FE
330
247
100
AcDbEntity
  8
DIBUJOS
 62
     7
100
AcDb2dPolyline
 66
     1
 10
0.0
 20
0.0
 30
0.0
  0
VERTEX
  5
2FF
330
2FE
100
AcDbEntity
  8
DIBUJOS
 62
     7
100
AcDbVertex
100
AcDb2dVertex
 10
58.64422544116195
 20
46.87872635019713
 30
0.0
  0
VERTEX
  5
300
330
2FE
100
AcDbEntity
  8
DIBUJOS
 62
     7
100
AcDbVertex
100
AcDb2dVertex
 10
58.64190056559762
 20
46.90246837971616
 30
0.0
  0
VERTEX
  5
301
330
2FE
100
AcDbEntity
  8
DIBUJOS
 62
     7
100
AcDbVertex
100
AcDb2dVertex
 10
58.62610279227073
 20
46.93924441857993
 30
0.0
  0
VERTEX
  5
302
330
2FE
100
AcDbEntity
  8
DIBUJOS
 62
     7
100
AcDbVertex
100
AcDb2dVertex
 10
58.61402156827199
 20
46.95134672918129
 30
0.0
  0
VERTEX
  5
303
330
2FE
100
AcDbEntity
  8
DIBUJOS
 62
     7
100
AcDbVertex
100
AcDb2dVertex
 10
58.57737144949929
 20
46.96704878492827
 30
0.0
  0
VERTEX
  5
304
330
2FE
100
AcDbEntity
  8
DIBUJOS
 62
     7
100
AcDbVertex
100
AcDb2dVertex
 10
58.54798534752484
 20
46.9719548629272
 30
0.0
  0
VERTEX
  5
305
330
2FE
100
AcDbEntity
  8
DIBUJOS
 62
     7
100
AcDbVertex
100
AcDb2dVertex
 10
58.54153585006771
 20
46.9755546080725
 30
0.0
  0
VERTEX
  5
306
330
2FE
100
AcDbEntity
  8
DIBUJOS
 62
     7
100
AcDbVertex
100
AcDb2dVertex
 10
58.35428094255765
 20
46.9755546080725
 30
0.0
  0
VERTEX
  5
307
330
2FE
100
AcDbEntity
  8
DIBUJOS
 62
     7
100
AcDbVertex
100
AcDb2dVertex
 10
58.31844696891326
 20
46.96704878492827
 30
0.0
  0
VERTEX
  5
308
330
2FE
100
AcDbEntity
  8
DIBUJOS
 62
     7
100
AcDbVertex
100
AcDb2dVertex
 10
58.29931308044063
 20
46.95860811554255
 30
0.0
  0
VERTEX
  5
309
330
2FE
100
AcDbEntity
  8
DIBUJOS
 62
     7
100
AcDbVertex
100
AcDb2dVertex
 10
58.26971400035496
 20
46.93319163443533
 30
0.0
  0
VERTEX
  5
30A
330
2FE
100
AcDbEntity
  8
DIBUJOS
 62
     7
100
AcDbVertex
100
AcDb2dVertex
 10
58.26488216107008
 20
46.92048339388187
 30
0.0
  0
VERTEX
  5
30B
330
2FE
100
AcDbEntity
  8
DIBUJOS
 62
     7
100
AcDbVertex
100
AcDb2dVertex
 10
58.25763277635622
 20
46.87872635019713
 30
0.0
  0
VERTEX
  5
30C
330
2FE
100
AcDbEntity
  8
DIBUJOS
 62
     7
100
AcDbVertex
100
AcDb2dVertex
 10
58.2093095061491
 20
46.83636337655996
 30
0.0
  0
VERTEX
  5
30D
330
2FE
100
AcDbEntity
  8
DIBUJOS
 62
     7
100
AcDbVertex
100
AcDb2dVertex
 10
58.19722828215036
 20
46.79400040292343
 30
0.0
  0
VERTEX
  5
30E
330
2FE
100
AcDbEntity
  8
DIBUJOS
 62
     7
100
AcDbVertex
100
AcDb2dVertex
 10
58.20094483147916
 20
46.74511879577013
 30
0.0
  0
VERTEX
  5
30F
330
2FE
100
AcDbEntity
  8
DIBUJOS
 62
     7
100
AcDbVertex
100
AcDb2dVertex
 10
58.2093095061491
 20
46.70927445564942
 30
0.0
  0
VERTEX
  5
310
330
2FE
100
AcDbEntity
  8
DIBUJOS
 62
     7
100
AcDbVertex
100
AcDb2dVertex
 10
58.25159297725028
 20
46.67296100846933
 30
0.0
  0
VERTEX
  5
311
330
2FE
100
AcDbEntity
  8
DIBUJOS
 62
     7
100
AcDbVertex
100
AcDb2dVertex
 10
58.25159297725028
 20
44.29458495834695
 30
0.0
  0
VERTEX
  5
312
330
2FE
100
AcDbEntity
  8
DIBUJOS
 62
     7
100
AcDbVertex
100
AcDb2dVertex
 10
58.25159297725028
 20
43.35654675419109
 30
0.0
  0
VERTEX
  5
313
330
2FE
100
AcDbEntity
  8
DIBUJOS
 62
     7
100
AcDbVertex
100
AcDb2dVertex
 10
58.27236565912766
 20
43.21159918813463
 30
0.0
  0
VERTEX
  5
314
330
2FE
100
AcDbEntity
  8
DIBUJOS
 62
     7
100
AcDbVertex
100
AcDb2dVertex
 10
58.28439648372609
 20
43.11480024945018
 30
0.0
  0
VERTEX
  5
315
330
2FE
100
AcDbEntity
  8
DIBUJOS
 62
     7
100
AcDbVertex
100
AcDb2dVertex
 10
58.32287073563382
 20
43.02914260343312
 30
0.0
  0
VERTEX
  5
316
330
2FE
100
AcDbEntity
  8
DIBUJOS
 62
     7
100
AcDbVertex
100
AcDb2dVertex
 10
58.32547199500623
 20
43.02462744798399
 30
0.0
  0
VERTEX
  5
317
330
2FE
100
AcDbEntity
  8
DIBUJOS
 62
     7
100
AcDbVertex
100
AcDb2dVertex
 10
58.37119400584062
 20
42.93836387201482
 30
0.0
  0
VERTEX
  5
318
330
2FE
100
AcDbEntity
  8
DIBUJOS
 62
     7
100
AcDbVertex
100
AcDb2dVertex
 10
58.372401965662
 20
42.93291701782231
 30
0.0
  0
VERTEX
  5
319
330
2FE
100
AcDbEntity
  8
DIBUJOS
 62
     7
100
AcDbVertex
100
AcDb2dVertex
 10
58.40151818697682
 20
42.90725946780939
 30
0.0
  0
VERTEX
  5
31A
330
2FE
100
AcDbEntity
  8
DIBUJOS
 62
     7
100
AcDbVertex
100
AcDb2dVertex
 10
58.46208038253203
 20
42.86495187486688
 30
0.0
  0
VERTEX
  5
31B
330
2FE
100
AcDbEntity
  8
DIBUJOS
 62
     7
100
AcDbVertex
100
AcDb2dVertex
 10
58.53674628124784
 20
42.81501151914134
 30
0.0
  0
VERTEX
  5
31C
330
2FE
100
AcDbEntity
  8
DIBUJOS
 62
     7
100
AcDbVertex
100
AcDb2dVertex
 10
58.66193839170231
 20
42.79127274731047
 30
0.0
  0
VERTEX
  5
31D
330
2FE
100
AcDbEntity
  8
DIBUJOS
 62
     7
100
AcDbVertex
100
AcDb2dVertex
 10
58.74087198157619
 20
42.77557069156381
 30
0.0
  0
VERTEX
  5
31E
330
2FE
100
AcDbEntity
  8
DIBUJOS
 62
     7
100
AcDbVertex
100
AcDb2dVertex
 10
58.97041198597496
 20
42.77557069156381
 30
0.0
  0
VERTEX
  5
31F
330
2FE
100
AcDbEntity
  8
DIBUJOS
 62
     7
100
AcDbVertex
100
AcDb2dVertex
 10
59.0848186247558
 20
42.79626678288315
 30
0.0
  0
VERTEX
  5
320
330
2FE
100
AcDbEntity
  8
DIBUJOS
 62
     7
100
AcDbVertex
100
AcDb2dVertex
 10
59.18243250849895
 20
42.81672180529679
 30
0.0
  0
VERTEX
  5
321
330
2FE
100
AcDbEntity
  8
DIBUJOS
 62
     7
100
AcDbVertex
100
AcDb2dVertex
 10
59.24734531035504
 20
42.86169418695305
 30
0.0
  0
VERTEX
  5
322
330
2FE
100
AcDbEntity
  8
DIBUJOS
 62
     7
100
AcDbVertex
100
AcDb2dVertex
 10
59.33888200188915
 20
42.92686749136524
 30
0.0
  0
VERTEX
  5
323
330
2FE
100
AcDbEntity
  8
DIBUJOS
 62
     7
100
AcDbVertex
100
AcDb2dVertex
 10
59.39445465681045
 20
43.03519538757804
 30
0.0
  0
VERTEX
  5
324
330
2FE
100
AcDbEntity
  8
DIBUJOS
 62
     7
100
AcDbVertex
100
AcDb2dVertex
 10
59.42735733629936
 20
43.10290317318726
 30
0.0
  0
VERTEX
  5
325
330
2FE
100
AcDbEntity
  8
DIBUJOS
 62
     7
100
AcDbVertex
100
AcDb2dVertex
 10
59.45021265146204
 20
43.26544551166872
 30
0.0
  0
VERTEX
  5
326
330
2FE
100
AcDbEntity
  8
DIBUJOS
 62
     7
100
AcDbVertex
100
AcDb2dVertex
 10
59.45667678100258
 20
43.32629586421946
 30
0.0
  0
VERTEX
  5
327
330
2FE
100
AcDbEntity
  8
DIBUJOS
 62
     7
100
AcDbVertex
100
AcDb2dVertex
 10
59.46182239719928
 20
46.6432378639399
 30
0.0
  0
VERTEX
  5
328
330
2FE
100
AcDbEntity
  8
DIBUJOS
 62
     7
100
AcDbVertex
100
AcDb2dVertex
 10
59.45969099030054
 20
46.66085869786797
 30
0.0
  0
SEQEND
  5
329
330
2FE
100
AcDbEntity
  8
DIBUJOS
 62
     7
  0
POLYLINE
  5
32A
330
247
100
AcDbEntity
  8
DIBUJOS
 62
     7
100
AcDb2dPolyline
 66
     1
 10
0.0
 20
0.0
 30
0.0
  0
VERTEX
  5
32B
330
32A
100
AcDbEntity
  8
DIBUJOS
 62
     7
100
AcDbVertex
100
AcDb2dVertex
 10
61.06042146726247
 20
46.66691148201257
 30
0.0
  0
VERTEX
  5
32C
330
32A
100
AcDbEntity
  8
DIBUJOS
 62
     7
100
AcDbVertex
100
AcDb2dVertex
 10
61.06432985946967
 20
42.82345218852769
 30
0.0
  0
VERTEX
  5
32D
330
32A
100
AcDbEntity
  8
DIBUJOS
 62
     7
100
AcDbVertex
100
AcDb2dVertex
 10
61.07250269126121
 20
42.79372578631009
 30
0.0
  0
VERTEX
  5
32E
330
32A
100
AcDbEntity
  8
DIBUJOS
 62
     7
100
AcDbVertex
100
AcDb2dVertex
 10
61.08365396503383
 20
42.78627871173811
 30
0.0
  0
VERTEX
  5
32F
330
32A
100
AcDbEntity
  8
DIBUJOS
 62
     7
100
AcDbVertex
100
AcDb2dVertex
 10
61.09666513925804
 20
42.77557069156381
 30
0.0
  0
VERTEX
  5
330
330
32A
100
AcDbEntity
  8
DIBUJOS
 62
     7
100
AcDbVertex
100
AcDb2dVertex
 10
61.27183882276969
 20
42.77557069156381
 30
0.0
  0
VERTEX
  5
331
330
32A
100
AcDbEntity
  8
DIBUJOS
 62
     7
100
AcDbVertex
100
AcDb2dVertex
 10
61.2839200467681
 20
42.78162347570841
 30
0.0
  0
VERTEX
  5
332
330
32A
100
AcDbEntity
  8
DIBUJOS
 62
     7
100
AcDbVertex
100
AcDb2dVertex
 10
61.30808249476559
 20
42.80582809691145
 30
0.0
  0
VERTEX
  5
333
330
32A
100
AcDbEntity
  8
DIBUJOS
 62
     7
100
AcDbVertex
100
AcDb2dVertex
 10
61.3104057445424
 20
42.82957012643017
 30
0.0
  0
VERTEX
  5
334
330
32A
100
AcDbEntity
  8
DIBUJOS
 62
     7
100
AcDbVertex
100
AcDb2dVertex
 10
61.31412229387119
 20
46.66691148201257
 30
0.0
  0
SEQEND
  5
335
330
32A
100
AcDbEntity
  8
DIBUJOS
 62
     7
  0
POLYLINE
  5
336
330
247
100
AcDbEntity
  8
DIBUJOS
 62
     7
100
AcDb2dPolyline
 66
     1
 10
0.0
 20
0.0
 30
0.0
  0
VERTEX
  5
337
330
336
100
AcDbEntity
  8
DIBUJOS
 62
     7
100
AcDbVertex
100
AcDb2dVertex
 10
62.9148527708328
 20
46.66085869786797
 30
0.0
  0
VERTEX
  5
338
330
336
100
AcDbEntity
  8
DIBUJOS
 62
     7
100
AcDbVertex
100
AcDb2dVertex
 10
62.91304164399465
 20
46.64935905953086
 30
0.0
  0
VERTEX
  5
339
330
336
100
AcDbEntity
  8
DIBUJOS
 62
     7
100
AcDbVertex
100
AcDb2dVertex
 10
62.91183856153484
 20
46.5579711404723
 30
0.0
  0
VERTEX
  5
33A
330
336
100
AcDbEntity
  8
DIBUJOS
 62
     7
100
AcDbVertex
100
AcDb2dVertex
 10
62.91786860591763
 20
43.32024308007454
 30
0.0
  0
VERTEX
  5
33B
330
336
100
AcDbEntity
  8
DIBUJOS
 62
     7
100
AcDbVertex
100
AcDb2dVertex
 10
62.94161647820236
 20
43.12690256005155
 30
0.0
  0
VERTEX
  5
33C
330
336
100
AcDbEntity
  8
DIBUJOS
 62
     7
100
AcDbVertex
100
AcDb2dVertex
 10
62.94292361103716
 20
43.11999300398561
 30
0.0
  0
VERTEX
  5
33D
330
336
100
AcDbEntity
  8
DIBUJOS
 62
     7
100
AcDbVertex
100
AcDb2dVertex
 10
62.96800950611167
 20
43.0594032664686
 30
0.0
  0
VERTEX
  5
33E
330
336
100
AcDbEntity
  8
DIBUJOS
 62
     7
100
AcDbVertex
100
AcDb2dVertex
 10
63.03566338503139
 20
42.92686749136524
 30
0.0
  0
VERTEX
  5
33F
330
336
100
AcDbEntity
  8
DIBUJOS
 62
     7
100
AcDbVertex
100
AcDb2dVertex
 10
63.11310287655333
 20
42.87094602062898
 30
0.0
  0
VERTEX
  5
340
330
336
100
AcDbEntity
  8
DIBUJOS
 62
     7
100
AcDbVertex
100
AcDb2dVertex
 10
63.19936063734826
 20
42.81369541322417
 30
0.0
  0
VERTEX
  5
341
330
336
100
AcDbEntity
  8
DIBUJOS
 62
     7
100
AcDbVertex
100
AcDb2dVertex
 10
63.35540043238727
 20
42.78521996316586
 30
0.0
  0
VERTEX
  5
342
330
336
100
AcDbEntity
  8
DIBUJOS
 62
     7
100
AcDbVertex
100
AcDb2dVertex
 10
63.40413340094558
 20
42.77557069156381
 30
0.0
  0
VERTEX
  5
343
330
336
100
AcDbEntity
  8
DIBUJOS
 62
     7
100
AcDbVertex
100
AcDb2dVertex
 10
63.63367177955715
 20
42.77557069156381
 30
0.0
  0
VERTEX
  5
344
330
336
100
AcDbEntity
  8
DIBUJOS
 62
     7
100
AcDbVertex
100
AcDb2dVertex
 10
63.77900576649097
 20
42.80328710033807
 30
0.0
  0
VERTEX
  5
345
330
336
100
AcDbEntity
  8
DIBUJOS
 62
     7
100
AcDbVertex
100
AcDb2dVertex
 10
63.82153147987118
 20
42.81006634888794
 30
0.0
  0
VERTEX
  5
346
330
336
100
AcDbEntity
  8
DIBUJOS
 62
     7
100
AcDbVertex
100
AcDb2dVertex
 10
63.86228183373012
 20
42.83143352391757
 30
0.0
  0
VERTEX
  5
347
330
336
100
AcDbEntity
  8
DIBUJOS
 62
     7
100
AcDbVertex
100
AcDb2dVertex
 10
63.87622133239261
 20
42.84074399597631
 30
0.0
  0
VERTEX
  5
348
330
336
100
AcDbEntity
  8
DIBUJOS
 62
     7
100
AcDbVertex
100
AcDb2dVertex
 10
63.97797934747451
 20
42.90871239661927
 30
0.0
  0
VERTEX
  5
349
330
336
100
AcDbEntity
  8
DIBUJOS
 62
     7
100
AcDbVertex
100
AcDb2dVertex
 10
64.00214179547135
 20
42.93291701782231
 30
0.0
  0
VERTEX
  5
34A
330
336
100
AcDbEntity
  8
DIBUJOS
 62
     7
100
AcDbVertex
100
AcDb2dVertex
 10
64.04321730675179
 20
43.01824889504778
 30
0.0
  0
VERTEX
  5
34B
330
336
100
AcDbEntity
  8
DIBUJOS
 62
     7
100
AcDbVertex
100
AcDb2dVertex
 10
64.08489598504902
 20
43.09692205817687
 30
0.0
  0
VERTEX
  5
34C
330
336
100
AcDbEntity
  8
DIBUJOS
 62
     7
100
AcDbVertex
100
AcDb2dVertex
 10
64.10222850140599
 20
43.21162850732556
 30
0.0
  0
VERTEX
  5
34D
330
336
100
AcDbEntity
  8
DIBUJOS
 62
     7
100
AcDbVertex
100
AcDb2dVertex
 10
64.11951386993704
 20
43.35017145894273
 30
0.0
  0
VERTEX
  5
34E
330
336
100
AcDbEntity
  8
DIBUJOS
 62
     7
100
AcDbVertex
100
AcDb2dVertex
 10
64.12295240966994
 20
43.35654675419109
 30
0.0
  0
VERTEX
  5
34F
330
336
100
AcDbEntity
  8
DIBUJOS
 62
     7
100
AcDbVertex
100
AcDb2dVertex
 10
64.12295240966994
 20
46.61244294008652
 30
0.0
  0
VERTEX
  5
350
330
336
100
AcDbEntity
  8
DIBUJOS
 62
     7
100
AcDbVertex
100
AcDb2dVertex
 10
64.11691098477712
 20
46.61849572423112
 30
0.0
  0
VERTEX
  5
351
330
336
100
AcDbEntity
  8
DIBUJOS
 62
     7
100
AcDbVertex
100
AcDb2dVertex
 10
64.12041455599471
 20
46.63096289587888
 30
0.0
  0
VERTEX
  5
352
330
336
100
AcDbEntity
  8
DIBUJOS
 62
     7
100
AcDbVertex
100
AcDb2dVertex
 10
64.12295240966994
 20
46.66691148201257
 30
0.0
  0
SEQEND
  5
353
330
336
100
AcDbEntity
  8
DIBUJOS
 62
     7
  0
ENDBLK
  5
24A
330
247
100
AcDbEntity
  8
0
100
AcDbBlockEnd
  0
BLOCK
  5
356
330
354
100
AcDbEntity
  8
0
100
AcDbBlockBegin
  2
BLOCK_5
 70
     0
 10
0.0
 20
0.0
 30
0.0
  3
BLOCK_5
  1

  0
POLYLINE
  5
358
330
354
100
AcDbEntity
  8
DIBUJOS
 62
     7
100
AcDb2dPolyline
 66
     1
 10
0.0
 20
0.0
 30
0.0
  0
VERTEX
  5
359
330
358
100
AcDbEntity
  8
DIBUJOS
 62
     7
100
AcDbVertex
100
AcDb2dVertex
 10
63.71219892265423
 20
32.8717172944376
 30
0.0
  0
VERTEX
  5
35A
330
358
100
AcDbEntity
  8
DIBUJOS
 62
     7
100
AcDbVertex
100
AcDb2dVertex
 10
63.6411065040013
 20
32.98158119050164
 30
0.0
  0
VERTEX
  5
35B
330
358
100
AcDbEntity
  8
DIBUJOS
 62
     7
100
AcDbVertex
100
AcDb2dVertex
 10
63.58989583589057
 20
33.05804401238137
 30
0.0
  0
VERTEX
  5
35C
330
358
100
AcDbEntity
  8
DIBUJOS
 62
     7
100
AcDbVertex
100
AcDb2dVertex
 10
63.36788972895001
 20
33.3256060649986
 30
0.0
  0
VERTEX
  5
35D
330
358
100
AcDbEntity
  8
DIBUJOS
 62
     7
100
AcDbVertex
100
AcDb2dVertex
 10
63.24241960890028
 20
33.44209935596743
 30
0.0
  0
VERTEX
  5
35E
330
358
100
AcDbEntity
  8
DIBUJOS
 62
     7
100
AcDbVertex
100
AcDb2dVertex
 10
63.05854633857469
 20
33.6085476622584
 30
0.0
  0
VERTEX
  5
35F
330
358
100
AcDbEntity
  8
DIBUJOS
 62
     7
100
AcDbVertex
100
AcDb2dVertex
 10
62.79311383219561
 20
33.79625401103359
 30
0.0
  0
VERTEX
  5
360
330
358
100
AcDbEntity
  8
DIBUJOS
 62
     7
100
AcDbVertex
100
AcDb2dVertex
 10
62.7508303610941
 20
33.82651304522484
 30
0.0
  0
VERTEX
  5
361
330
358
100
AcDbEntity
  8
DIBUJOS
 62
     7
100
AcDbVertex
100
AcDb2dVertex
 10
62.39597468642122
 20
34.01128095950116
 30
0.0
  0
VERTEX
  5
362
330
358
100
AcDbEntity
  8
DIBUJOS
 62
     7
100
AcDbVertex
100
AcDb2dVertex
 10
62.14710569909705
 20
34.10508445414816
 30
0.0
  0
VERTEX
  5
363
330
358
100
AcDbEntity
  8
DIBUJOS
 62
     7
100
AcDbVertex
100
AcDb2dVertex
 10
62.02636824531845
 20
34.14652224441732
 30
0.0
  0
VERTEX
  5
364
330
358
100
AcDbEntity
  8
DIBUJOS
 62
     7
100
AcDbVertex
100
AcDb2dVertex
 10
61.97904158260836
 20
34.15703806100456
 30
0.0
  0
VERTEX
  5
365
330
358
100
AcDbEntity
  8
DIBUJOS
 62
     7
100
AcDbVertex
100
AcDb2dVertex
 10
61.65214294304202
 20
34.23065529249094
 30
0.0
  0
VERTEX
  5
366
330
358
100
AcDbEntity
  8
DIBUJOS
 62
     7
100
AcDbVertex
100
AcDb2dVertex
 10
61.53184932914399
 20
34.24213212701249
 30
0.0
  0
VERTEX
  5
367
330
358
100
AcDbEntity
  8
DIBUJOS
 62
     7
100
AcDbVertex
100
AcDb2dVertex
 10
61.35036596586677
 20
34.26364264031053
 30
0.0
  0
VERTEX
  5
368
330
358
100
AcDbEntity
  8
DIBUJOS
 62
     7
100
AcDbVertex
100
AcDb2dVertex
 10
61.10270493836366
 20
34.26364264031053
 30
0.0
  0
VERTEX
  5
369
330
358
100
AcDbEntity
  8
DIBUJOS
 62
     7
100
AcDbVertex
100
AcDb2dVertex
 10
60.86676421012153
 20
34.24803017098122
 30
0.0
  0
VERTEX
  5
36A
330
358
100
AcDbEntity
  8
DIBUJOS
 62
     7
100
AcDbVertex
100
AcDb2dVertex
 10
60.83124563917584
 20
34.24294492014727
 30
0.0
  0
VERTEX
  5
36B
330
358
100
AcDbEntity
  8
DIBUJOS
 62
     7
100
AcDbVertex
100
AcDb2dVertex
 10
60.52221439992515
 20
34.19283679349447
 30
0.0
  0
VERTEX
  5
36C
330
358
100
AcDbEntity
  8
DIBUJOS
 62
     7
100
AcDbVertex
100
AcDb2dVertex
 10
60.44482368201633
 20
34.17073012330852
 30
0.0
  0
VERTEX
  5
36D
330
358
100
AcDbEntity
  8
DIBUJOS
 62
     7
100
AcDbVertex
100
AcDb2dVertex
 10
60.13078989583519
 20
34.07421949000482
 30
0.0
  0
VERTEX
  5
36E
330
358
100
AcDbEntity
  8
DIBUJOS
 62
     7
100
AcDbVertex
100
AcDb2dVertex
 10
59.91816458050659
 20
33.98041599535783
 30
0.0
  0
VERTEX
  5
36F
330
358
100
AcDbEntity
  8
DIBUJOS
 62
     7
100
AcDbVertex
100
AcDb2dVertex
 10
59.80492850844369
 20
33.92939408724449
 30
0.0
  0
VERTEX
  5
370
330
358
100
AcDbEntity
  8
DIBUJOS
 62
     7
100
AcDbVertex
100
AcDb2dVertex
 10
59.50708593606906
 20
33.75063172063836
 30
0.0
  0
VERTEX
  5
371
330
358
100
AcDbEntity
  8
DIBUJOS
 62
     7
100
AcDbVertex
100
AcDb2dVertex
 10
59.27134843121566
 20
33.56913289618427
 30
0.0
  0
VERTEX
  5
372
330
358
100
AcDbEntity
  8
DIBUJOS
 62
     7
100
AcDbVertex
100
AcDb2dVertex
 10
59.20599016369214
 20
33.51926583843654
 30
0.0
  0
VERTEX
  5
373
330
358
100
AcDbEntity
  8
DIBUJOS
 62
     7
100
AcDbVertex
100
AcDb2dVertex
 10
58.9462495379778
 20
33.25903684131478
 30
0.0
  0
VERTEX
  5
374
330
358
100
AcDbEntity
  8
DIBUJOS
 62
     7
100
AcDbVertex
100
AcDb2dVertex
 10
58.68191768947074
 20
32.912990571468
 30
0.0
  0
VERTEX
  5
375
330
358
100
AcDbEntity
  8
DIBUJOS
 62
     7
100
AcDbVertex
100
AcDb2dVertex
 10
58.6563050393735
 20
32.8717172944376
 30
0.0
  0
SEQEND
  5
376
330
358
100
AcDbEntity
  8
DIBUJOS
 62
     7
  0
POLYLINE
  5
377
330
354
100
AcDbEntity
  8
DIBUJOS
 62
     7
100
AcDb2dPolyline
 66
     1
 10
0.0
 20
0.0
 30
0.0
  0
VERTEX
  5
378
330
377
100
AcDbEntity
  8
DIBUJOS
 62
     7
100
AcDbVertex
100
AcDb2dVertex
 10
58.5294546260693
 20
32.65990242625369
 30
0.0
  0
VERTEX
  5
379
330
377
100
AcDbEntity
  8
DIBUJOS
 62
     7
100
AcDbVertex
100
AcDb2dVertex
 10
58.48052656305789
 20
32.68895122938468
 30
0.0
  0
VERTEX
  5
37A
330
377
100
AcDbEntity
  8
DIBUJOS
 62
     7
100
AcDbVertex
100
AcDb2dVertex
 10
58.28783502345899
 20
32.79909528660919
 30
0.0
  0
VERTEX
  5
37B
330
377
100
AcDbEntity
  8
DIBUJOS
 62
     7
100
AcDbVertex
100
AcDb2dVertex
 10
58.25763277635622
 20
32.82935432080108
 30
0.0
  0
VERTEX
  5
37C
330
377
100
AcDbEntity
  8
DIBUJOS
 62
     7
100
AcDbVertex
100
AcDb2dVertex
 10
58.25159297725028
 20
32.84751104439096
 30
0.0
  0
VERTEX
  5
37D
330
377
100
AcDbEntity
  8
DIBUJOS
 62
     7
100
AcDbVertex
100
AcDb2dVertex
 10
58.25642481653516
 20
32.8662704402451
 30
0.0
  0
VERTEX
  5
37E
330
377
100
AcDbEntity
  8
DIBUJOS
 62
     7
100
AcDbVertex
100
AcDb2dVertex
 10
58.26186144862368
 20
32.87837437969038
 30
0.0
  0
VERTEX
  5
37F
330
377
100
AcDbEntity
  8
DIBUJOS
 62
     7
100
AcDbVertex
100
AcDb2dVertex
 10
58.3361599194533
 20
33.01091015479439
 30
0.0
  0
VERTEX
  5
380
330
377
100
AcDbEntity
  8
DIBUJOS
 62
     7
100
AcDbVertex
100
AcDb2dVertex
 10
58.36032236745046
 20
33.02906524953971
 30
0.0
  0
VERTEX
  5
381
330
377
100
AcDbEntity
  8
DIBUJOS
 62
     7
100
AcDbVertex
100
AcDb2dVertex
 10
58.39052461455354
 20
33.02906524953971
 30
0.0
  0
VERTEX
  5
382
330
377
100
AcDbEntity
  8
DIBUJOS
 62
     7
100
AcDbVertex
100
AcDb2dVertex
 10
58.62517446783212
 20
32.89452762521358
 30
0.0
  0
VERTEX
  5
383
330
377
100
AcDbEntity
  8
DIBUJOS
 62
     7
100
AcDbVertex
100
AcDb2dVertex
 10
58.6563050393735
 20
32.8717172944376
 30
0.0
  0
SEQEND
  5
384
330
377
100
AcDbEntity
  8
DIBUJOS
 62
     7
  0
POLYLINE
  5
385
330
354
100
AcDbEntity
  8
DIBUJOS
 62
     7
100
AcDb2dPolyline
 66
     1
 10
0.0
 20
0.0
 30
0.0
  0
VERTEX
  5
386
330
385
100
AcDbEntity
  8
DIBUJOS
 62
     7
100
AcDbVertex
100
AcDb2dVertex
 10
58.5354960509621
 20
32.65990242625369
 30
0.0
  0
VERTEX
  5
387
330
385
100
AcDbEntity
  8
DIBUJOS
 62
     7
100
AcDbVertex
100
AcDb2dVertex
 10
58.5294546260693
 20
32.65990242625369
 30
0.0
  0
SEQEND
  5
388
330
385
100
AcDbEntity
  8
DIBUJOS
 62
     7
  0
POLYLINE
  5
389
330
354
100
AcDbEntity
  8
DIBUJOS
 62
     7
100
AcDb2dPolyline
 66
     1
 10
0.0
 20
0.0
 30
0.0
  0
VERTEX
  5
38A
330
389
100
AcDbEntity
  8
DIBUJOS
 62
     7
100
AcDbVertex
100
AcDb2dVertex
 10
58.5354960509621
 20
32.65990242625369
 30
0.0
  0
VERTEX
  5
38B
330
389
100
AcDbEntity
  8
DIBUJOS
 62
     7
100
AcDbVertex
100
AcDb2dVertex
 10
58.57638459672508
 20
32.7153010380792
 30
0.0
  0
VERTEX
  5
38C
330
389
100
AcDbEntity
  8
DIBUJOS
 62
     7
100
AcDbVertex
100
AcDb2dVertex
 10
58.63999676889449
 20
32.82875001969291
 30
0.0
  0
VERTEX
  5
38D
330
389
100
AcDbEntity
  8
DIBUJOS
 62
     7
100
AcDbVertex
100
AcDb2dVertex
 10
58.6563050393735
 20
32.8717172944376
 30
0.0
  0
SEQEND
  5
38E
330
389
100
AcDbEntity
  8
DIBUJOS
 62
     7
  0
POLYLINE
  5
38F
330
354
100
AcDbEntity
  8
DIBUJOS
 62
     7
100
AcDb2dPolyline
 66
     1
 10
0.0
 20
0.0
 30
0.0
  0
VERTEX
  5
390
330
38F
100
AcDbEntity
  8
DIBUJOS
 62
     7
100
AcDbVertex
100
AcDb2dVertex
 10
63.83904933595844
 20
32.65990242625369
 30
0.0
  0
VERTEX
  5
391
330
38F
100
AcDbEntity
  8
DIBUJOS
 62
     7
100
AcDbVertex
100
AcDb2dVertex
 10
63.80159770414181
 20
32.70771225408337
 30
0.0
  0
VERTEX
  5
392
330
38F
100
AcDbEntity
  8
DIBUJOS
 62
     7
100
AcDbVertex
100
AcDb2dVertex
 10
63.72850719313324
 20
32.84085233029427
 30
0.0
  0
VERTEX
  5
393
330
38F
100
AcDbEntity
  8
DIBUJOS
 62
     7
100
AcDbVertex
100
AcDb2dVertex
 10
63.71219892265423
 20
32.8717172944376
 30
0.0
  0
SEQEND
  5
394
330
38F
100
AcDbEntity
  8
DIBUJOS
 62
     7
  0
POLYLINE
  5
395
330
354
100
AcDbEntity
  8
DIBUJOS
 62
     7
100
AcDb2dPolyline
 66
     1
 10
0.0
 20
0.0
 30
0.0
  0
VERTEX
  5
396
330
395
100
AcDbEntity
  8
DIBUJOS
 62
     7
100
AcDbVertex
100
AcDb2dVertex
 10
63.84508913506405
 20
32.65990242625369
 30
0.0
  0
VERTEX
  5
397
330
395
100
AcDbEntity
  8
DIBUJOS
 62
     7
100
AcDbVertex
100
AcDb2dVertex
 10
63.83904933595844
 20
32.65990242625369
 30
0.0
  0
SEQEND
  5
398
330
395
100
AcDbEntity
  8
DIBUJOS
 62
     7
  0
POLYLINE
  5
399
330
354
100
AcDbEntity
  8
DIBUJOS
 62
     7
100
AcDb2dPolyline
 66
     1
 10
0.0
 20
0.0
 30
0.0
  0
VERTEX
  5
39A
330
399
100
AcDbEntity
  8
DIBUJOS
 62
     7
100
AcDbVertex
100
AcDb2dVertex
 10
63.84508913506405
 20
32.65990242625369
 30
0.0
  0
VERTEX
  5
39B
330
399
100
AcDbEntity
  8
DIBUJOS
 62
     7
100
AcDbVertex
100
AcDb2dVertex
 10
63.91246337860132
 20
32.70086948061891
 30
0.0
  0
VERTEX
  5
39C
330
399
100
AcDbEntity
  8
DIBUJOS
 62
     7
100
AcDbVertex
100
AcDb2dVertex
 10
64.08670873767436
 20
32.79909528660919
 30
0.0
  0
VERTEX
  5
39D
330
399
100
AcDbEntity
  8
DIBUJOS
 62
     7
100
AcDbVertex
100
AcDb2dVertex
 10
64.12295240966994
 20
32.84145826024636
 30
0.0
  0
VERTEX
  5
39E
330
399
100
AcDbEntity
  8
DIBUJOS
 62
     7
100
AcDbVertex
100
AcDb2dVertex
 10
64.1120791454929
 20
32.87837437969038
 30
0.0
  0
VERTEX
  5
39F
330
399
100
AcDbEntity
  8
DIBUJOS
 62
     7
100
AcDbVertex
100
AcDb2dVertex
 10
64.10603772059977
 20
32.8904783191363
 30
0.0
  0
VERTEX
  5
3A0
330
399
100
AcDbEntity
  8
DIBUJOS
 62
     7
100
AcDbVertex
100
AcDb2dVertex
 10
64.05046669146597
 20
32.99275506004778
 30
0.0
  0
VERTEX
  5
3A1
330
399
100
AcDbEntity
  8
DIBUJOS
 62
     7
100
AcDbVertex
100
AcDb2dVertex
 10
64.00818322036447
 20
33.02906524953971
 30
0.0
  0
VERTEX
  5
3A2
330
399
100
AcDbEntity
  8
DIBUJOS
 62
     7
100
AcDbVertex
100
AcDb2dVertex
 10
63.98402077236731
 20
33.02906524953971
 30
0.0
  0
VERTEX
  5
3A3
330
399
100
AcDbEntity
  8
DIBUJOS
 62
     7
100
AcDbVertex
100
AcDb2dVertex
 10
63.73728969508999
 20
32.8884764699129
 30
0.0
  0
VERTEX
  5
3A4
330
399
100
AcDbEntity
  8
DIBUJOS
 62
     7
100
AcDbVertex
100
AcDb2dVertex
 10
63.71219892265423
 20
32.8717172944376
 30
0.0
  0
SEQEND
  5
3A5
330
399
100
AcDbEntity
  8
DIBUJOS
 62
     7
  0
POLYLINE
  5
3A6
330
354
100
AcDbEntity
  8
DIBUJOS
 62
     7
100
AcDb2dPolyline
 66
     1
 10
0.0
 20
0.0
 30
0.0
  0
VERTEX
  5
3A7
330
3A6
100
AcDbEntity
  8
DIBUJOS
 62
     7
100
AcDbVertex
100
AcDb2dVertex
 10
58.5354960509621
 20
32.65385127095302
 30
0.0
  0
VERTEX
  5
3A8
330
3A6
100
AcDbEntity
  8
DIBUJOS
 62
     7
100
AcDbVertex
100
AcDb2dVertex
 10
58.5354960509621
 20
32.65990242625369
 30
0.0
  0
SEQEND
  5
3A9
330
3A6
100
AcDbEntity
  8
DIBUJOS
 62
     7
  0
POLYLINE
  5
3AA
330
354
100
AcDbEntity
  8
DIBUJOS
 62
     7
100
AcDb2dPolyline
 66
     1
 10
0.0
 20
0.0
 30
0.0
  0
VERTEX
  5
3AB
330
3AA
100
AcDbEntity
  8
DIBUJOS
 62
     7
100
AcDbVertex
100
AcDb2dVertex
 10
63.83904933595844
 20
32.65385127095302
 30
0.0
  0
VERTEX
  5
3AC
330
3AA
100
AcDbEntity
  8
DIBUJOS
 62
     7
100
AcDbVertex
100
AcDb2dVertex
 10
63.83904933595844
 20
32.65990242625369
 30
0.0
  0
SEQEND
  5
3AD
330
3AA
100
AcDbEntity
  8
DIBUJOS
 62
     7
  0
POLYLINE
  5
3AE
330
354
100
AcDbEntity
  8
DIBUJOS
 62
     7
100
AcDb2dPolyline
 66
     1
 10
0.0
 20
0.0
 30
0.0
  0
VERTEX
  5
3AF
330
3AE
100
AcDbEntity
  8
DIBUJOS
 62
     7
100
AcDbVertex
100
AcDb2dVertex
 10
61.05438166815654
 20
28.27231152045167
 30
0.0
  0
VERTEX
  5
3B0
330
3AE
100
AcDbEntity
  8
DIBUJOS
 62
     7
100
AcDbVertex
100
AcDb2dVertex
 10
60.86128530756802
 20
28.28721055612741
 30
0.0
  0
VERTEX
  5
3B1
330
3AE
100
AcDbEntity
  8
DIBUJOS
 62
     7
100
AcDbVertex
100
AcDb2dVertex
 10
60.57155053550056
 20
28.33528262783378
 30
0.0
  0
VERTEX
  5
3B2
330
3AE
100
AcDbEntity
  8
DIBUJOS
 62
     7
100
AcDbVertex
100
AcDb2dVertex
 10
60.50516151895096
 20
28.34726114629444
 30
0.0
  0
VERTEX
  5
3B3
330
3AE
100
AcDbEntity
  8
DIBUJOS
 62
     7
100
AcDbVertex
100
AcDb2dVertex
 10
60.13078989583519
 20
28.46173467075737
 30
0.0
  0
VERTEX
  5
3B4
330
3AE
100
AcDbEntity
  8
DIBUJOS
 62
     7
100
AcDbVertex
100
AcDb2dVertex
 10
59.97252927560651
 20
28.53133028651316
 30
0.0
  0
VERTEX
  5
3B5
330
3AE
100
AcDbEntity
  8
DIBUJOS
 62
     7
100
AcDbVertex
100
AcDb2dVertex
 10
59.76264503734218
 20
28.6307663235637
 30
0.0
  0
VERTEX
  5
3B6
330
3AE
100
AcDbEntity
  8
DIBUJOS
 62
     7
100
AcDbVertex
100
AcDb2dVertex
 10
59.48292348807222
 20
28.80347753486979
 30
0.0
  0
VERTEX
  5
3B7
330
3AE
100
AcDbEntity
  8
DIBUJOS
 62
     7
100
AcDbVertex
100
AcDb2dVertex
 10
59.28575453077841
 20
28.95765901731935
 30
0.0
  0
VERTEX
  5
3B8
330
3AE
100
AcDbEntity
  8
DIBUJOS
 62
     7
100
AcDbVertex
100
AcDb2dVertex
 10
59.22293411693042
 20
29.00916143439953
 30
0.0
  0
VERTEX
  5
3B9
330
3AE
100
AcDbEntity
  8
DIBUJOS
 62
     7
100
AcDbVertex
100
AcDb2dVertex
 10
59.18786914058779
 20
29.03484504591554
 30
0.0
  0
VERTEX
  5
3BA
330
3AE
100
AcDbEntity
  8
DIBUJOS
 62
     7
100
AcDbVertex
100
AcDb2dVertex
 10
58.90547479731262
 20
29.32678111950665
 30
0.0
  0
VERTEX
  5
3BB
330
3AE
100
AcDbEntity
  8
DIBUJOS
 62
     7
100
AcDbVertex
100
AcDb2dVertex
 10
58.74836198278221
 20
29.53823764202114
 30
0.0
  0
VERTEX
  5
3BC
330
3AE
100
AcDbEntity
  8
DIBUJOS
 62
     7
100
AcDbVertex
100
AcDb2dVertex
 10
58.67321972844366
 20
29.63942468632521
 30
0.0
  0
VERTEX
  5
3BD
330
3AE
100
AcDbEntity
  8
DIBUJOS
 62
     7
100
AcDbVertex
100
AcDb2dVertex
 10
58.47629951657762
 20
29.99769380122684
 30
0.0
  0
VERTEX
  5
3BE
330
3AE
100
AcDbEntity
  8
DIBUJOS
 62
     7
100
AcDbVertex
100
AcDb2dVertex
 10
58.35548890237903
 20
30.30028577198513
 30
0.0
  0
VERTEX
  5
3BF
330
3AE
100
AcDbEntity
  8
DIBUJOS
 62
     7
100
AcDbVertex
100
AcDb2dVertex
 10
58.31412887835456
 20
30.43940696320738
 30
0.0
  0
VERTEX
  5
3C0
330
3AE
100
AcDbEntity
  8
DIBUJOS
 62
     7
100
AcDbVertex
100
AcDb2dVertex
 10
58.26758259345654
 20
30.62594705970887
 30
0.0
  0
VERTEX
  5
3C1
330
3AE
100
AcDbEntity
  8
DIBUJOS
 62
     7
100
AcDbVertex
100
AcDb2dVertex
 10
58.24211301262459
 20
30.73574091548295
 30
0.0
  0
VERTEX
  5
3C2
330
3AE
100
AcDbEntity
  8
DIBUJOS
 62
     7
100
AcDbVertex
100
AcDb2dVertex
 10
58.23690886809228
 20
30.77745072269298
 30
0.0
  0
VERTEX
  5
3C3
330
3AE
100
AcDbEntity
  8
DIBUJOS
 62
     7
100
AcDbVertex
100
AcDb2dVertex
 10
58.19722828215036
 20
31.07431730694283
 30
0.0
  0
VERTEX
  5
3C4
330
3AE
100
AcDbEntity
  8
DIBUJOS
 62
     7
100
AcDbVertex
100
AcDb2dVertex
 10
58.19722828215036
 20
31.47374079326465
 30
0.0
  0
VERTEX
  5
3C5
330
3AE
100
AcDbEntity
  8
DIBUJOS
 62
     7
100
AcDbVertex
100
AcDb2dVertex
 10
58.24808940603302
 20
31.83648760020423
 30
0.0
  0
VERTEX
  5
3C6
330
3AE
100
AcDbEntity
  8
DIBUJOS
 62
     7
100
AcDbVertex
100
AcDb2dVertex
 10
58.34433275124452
 20
32.20547939487514
 30
0.0
  0
VERTEX
  5
3C7
330
3AE
100
AcDbEntity
  8
DIBUJOS
 62
     7
100
AcDbVertex
100
AcDb2dVertex
 10
58.4346192124932
 20
32.43537931751569
 30
0.0
  0
VERTEX
  5
3C8
330
3AE
100
AcDbEntity
  8
DIBUJOS
 62
     7
100
AcDbVertex
100
AcDb2dVertex
 10
58.45515778102654
 20
32.48500367751316
 30
0.0
  0
VERTEX
  5
3C9
330
3AE
100
AcDbEntity
  8
DIBUJOS
 62
     7
100
AcDbVertex
100
AcDb2dVertex
 10
58.50668710341035
 20
32.60450544327147
 30
0.0
  0
VERTEX
  5
3CA
330
3AE
100
AcDbEntity
  8
DIBUJOS
 62
     7
100
AcDbVertex
100
AcDb2dVertex
 10
58.5354960509621
 20
32.65385127095302
 30
0.0
  0
SEQEND
  5
3CB
330
3AE
100
AcDbEntity
  8
DIBUJOS
 62
     7
  0
POLYLINE
  5
3CC
330
354
100
AcDbEntity
  8
DIBUJOS
 62
     7
100
AcDb2dPolyline
 66
     1
 10
0.0
 20
0.0
 30
0.0
  0
VERTEX
  5
3CD
330
3CC
100
AcDbEntity
  8
DIBUJOS
 62
     7
100
AcDbVertex
100
AcDb2dVertex
 10
61.06042146726247
 20
28.27231152045167
 30
0.0
  0
VERTEX
  5
3CE
330
3CC
100
AcDbEntity
  8
DIBUJOS
 62
     7
100
AcDbVertex
100
AcDb2dVertex
 10
61.05438166815654
 20
28.27231152045167
 30
0.0
  0
SEQEND
  5
3CF
330
3CC
100
AcDbEntity
  8
DIBUJOS
 62
     7
  0
POLYLINE
  5
3D0
330
354
100
AcDbEntity
  8
DIBUJOS
 62
     7
100
AcDb2dPolyline
 66
     1
 10
0.0
 20
0.0
 30
0.0
  0
VERTEX
  5
3D1
330
3D0
100
AcDbEntity
  8
DIBUJOS
 62
     7
100
AcDbVertex
100
AcDb2dVertex
 10
61.06646289215527
 20
28.27231152045167
 30
0.0
  0
VERTEX
  5
3D2
330
3D0
100
AcDbEntity
  8
DIBUJOS
 62
     7
100
AcDbVertex
100
AcDb2dVertex
 10
61.06042146726247
 20
28.27231152045167
 30
0.0
  0
SEQEND
  5
3D3
330
3D0
100
AcDbEntity
  8
DIBUJOS
 62
     7
  0
POLYLINE
  5
3D4
330
354
100
AcDbEntity
  8
DIBUJOS
 62
     7
100
AcDb2dPolyline
 66
     1
 10
0.0
 20
0.0
 30
0.0
  0
VERTEX
  5
3D5
330
3D4
100
AcDbEntity
  8
DIBUJOS
 62
     7
100
AcDbVertex
100
AcDb2dVertex
 10
61.06042146726247
 20
28.26625873630706
 30
0.0
  0
VERTEX
  5
3D6
330
3D4
100
AcDbEntity
  8
DIBUJOS
 62
     7
100
AcDbVertex
100
AcDb2dVertex
 10
61.06042146726247
 20
28.27231152045167
 30
0.0
  0
SEQEND
  5
3D7
330
3D4
100
AcDbEntity
  8
DIBUJOS
 62
     7
  0
POLYLINE
  5
3D8
330
354
100
AcDbEntity
  8
DIBUJOS
 62
     7
100
AcDb2dPolyline
 66
     1
 10
0.0
 20
0.0
 30
0.0
  0
VERTEX
  5
3D9
330
3D8
100
AcDbEntity
  8
DIBUJOS
 62
     7
100
AcDbVertex
100
AcDb2dVertex
 10
61.30808249476559
 20
28.26625873630706
 30
0.0
  0
VERTEX
  5
3DA
330
3D8
100
AcDbEntity
  8
DIBUJOS
 62
     7
100
AcDbVertex
100
AcDb2dVertex
 10
61.26029085694243
 20
28.2804997190239
 30
0.0
  0
VERTEX
  5
3DB
330
3D8
100
AcDbEntity
  8
DIBUJOS
 62
     7
100
AcDbVertex
100
AcDb2dVertex
 10
61.25371779966534
 20
28.28441545989695
 30
0.0
  0
VERTEX
  5
3DC
330
3D8
100
AcDbEntity
  8
DIBUJOS
 62
     7
100
AcDbVertex
100
AcDb2dVertex
 10
61.11478616236239
 20
28.28441545989695
 30
0.0
  0
VERTEX
  5
3DD
330
3D8
100
AcDbEntity
  8
DIBUJOS
 62
     7
100
AcDbVertex
100
AcDb2dVertex
 10
61.07286524178615
 20
28.27582167917897
 30
0.0
  0
VERTEX
  5
3DE
330
3D8
100
AcDbEntity
  8
DIBUJOS
 62
     7
100
AcDbVertex
100
AcDb2dVertex
 10
61.06646289215527
 20
28.27231152045167
 30
0.0
  0
SEQEND
  5
3DF
330
3D8
100
AcDbEntity
  8
DIBUJOS
 62
     7
  0
POLYLINE
  5
3E0
330
354
100
AcDbEntity
  8
DIBUJOS
 62
     7
100
AcDb2dPolyline
 66
     1
 10
0.0
 20
0.0
 30
0.0
  0
VERTEX
  5
3E1
330
3E0
100
AcDbEntity
  8
DIBUJOS
 62
     7
100
AcDbVertex
100
AcDb2dVertex
 10
61.31412229387119
 20
28.26625873630706
 30
0.0
  0
VERTEX
  5
3E2
330
3E0
100
AcDbEntity
  8
DIBUJOS
 62
     7
100
AcDbVertex
100
AcDb2dVertex
 10
61.30808249476559
 20
28.26625873630706
 30
0.0
  0
SEQEND
  5
3E3
330
3E0
100
AcDbEntity
  8
DIBUJOS
 62
     7
  0
POLYLINE
  5
3E4
330
354
100
AcDbEntity
  8
DIBUJOS
 62
     7
100
AcDb2dPolyline
 66
     1
 10
0.0
 20
0.0
 30
0.0
  0
VERTEX
  5
3E5
330
3E4
100
AcDbEntity
  8
DIBUJOS
 62
     7
100
AcDbVertex
100
AcDb2dVertex
 10
61.31412229387119
 20
28.26625873630706
 30
0.0
  0
VERTEX
  5
3E6
330
3E4
100
AcDbEntity
  8
DIBUJOS
 62
     7
100
AcDbVertex
100
AcDb2dVertex
 10
61.32076688578077
 20
28.2711012893914
 30
0.0
  0
VERTEX
  5
3E7
330
3E4
100
AcDbEntity
  8
DIBUJOS
 62
     7
100
AcDbVertex
100
AcDb2dVertex
 10
61.60436105994169
 20
28.29991391014909
 30
0.0
  0
VERTEX
  5
3E8
330
3E4
100
AcDbEntity
  8
DIBUJOS
 62
     7
100
AcDbVertex
100
AcDb2dVertex
 10
61.65209579521578
 20
28.30522719913737
 30
0.0
  0
VERTEX
  5
3E9
330
3E4
100
AcDbEntity
  8
DIBUJOS
 62
     7
100
AcDbVertex
100
AcDb2dVertex
 10
61.8391117120212
 20
28.34706894270771
 30
0.0
  0
VERTEX
  5
3EA
330
3E4
100
AcDbEntity
  8
DIBUJOS
 62
     7
100
AcDbVertex
100
AcDb2dVertex
 10
61.98514966477271
 20
28.37910830334437
 30
0.0
  0
VERTEX
  5
3EB
330
3E4
100
AcDbEntity
  8
DIBUJOS
 62
     7
100
AcDbVertex
100
AcDb2dVertex
 10
62.11811141181533
 20
28.42179215924073
 30
0.0
  0
VERTEX
  5
3EC
330
3E4
100
AcDbEntity
  8
DIBUJOS
 62
     7
100
AcDbVertex
100
AcDb2dVertex
 10
62.40805591041963
 20
28.53133028651316
 30
0.0
  0
VERTEX
  5
3ED
330
3E4
100
AcDbEntity
  8
DIBUJOS
 62
     7
100
AcDbVertex
100
AcDb2dVertex
 10
62.73859143574602
 20
28.70344534093069
 30
0.0
  0
VERTEX
  5
3EE
330
3E4
100
AcDbEntity
  8
DIBUJOS
 62
     7
100
AcDbVertex
100
AcDb2dVertex
 10
62.83741327931087
 20
28.77316311998389
 30
0.0
  0
VERTEX
  5
3EF
330
3E4
100
AcDbEntity
  8
DIBUJOS
 62
     7
100
AcDbVertex
100
AcDb2dVertex
 10
63.03438389057753
 20
28.90924977491327
 30
0.0
  0
VERTEX
  5
3F0
330
3E4
100
AcDbEntity
  8
DIBUJOS
 62
     7
100
AcDbVertex
100
AcDb2dVertex
 10
63.31352503385008
 20
29.15588118268115
 30
0.0
  0
VERTEX
  5
3F1
330
3E4
100
AcDbEntity
  8
DIBUJOS
 62
     7
100
AcDbVertex
100
AcDb2dVertex
 10
63.44791259618655
 20
29.3119179183985
 30
0.0
  0
VERTEX
  5
3F2
330
3E4
100
AcDbEntity
  8
DIBUJOS
 62
     7
100
AcDbVertex
100
AcDb2dVertex
 10
63.58386253993338
 20
29.47181827198079
 30
0.0
  0
VERTEX
  5
3F3
330
3E4
100
AcDbEntity
  8
DIBUJOS
 62
     7
100
AcDbVertex
100
AcDb2dVertex
 10
63.73496644531286
 20
29.70147875455957
 30
0.0
  0
VERTEX
  5
3F4
330
3E4
100
AcDbEntity
  8
DIBUJOS
 62
     7
100
AcDbVertex
100
AcDb2dVertex
 10
63.77120849152124
 20
29.75594566764202
 30
0.0
  0
VERTEX
  5
3F5
330
3E4
100
AcDbEntity
  8
DIBUJOS
 62
     7
100
AcDbVertex
100
AcDb2dVertex
 10
63.83783975035018
 20
29.88270881976127
 30
0.0
  0
VERTEX
  5
3F6
330
3E4
100
AcDbEntity
  8
DIBUJOS
 62
     7
100
AcDbVertex
100
AcDb2dVertex
 10
63.94052934144442
 20
30.09452368794518
 30
0.0
  0
VERTEX
  5
3F7
330
3E4
100
AcDbEntity
  8
DIBUJOS
 62
     7
100
AcDbVertex
100
AcDb2dVertex
 10
64.07039884140816
 20
30.46247628017221
 30
0.0
  0
VERTEX
  5
3F8
330
3E4
100
AcDbEntity
  8
DIBUJOS
 62
     7
100
AcDbVertex
100
AcDb2dVertex
 10
64.08903198745149
 20
30.54128952388122
 30
0.0
  0
VERTEX
  5
3F9
330
3E4
100
AcDbEntity
  8
DIBUJOS
 62
     7
100
AcDbVertex
100
AcDb2dVertex
 10
64.15638834733032
 20
30.88689763470445
 30
0.0
  0
VERTEX
  5
3FA
330
3E4
100
AcDbEntity
  8
DIBUJOS
 62
     7
100
AcDbVertex
100
AcDb2dVertex
 10
64.17452562830593
 20
31.15319244672219
 30
0.0
  0
VERTEX
  5
3FB
330
3E4
100
AcDbEntity
  8
DIBUJOS
 62
     7
100
AcDbVertex
100
AcDb2dVertex
 10
64.18335690387579
 20
31.27402986452602
 30
0.0
  0
VERTEX
  5
3FC
330
3E4
100
AcDbEntity
  8
DIBUJOS
 62
     7
100
AcDbVertex
100
AcDb2dVertex
 10
64.1564712624728
 20
31.64899625883132
 30
0.0
  0
VERTEX
  5
3FD
330
3E4
100
AcDbEntity
  8
DIBUJOS
 62
     7
100
AcDbVertex
100
AcDb2dVertex
 10
64.09042528700283
 20
31.99978572228187
 30
0.0
  0
VERTEX
  5
3FE
330
3E4
100
AcDbEntity
  8
DIBUJOS
 62
     7
100
AcDbVertex
100
AcDb2dVertex
 10
64.06677496194499
 20
32.07832043367432
 30
0.0
  0
VERTEX
  5
3FF
330
3E4
100
AcDbEntity
  8
DIBUJOS
 62
     7
100
AcDbVertex
100
AcDb2dVertex
 10
63.96106628419121
 20
32.39422657493879
 30
0.0
  0
VERTEX
  5
400
330
3E4
100
AcDbEntity
  8
DIBUJOS
 62
     7
100
AcDbVertex
100
AcDb2dVertex
 10
63.83904933595844
 20
32.65385127095302
 30
0.0
  0
SEQEND
  5
401
330
3E4
100
AcDbEntity
  8
DIBUJOS
 62
     7
  0
POLYLINE
  5
402
330
354
100
AcDbEntity
  8
DIBUJOS
 62
     7
100
AcDb2dPolyline
 66
     1
 10
0.0
 20
0.0
 30
0.0
  0
VERTEX
  5
403
330
402
100
AcDbEntity
  8
DIBUJOS
 62
     7
100
AcDbVertex
100
AcDb2dVertex
 10
61.31412229387119
 20
28.26020758100574
 30
0.0
  0
VERTEX
  5
404
330
402
100
AcDbEntity
  8
DIBUJOS
 62
     7
100
AcDbVertex
100
AcDb2dVertex
 10
61.31412229387119
 20
28.26625873630706
 30
0.0
  0
SEQEND
  5
405
330
402
100
AcDbEntity
  8
DIBUJOS
 62
     7
  0
POLYLINE
  5
406
330
354
100
AcDbEntity
  8
DIBUJOS
 62
     7
100
AcDb2dPolyline
 66
     1
 10
0.0
 20
0.0
 30
0.0
  0
VERTEX
  5
407
330
406
100
AcDbEntity
  8
DIBUJOS
 62
     7
100
AcDbVertex
100
AcDb2dVertex
 10
61.06042146726247
 20
28.26625873630706
 30
0.0
  0
VERTEX
  5
408
330
406
100
AcDbEntity
  8
DIBUJOS
 62
     7
100
AcDbVertex
100
AcDb2dVertex
 10
61.06432985946967
 20
27.97523644417521
 30
0.0
  0
VERTEX
  5
409
330
406
100
AcDbEntity
  8
DIBUJOS
 62
     7
100
AcDbVertex
100
AcDb2dVertex
 10
61.07250269126121
 20
27.94551167080154
 30
0.0
  0
VERTEX
  5
40A
330
406
100
AcDbEntity
  8
DIBUJOS
 62
     7
100
AcDbVertex
100
AcDb2dVertex
 10
61.08365396503383
 20
27.93806296738627
 30
0.0
  0
VERTEX
  5
40B
330
406
100
AcDbEntity
  8
DIBUJOS
 62
     7
100
AcDbVertex
100
AcDb2dVertex
 10
61.09666513925804
 20
27.92735494721165
 30
0.0
  0
VERTEX
  5
40C
330
406
100
AcDbEntity
  8
DIBUJOS
 62
     7
100
AcDbVertex
100
AcDb2dVertex
 10
61.27183882276969
 20
27.92735494721165
 30
0.0
  0
VERTEX
  5
40D
330
406
100
AcDbEntity
  8
DIBUJOS
 62
     7
100
AcDbVertex
100
AcDb2dVertex
 10
61.2839200467681
 20
27.93340773135625
 30
0.0
  0
VERTEX
  5
40E
330
406
100
AcDbEntity
  8
DIBUJOS
 62
     7
100
AcDbVertex
100
AcDb2dVertex
 10
61.30808249476559
 20
27.95761561024746
 30
0.0
  0
VERTEX
  5
40F
330
406
100
AcDbEntity
  8
DIBUJOS
 62
     7
100
AcDbVertex
100
AcDb2dVertex
 10
61.31412229387119
 20
28.26020758100574
 30
0.0
  0
SEQEND
  5
410
330
406
100
AcDbEntity
  8
DIBUJOS
 62
     7
  0
ENDBLK
  5
357
330
354
100
AcDbEntity
  8
0
100
AcDbBlockEnd
  0
BLOCK
  5
413
330
411
100
AcDbEntity
  8
0
100
AcDbBlockBegin
  2
BLOCK_6
 70
     0
 10
0.0
 20
0.0
 30
0.0
  3
BLOCK_6
  1

  0
POLYLINE
  5
415
330
411
100
AcDbEntity
  8
DIBUJOS
 62
     7
100
AcDb2dPolyline
 66
     1
 10
0.0
 20
0.0
 30
0.0
  0
VERTEX
  5
416
330
415
100
AcDbEntity
  8
DIBUJOS
 62
     7
100
AcDbVertex
100
AcDb2dVertex
 10
75.65924600585117
 20
46.67296426663588
 30
0.0
  0
VERTEX
  5
417
330
415
100
AcDbEntity
  8
DIBUJOS
 62
     7
100
AcDbVertex
100
AcDb2dVertex
 10
75.6531969318115
 20
46.67296426663588
 30
0.0
  0
SEQEND
  5
418
330
415
100
AcDbEntity
  8
DIBUJOS
 62
     7
  0
POLYLINE
  5
419
330
411
100
AcDbEntity
  8
DIBUJOS
 62
     7
100
AcDb2dPolyline
 66
     1
 10
0.0
 20
0.0
 30
0.0
  0
VERTEX
  5
41A
330
419
100
AcDbEntity
  8
DIBUJOS
 62
     7
100
AcDbVertex
100
AcDb2dVertex
 10
75.65924600585117
 20
46.67296426663588
 30
0.0
  0
VERTEX
  5
41B
330
419
100
AcDbEntity
  8
DIBUJOS
 62
     7
100
AcDbVertex
100
AcDb2dVertex
 10
75.65924600585117
 20
46.67901379309296
 30
0.0
  0
SEQEND
  5
41C
330
419
100
AcDbEntity
  8
DIBUJOS
 62
     7
  0
POLYLINE
  5
41D
330
411
100
AcDbEntity
  8
DIBUJOS
 62
     7
100
AcDb2dPolyline
 66
     1
 10
0.0
 20
0.0
 30
0.0
  0
VERTEX
  5
41E
330
41D
100
AcDbEntity
  8
DIBUJOS
 62
     7
100
AcDbVertex
100
AcDb2dVertex
 10
75.66529345204542
 20
46.67296426663588
 30
0.0
  0
VERTEX
  5
41F
330
41D
100
AcDbEntity
  8
DIBUJOS
 62
     7
100
AcDbVertex
100
AcDb2dVertex
 10
75.65924600585117
 20
46.67296426663588
 30
0.0
  0
SEQEND
  5
420
330
41D
100
AcDbEntity
  8
DIBUJOS
 62
     7
  0
POLYLINE
  5
421
330
411
100
AcDbEntity
  8
DIBUJOS
 62
     7
100
AcDb2dPolyline
 66
     1
 10
0.0
 20
0.0
 30
0.0
  0
VERTEX
  5
422
330
421
100
AcDbEntity
  8
DIBUJOS
 62
     7
100
AcDbVertex
100
AcDb2dVertex
 10
79.62682650581081
 20
46.67296426663588
 30
0.0
  0
VERTEX
  5
423
330
421
100
AcDbEntity
  8
DIBUJOS
 62
     7
100
AcDbVertex
100
AcDb2dVertex
 10
79.62198692101062
 20
46.74013779143588
 30
0.0
  0
VERTEX
  5
424
330
421
100
AcDbEntity
  8
DIBUJOS
 62
     7
100
AcDbVertex
100
AcDb2dVertex
 10
79.6026334653436
 20
46.76979252452281
 30
0.0
  0
VERTEX
  5
425
330
421
100
AcDbEntity
  8
DIBUJOS
 62
     7
100
AcDbVertex
100
AcDb2dVertex
 10
79.59053694511096
 20
46.77584530866837
 30
0.0
  0
VERTEX
  5
426
330
421
100
AcDbEntity
  8
DIBUJOS
 62
     7
100
AcDbVertex
100
AcDb2dVertex
 10
79.41514147134095
 20
46.77584530866837
 30
0.0
  0
VERTEX
  5
427
330
421
100
AcDbEntity
  8
DIBUJOS
 62
     7
100
AcDbVertex
100
AcDb2dVertex
 10
79.38489935683405
 20
46.75163742977428
 30
0.0
  0
VERTEX
  5
428
330
421
100
AcDbEntity
  8
DIBUJOS
 62
     7
100
AcDbVertex
100
AcDb2dVertex
 10
79.38154599501532
 20
46.73926473107436
 30
0.0
  0
VERTEX
  5
429
330
421
100
AcDbEntity
  8
DIBUJOS
 62
     7
100
AcDbVertex
100
AcDb2dVertex
 10
79.37280446444686
 20
46.67296426663588
 30
0.0
  0
SEQEND
  5
42A
330
421
100
AcDbEntity
  8
DIBUJOS
 62
     7
  0
POLYLINE
  5
42B
330
411
100
AcDbEntity
  8
DIBUJOS
 62
     7
100
AcDb2dPolyline
 66
     1
 10
0.0
 20
0.0
 30
0.0
  0
VERTEX
  5
42C
330
42B
100
AcDbEntity
  8
DIBUJOS
 62
     7
100
AcDbVertex
100
AcDb2dVertex
 10
83.35248148463977
 20
46.67296426663588
 30
0.0
  0
VERTEX
  5
42D
330
42B
100
AcDbEntity
  8
DIBUJOS
 62
     7
100
AcDbVertex
100
AcDb2dVertex
 10
83.34643241060009
 20
46.67296426663588
 30
0.0
  0
SEQEND
  5
42E
330
42B
100
AcDbEntity
  8
DIBUJOS
 62
     7
  0
POLYLINE
  5
42F
330
411
100
AcDbEntity
  8
DIBUJOS
 62
     7
100
AcDb2dPolyline
 66
     1
 10
0.0
 20
0.0
 30
0.0
  0
VERTEX
  5
430
330
42F
100
AcDbEntity
  8
DIBUJOS
 62
     7
100
AcDbVertex
100
AcDb2dVertex
 10
83.35248148463977
 20
46.67296426663588
 30
0.0
  0
VERTEX
  5
431
330
42F
100
AcDbEntity
  8
DIBUJOS
 62
     7
100
AcDbVertex
100
AcDb2dVertex
 10
83.35248148463977
 20
46.67901379309296
 30
0.0
  0
SEQEND
  5
432
330
42F
100
AcDbEntity
  8
DIBUJOS
 62
     7
  0
POLYLINE
  5
433
330
411
100
AcDbEntity
  8
DIBUJOS
 62
     7
100
AcDb2dPolyline
 66
     1
 10
0.0
 20
0.0
 30
0.0
  0
VERTEX
  5
434
330
433
100
AcDbEntity
  8
DIBUJOS
 62
     7
100
AcDbVertex
100
AcDb2dVertex
 10
83.35852893083401
 20
46.67296426663588
 30
0.0
  0
VERTEX
  5
435
330
433
100
AcDbEntity
  8
DIBUJOS
 62
     7
100
AcDbVertex
100
AcDb2dVertex
 10
83.35248148463977
 20
46.67296426663588
 30
0.0
  0
SEQEND
  5
436
330
433
100
AcDbEntity
  8
DIBUJOS
 62
     7
  0
POLYLINE
  5
437
330
411
100
AcDbEntity
  8
DIBUJOS
 62
     7
100
AcDb2dPolyline
 66
     1
 10
0.0
 20
0.0
 30
0.0
  0
VERTEX
  5
438
330
437
100
AcDbEntity
  8
DIBUJOS
 62
     7
100
AcDbVertex
100
AcDb2dVertex
 10
75.28426038999852
 20
46.66691148249032
 30
0.0
  0
VERTEX
  5
439
330
437
100
AcDbEntity
  8
DIBUJOS
 62
     7
100
AcDbVertex
100
AcDb2dVertex
 10
75.64714948561789
 20
46.66691148249032
 30
0.0
  0
VERTEX
  5
43A
330
437
100
AcDbEntity
  8
DIBUJOS
 62
     7
100
AcDbVertex
100
AcDb2dVertex
 10
75.6531969318115
 20
46.67296426663588
 30
0.0
  0
SEQEND
  5
43B
330
437
100
AcDbEntity
  8
DIBUJOS
 62
     7
  0
POLYLINE
  5
43C
330
411
100
AcDbEntity
  8
DIBUJOS
 62
     7
100
AcDb2dPolyline
 66
     1
 10
0.0
 20
0.0
 30
0.0
  0
VERTEX
  5
43D
330
43C
100
AcDbEntity
  8
DIBUJOS
 62
     7
100
AcDbVertex
100
AcDb2dVertex
 10
79.36675539040716
 20
46.66691148249032
 30
0.0
  0
VERTEX
  5
43E
330
43C
100
AcDbEntity
  8
DIBUJOS
 62
     7
100
AcDbVertex
100
AcDb2dVertex
 10
75.67134252608446
 20
46.66691148249032
 30
0.0
  0
VERTEX
  5
43F
330
43C
100
AcDbEntity
  8
DIBUJOS
 62
     7
100
AcDbVertex
100
AcDb2dVertex
 10
75.66529345204542
 20
46.67296426663588
 30
0.0
  0
SEQEND
  5
440
330
43C
100
AcDbEntity
  8
DIBUJOS
 62
     7
  0
POLYLINE
  5
441
330
411
100
AcDbEntity
  8
DIBUJOS
 62
     7
100
AcDb2dPolyline
 66
     1
 10
0.0
 20
0.0
 30
0.0
  0
VERTEX
  5
442
330
441
100
AcDbEntity
  8
DIBUJOS
 62
     7
100
AcDbVertex
100
AcDb2dVertex
 10
79.37280446444686
 20
46.66691148249032
 30
0.0
  0
VERTEX
  5
443
330
441
100
AcDbEntity
  8
DIBUJOS
 62
     7
100
AcDbVertex
100
AcDb2dVertex
 10
79.36675539040716
 20
46.66691148249032
 30
0.0
  0
SEQEND
  5
444
330
441
100
AcDbEntity
  8
DIBUJOS
 62
     7
  0
POLYLINE
  5
445
330
411
100
AcDbEntity
  8
DIBUJOS
 62
     7
100
AcDb2dPolyline
 66
     1
 10
0.0
 20
0.0
 30
0.0
  0
VERTEX
  5
446
330
445
100
AcDbEntity
  8
DIBUJOS
 62
     7
100
AcDbVertex
100
AcDb2dVertex
 10
79.37280446444686
 20
46.66691148249032
 30
0.0
  0
VERTEX
  5
447
330
445
100
AcDbEntity
  8
DIBUJOS
 62
     7
100
AcDbVertex
100
AcDb2dVertex
 10
79.37280446444686
 20
46.67296426663588
 30
0.0
  0
SEQEND
  5
448
330
445
100
AcDbEntity
  8
DIBUJOS
 62
     7
  0
POLYLINE
  5
449
330
411
100
AcDbEntity
  8
DIBUJOS
 62
     7
100
AcDb2dPolyline
 66
     1
 10
0.0
 20
0.0
 30
0.0
  0
VERTEX
  5
44A
330
449
100
AcDbEntity
  8
DIBUJOS
 62
     7
100
AcDbVertex
100
AcDb2dVertex
 10
79.62682650581081
 20
46.66691148249032
 30
0.0
  0
VERTEX
  5
44B
330
449
100
AcDbEntity
  8
DIBUJOS
 62
     7
100
AcDbVertex
100
AcDb2dVertex
 10
79.62682650581081
 20
46.67296426663588
 30
0.0
  0
SEQEND
  5
44C
330
449
100
AcDbEntity
  8
DIBUJOS
 62
     7
  0
POLYLINE
  5
44D
330
411
100
AcDbEntity
  8
DIBUJOS
 62
     7
100
AcDb2dPolyline
 66
     1
 10
0.0
 20
0.0
 30
0.0
  0
VERTEX
  5
44E
330
44D
100
AcDbEntity
  8
DIBUJOS
 62
     7
100
AcDbVertex
100
AcDb2dVertex
 10
79.63287395200506
 20
46.66691148249032
 30
0.0
  0
VERTEX
  5
44F
330
44D
100
AcDbEntity
  8
DIBUJOS
 62
     7
100
AcDbVertex
100
AcDb2dVertex
 10
79.62682650581081
 20
46.66691148249032
 30
0.0
  0
SEQEND
  5
450
330
44D
100
AcDbEntity
  8
DIBUJOS
 62
     7
  0
POLYLINE
  5
451
330
411
100
AcDbEntity
  8
DIBUJOS
 62
     7
100
AcDb2dPolyline
 66
     1
 10
0.0
 20
0.0
 30
0.0
  0
VERTEX
  5
452
330
451
100
AcDbEntity
  8
DIBUJOS
 62
     7
100
AcDbVertex
100
AcDb2dVertex
 10
79.63287395200506
 20
46.66691148249032
 30
0.0
  0
VERTEX
  5
453
330
451
100
AcDbEntity
  8
DIBUJOS
 62
     7
100
AcDbVertex
100
AcDb2dVertex
 10
83.34038496440648
 20
46.66691148249032
 30
0.0
  0
VERTEX
  5
454
330
451
100
AcDbEntity
  8
DIBUJOS
 62
     7
100
AcDbVertex
100
AcDb2dVertex
 10
83.34643241060009
 20
46.67296426663588
 30
0.0
  0
SEQEND
  5
455
330
451
100
AcDbEntity
  8
DIBUJOS
 62
     7
  0
POLYLINE
  5
456
330
411
100
AcDbEntity
  8
DIBUJOS
 62
     7
100
AcDb2dPolyline
 66
     1
 10
0.0
 20
0.0
 30
0.0
  0
VERTEX
  5
457
330
456
100
AcDbEntity
  8
DIBUJOS
 62
     7
100
AcDbVertex
100
AcDb2dVertex
 10
83.71536895241306
 20
46.66691148249032
 30
0.0
  0
VERTEX
  5
458
330
456
100
AcDbEntity
  8
DIBUJOS
 62
     7
100
AcDbVertex
100
AcDb2dVertex
 10
83.36457637702762
 20
46.66691148249032
 30
0.0
  0
VERTEX
  5
459
330
456
100
AcDbEntity
  8
DIBUJOS
 62
     7
100
AcDbVertex
100
AcDb2dVertex
 10
83.35852893083401
 20
46.67296426663588
 30
0.0
  0
SEQEND
  5
45A
330
456
100
AcDbEntity
  8
DIBUJOS
 62
     7
  0
POLYLINE
  5
45B
330
411
100
AcDbEntity
  8
DIBUJOS
 62
     7
100
AcDb2dPolyline
 66
     1
 10
0.0
 20
0.0
 30
0.0
  0
VERTEX
  5
45C
330
45B
100
AcDbEntity
  8
DIBUJOS
 62
     7
100
AcDbVertex
100
AcDb2dVertex
 10
79.37280446444686
 20
46.66085869834475
 30
0.0
  0
VERTEX
  5
45D
330
45B
100
AcDbEntity
  8
DIBUJOS
 62
     7
100
AcDbVertex
100
AcDb2dVertex
 10
79.37280446444686
 20
46.66691148249032
 30
0.0
  0
SEQEND
  5
45E
330
45B
100
AcDbEntity
  8
DIBUJOS
 62
     7
  0
POLYLINE
  5
45F
330
411
100
AcDbEntity
  8
DIBUJOS
 62
     7
100
AcDb2dPolyline
 66
     1
 10
0.0
 20
0.0
 30
0.0
  0
VERTEX
  5
460
330
45F
100
AcDbEntity
  8
DIBUJOS
 62
     7
100
AcDbVertex
100
AcDb2dVertex
 10
79.62682650581081
 20
46.66085869834475
 30
0.0
  0
VERTEX
  5
461
330
45F
100
AcDbEntity
  8
DIBUJOS
 62
     7
100
AcDbVertex
100
AcDb2dVertex
 10
79.62682650581081
 20
46.66691148249032
 30
0.0
  0
SEQEND
  5
462
330
45F
100
AcDbEntity
  8
DIBUJOS
 62
     7
  0
POLYLINE
  5
463
330
411
100
AcDbEntity
  8
DIBUJOS
 62
     7
100
AcDb2dPolyline
 66
     1
 10
0.0
 20
0.0
 30
0.0
  0
VERTEX
  5
464
330
463
100
AcDbEntity
  8
DIBUJOS
 62
     7
100
AcDbVertex
100
AcDb2dVertex
 10
79.37280446444686
 20
46.47325170902798
 30
0.0
  0
VERTEX
  5
465
330
463
100
AcDbEntity
  8
DIBUJOS
 62
     7
100
AcDbVertex
100
AcDb2dVertex
 10
79.37401395368506
 20
46.47869856322146
 30
0.0
  0
VERTEX
  5
466
330
463
100
AcDbEntity
  8
DIBUJOS
 62
     7
100
AcDbVertex
100
AcDb2dVertex
 10
79.37885191064045
 20
46.4853572773188
 30
0.0
  0
VERTEX
  5
467
330
463
100
AcDbEntity
  8
DIBUJOS
 62
     7
100
AcDbVertex
100
AcDb2dVertex
 10
79.37885191064045
 20
46.65480917188736
 30
0.0
  0
VERTEX
  5
468
330
463
100
AcDbEntity
  8
DIBUJOS
 62
     7
100
AcDbVertex
100
AcDb2dVertex
 10
79.37280446444686
 20
46.66085869834475
 30
0.0
  0
SEQEND
  5
469
330
463
100
AcDbEntity
  8
DIBUJOS
 62
     7
  0
POLYLINE
  5
46A
330
411
100
AcDbEntity
  8
DIBUJOS
 62
     7
100
AcDb2dPolyline
 66
     1
 10
0.0
 20
0.0
 30
0.0
  0
VERTEX
  5
46B
330
46A
100
AcDbEntity
  8
DIBUJOS
 62
     7
100
AcDbVertex
100
AcDb2dVertex
 10
79.62682650581081
 20
46.47325170902798
 30
0.0
  0
VERTEX
  5
46C
330
46A
100
AcDbEntity
  8
DIBUJOS
 62
     7
100
AcDbVertex
100
AcDb2dVertex
 10
79.62682650581081
 20
46.66085869834475
 30
0.0
  0
SEQEND
  5
46D
330
46A
100
AcDbEntity
  8
DIBUJOS
 62
     7
  0
POLYLINE
  5
46E
330
411
100
AcDbEntity
  8
DIBUJOS
 62
     7
100
AcDb2dPolyline
 66
     1
 10
0.0
 20
0.0
 30
0.0
  0
VERTEX
  5
46F
330
46E
100
AcDbEntity
  8
DIBUJOS
 62
     7
100
AcDbVertex
100
AcDb2dVertex
 10
75.26006734953195
 20
46.46719892488274
 30
0.0
  0
VERTEX
  5
470
330
46E
100
AcDbEntity
  8
DIBUJOS
 62
     7
100
AcDbVertex
100
AcDb2dVertex
 10
75.0847695464947
 20
46.47012107094206
 30
0.0
  0
VERTEX
  5
471
330
46E
100
AcDbEntity
  8
DIBUJOS
 62
     7
100
AcDbVertex
100
AcDb2dVertex
 10
75.05489695292685
 20
46.47558095588724
 30
0.0
  0
VERTEX
  5
472
330
46E
100
AcDbEntity
  8
DIBUJOS
 62
     7
100
AcDbVertex
100
AcDb2dVertex
 10
75.04777838436506
 20
46.47809263326936
 30
0.0
  0
VERTEX
  5
473
330
46E
100
AcDbEntity
  8
DIBUJOS
 62
     7
100
AcDbVertex
100
AcDb2dVertex
 10
75.01814182840127
 20
46.49745958792208
 30
0.0
  0
VERTEX
  5
474
330
46E
100
AcDbEntity
  8
DIBUJOS
 62
     7
100
AcDbVertex
100
AcDb2dVertex
 10
75.01088489296818
 20
46.5150087527182
 30
0.0
  0
VERTEX
  5
475
330
46E
100
AcDbEntity
  8
DIBUJOS
 62
     7
100
AcDbVertex
100
AcDb2dVertex
 10
74.99999786197374
 20
46.55192487216702
 30
0.0
  0
VERTEX
  5
476
330
46E
100
AcDbEntity
  8
DIBUJOS
 62
     7
100
AcDbVertex
100
AcDb2dVertex
 10
74.99999786197374
 20
46.58823831935128
 30
0.0
  0
VERTEX
  5
477
330
46E
100
AcDbEntity
  8
DIBUJOS
 62
     7
100
AcDbVertex
100
AcDb2dVertex
 10
75.00837312729533
 20
46.61802987533093
 30
0.0
  0
VERTEX
  5
478
330
46E
100
AcDbEntity
  8
DIBUJOS
 62
     7
100
AcDbVertex
100
AcDb2dVertex
 10
75.02419090244096
 20
46.64875638774179
 30
0.0
  0
VERTEX
  5
479
330
46E
100
AcDbEntity
  8
DIBUJOS
 62
     7
100
AcDbVertex
100
AcDb2dVertex
 10
75.05451766491518
 20
46.66397630567897
 30
0.0
  0
VERTEX
  5
47A
330
46E
100
AcDbEntity
  8
DIBUJOS
 62
     7
100
AcDbVertex
100
AcDb2dVertex
 10
75.25401990333835
 20
46.66691148249032
 30
0.0
  0
VERTEX
  5
47B
330
46E
100
AcDbEntity
  8
DIBUJOS
 62
     7
100
AcDbVertex
100
AcDb2dVertex
 10
75.27216386976524
 20
46.68506657723852
 30
0.0
  0
VERTEX
  5
47C
330
46E
100
AcDbEntity
  8
DIBUJOS
 62
     7
100
AcDbVertex
100
AcDb2dVertex
 10
75.27942243304376
 20
46.72682362092841
 30
0.0
  0
VERTEX
  5
47D
330
46E
100
AcDbEntity
  8
DIBUJOS
 62
     7
100
AcDbVertex
100
AcDb2dVertex
 10
75.28305090076032
 20
46.73408826497816
 30
0.0
  0
VERTEX
  5
47E
330
46E
100
AcDbEntity
  8
DIBUJOS
 62
     7
100
AcDbVertex
100
AcDb2dVertex
 10
75.30240435642605
 20
46.75769021391984
 30
0.0
  0
VERTEX
  5
47F
330
46E
100
AcDbEntity
  8
DIBUJOS
 62
     7
100
AcDbVertex
100
AcDb2dVertex
 10
75.34420905782693
 20
46.77192956779468
 30
0.0
  0
VERTEX
  5
480
330
46E
100
AcDbEntity
  8
DIBUJOS
 62
     7
100
AcDbVertex
100
AcDb2dVertex
 10
75.3507904373592
 20
46.77584530866837
 30
0.0
  0
VERTEX
  5
481
330
46E
100
AcDbEntity
  8
DIBUJOS
 62
     7
100
AcDbVertex
100
AcDb2dVertex
 10
75.57457199206297
 20
46.77584530866837
 30
0.0
  0
VERTEX
  5
482
330
46E
100
AcDbEntity
  8
DIBUJOS
 62
     7
100
AcDbVertex
100
AcDb2dVertex
 10
75.62295644515132
 20
46.75769021391984
 30
0.0
  0
VERTEX
  5
483
330
46E
100
AcDbEntity
  8
DIBUJOS
 62
     7
100
AcDbVertex
100
AcDb2dVertex
 10
75.64110041157821
 20
46.73953511917163
 30
0.0
  0
VERTEX
  5
484
330
46E
100
AcDbEntity
  8
DIBUJOS
 62
     7
100
AcDbVertex
100
AcDb2dVertex
 10
75.64593999637904
 20
46.72682362092841
 30
0.0
  0
VERTEX
  5
485
330
46E
100
AcDbEntity
  8
DIBUJOS
 62
     7
100
AcDbVertex
100
AcDb2dVertex
 10
75.65924600585117
 20
46.67901379309296
 30
0.0
  0
SEQEND
  5
486
330
46E
100
AcDbEntity
  8
DIBUJOS
 62
     7
  0
POLYLINE
  5
487
330
411
100
AcDbEntity
  8
DIBUJOS
 62
     7
100
AcDb2dPolyline
 66
     1
 10
0.0
 20
0.0
 30
0.0
  0
VERTEX
  5
488
330
487
100
AcDbEntity
  8
DIBUJOS
 62
     7
100
AcDbVertex
100
AcDb2dVertex
 10
75.26611642357099
 20
46.46719892488274
 30
0.0
  0
VERTEX
  5
489
330
487
100
AcDbEntity
  8
DIBUJOS
 62
     7
100
AcDbVertex
100
AcDb2dVertex
 10
75.26006734953195
 20
46.46719892488274
 30
0.0
  0
SEQEND
  5
48A
330
487
100
AcDbEntity
  8
DIBUJOS
 62
     7
  0
POLYLINE
  5
48B
330
411
100
AcDbEntity
  8
DIBUJOS
 62
     7
100
AcDb2dPolyline
 66
     1
 10
0.0
 20
0.0
 30
0.0
  0
VERTEX
  5
48C
330
48B
100
AcDbEntity
  8
DIBUJOS
 62
     7
100
AcDbVertex
100
AcDb2dVertex
 10
75.27216386976524
 20
46.46719892488274
 30
0.0
  0
VERTEX
  5
48D
330
48B
100
AcDbEntity
  8
DIBUJOS
 62
     7
100
AcDbVertex
100
AcDb2dVertex
 10
75.26611642357099
 20
46.46719892488274
 30
0.0
  0
SEQEND
  5
48E
330
48B
100
AcDbEntity
  8
DIBUJOS
 62
     7
  0
POLYLINE
  5
48F
330
411
100
AcDbEntity
  8
DIBUJOS
 62
     7
100
AcDb2dPolyline
 66
     1
 10
0.0
 20
0.0
 30
0.0
  0
VERTEX
  5
490
330
48F
100
AcDbEntity
  8
DIBUJOS
 62
     7
100
AcDbVertex
100
AcDb2dVertex
 10
76.46969658303139
 20
46.46719892488274
 30
0.0
  0
VERTEX
  5
491
330
48F
100
AcDbEntity
  8
DIBUJOS
 62
     7
100
AcDbVertex
100
AcDb2dVertex
 10
75.27216386976524
 20
46.46719892488274
 30
0.0
  0
SEQEND
  5
492
330
48F
100
AcDbEntity
  8
DIBUJOS
 62
     7
  0
POLYLINE
  5
493
330
411
100
AcDbEntity
  8
DIBUJOS
 62
     7
100
AcDb2dPolyline
 66
     1
 10
0.0
 20
0.0
 30
0.0
  0
VERTEX
  5
494
330
493
100
AcDbEntity
  8
DIBUJOS
 62
     7
100
AcDbVertex
100
AcDb2dVertex
 10
76.47574402922564
 20
46.46719892488274
 30
0.0
  0
VERTEX
  5
495
330
493
100
AcDbEntity
  8
DIBUJOS
 62
     7
100
AcDbVertex
100
AcDb2dVertex
 10
76.46969658303139
 20
46.46719892488274
 30
0.0
  0
SEQEND
  5
496
330
493
100
AcDbEntity
  8
DIBUJOS
 62
     7
  0
POLYLINE
  5
497
330
411
100
AcDbEntity
  8
DIBUJOS
 62
     7
100
AcDb2dPolyline
 66
     1
 10
0.0
 20
0.0
 30
0.0
  0
VERTEX
  5
498
330
497
100
AcDbEntity
  8
DIBUJOS
 62
     7
100
AcDbVertex
100
AcDb2dVertex
 10
76.48179310326468
 20
46.46719892488274
 30
0.0
  0
VERTEX
  5
499
330
497
100
AcDbEntity
  8
DIBUJOS
 62
     7
100
AcDbVertex
100
AcDb2dVertex
 10
76.47574402922564
 20
46.46719892488274
 30
0.0
  0
SEQEND
  5
49A
330
497
100
AcDbEntity
  8
DIBUJOS
 62
     7
  0
POLYLINE
  5
49B
330
411
100
AcDbEntity
  8
DIBUJOS
 62
     7
100
AcDb2dPolyline
 66
     1
 10
0.0
 20
0.0
 30
0.0
  0
VERTEX
  5
49C
330
49B
100
AcDbEntity
  8
DIBUJOS
 62
     7
100
AcDbVertex
100
AcDb2dVertex
 10
79.36675539040716
 20
46.46719892488274
 30
0.0
  0
VERTEX
  5
49D
330
49B
100
AcDbEntity
  8
DIBUJOS
 62
     7
100
AcDbVertex
100
AcDb2dVertex
 10
76.48179310326468
 20
46.46719892488274
 30
0.0
  0
SEQEND
  5
49E
330
49B
100
AcDbEntity
  8
DIBUJOS
 62
     7
  0
POLYLINE
  5
49F
330
411
100
AcDbEntity
  8
DIBUJOS
 62
     7
100
AcDb2dPolyline
 66
     1
 10
0.0
 20
0.0
 30
0.0
  0
VERTEX
  5
4A0
330
49F
100
AcDbEntity
  8
DIBUJOS
 62
     7
100
AcDbVertex
100
AcDb2dVertex
 10
79.37280446444686
 20
46.46719892488274
 30
0.0
  0
VERTEX
  5
4A1
330
49F
100
AcDbEntity
  8
DIBUJOS
 62
     7
100
AcDbVertex
100
AcDb2dVertex
 10
79.36675539040716
 20
46.46719892488274
 30
0.0
  0
SEQEND
  5
4A2
330
49F
100
AcDbEntity
  8
DIBUJOS
 62
     7
  0
POLYLINE
  5
4A3
330
411
100
AcDbEntity
  8
DIBUJOS
 62
     7
100
AcDb2dPolyline
 66
     1
 10
0.0
 20
0.0
 30
0.0
  0
VERTEX
  5
4A4
330
4A3
100
AcDbEntity
  8
DIBUJOS
 62
     7
100
AcDbVertex
100
AcDb2dVertex
 10
79.37280446444686
 20
46.46719892488274
 30
0.0
  0
VERTEX
  5
4A5
330
4A3
100
AcDbEntity
  8
DIBUJOS
 62
     7
100
AcDbVertex
100
AcDb2dVertex
 10
79.37280446444686
 20
46.47325170902798
 30
0.0
  0
SEQEND
  5
4A6
330
4A3
100
AcDbEntity
  8
DIBUJOS
 62
     7
  0
POLYLINE
  5
4A7
330
411
100
AcDbEntity
  8
DIBUJOS
 62
     7
100
AcDb2dPolyline
 66
     1
 10
0.0
 20
0.0
 30
0.0
  0
VERTEX
  5
4A8
330
4A7
100
AcDbEntity
  8
DIBUJOS
 62
     7
100
AcDbVertex
100
AcDb2dVertex
 10
79.62682650581081
 20
46.46719892488274
 30
0.0
  0
VERTEX
  5
4A9
330
4A7
100
AcDbEntity
  8
DIBUJOS
 62
     7
100
AcDbVertex
100
AcDb2dVertex
 10
79.62682650581081
 20
46.47325170902798
 30
0.0
  0
SEQEND
  5
4AA
330
4A7
100
AcDbEntity
  8
DIBUJOS
 62
     7
  0
POLYLINE
  5
4AB
330
411
100
AcDbEntity
  8
DIBUJOS
 62
     7
100
AcDb2dPolyline
 66
     1
 10
0.0
 20
0.0
 30
0.0
  0
VERTEX
  5
4AC
330
4AB
100
AcDbEntity
  8
DIBUJOS
 62
     7
100
AcDbVertex
100
AcDb2dVertex
 10
79.63287395200506
 20
46.46719892488274
 30
0.0
  0
VERTEX
  5
4AD
330
4AB
100
AcDbEntity
  8
DIBUJOS
 62
     7
100
AcDbVertex
100
AcDb2dVertex
 10
79.62682650581081
 20
46.46719892488274
 30
0.0
  0
SEQEND
  5
4AE
330
4AB
100
AcDbEntity
  8
DIBUJOS
 62
     7
  0
POLYLINE
  5
4AF
330
411
100
AcDbEntity
  8
DIBUJOS
 62
     7
100
AcDb2dPolyline
 66
     1
 10
0.0
 20
0.0
 30
0.0
  0
VERTEX
  5
4B0
330
4AF
100
AcDbEntity
  8
DIBUJOS
 62
     7
100
AcDbVertex
100
AcDb2dVertex
 10
82.52993275938019
 20
46.46719892488274
 30
0.0
  0
VERTEX
  5
4B1
330
4AF
100
AcDbEntity
  8
DIBUJOS
 62
     7
100
AcDbVertex
100
AcDb2dVertex
 10
79.63287395200506
 20
46.46719892488274
 30
0.0
  0
SEQEND
  5
4B2
330
4AF
100
AcDbEntity
  8
DIBUJOS
 62
     7
  0
POLYLINE
  5
4B3
330
411
100
AcDbEntity
  8
DIBUJOS
 62
     7
100
AcDb2dPolyline
 66
     1
 10
0.0
 20
0.0
 30
0.0
  0
VERTEX
  5
4B4
330
4B3
100
AcDbEntity
  8
DIBUJOS
 62
     7
100
AcDbVertex
100
AcDb2dVertex
 10
82.53598183341987
 20
46.46719892488274
 30
0.0
  0
VERTEX
  5
4B5
330
4B3
100
AcDbEntity
  8
DIBUJOS
 62
     7
100
AcDbVertex
100
AcDb2dVertex
 10
82.52993275938019
 20
46.46719892488274
 30
0.0
  0
SEQEND
  5
4B6
330
4B3
100
AcDbEntity
  8
DIBUJOS
 62
     7
  0
POLYLINE
  5
4B7
330
411
100
AcDbEntity
  8
DIBUJOS
 62
     7
100
AcDb2dPolyline
 66
     1
 10
0.0
 20
0.0
 30
0.0
  0
VERTEX
  5
4B8
330
4B7
100
AcDbEntity
  8
DIBUJOS
 62
     7
100
AcDbVertex
100
AcDb2dVertex
 10
82.54202927961347
 20
46.46719892488274
 30
0.0
  0
VERTEX
  5
4B9
330
4B7
100
AcDbEntity
  8
DIBUJOS
 62
     7
100
AcDbVertex
100
AcDb2dVertex
 10
82.53598183341987
 20
46.46719892488274
 30
0.0
  0
SEQEND
  5
4BA
330
4B7
100
AcDbEntity
  8
DIBUJOS
 62
     7
  0
POLYLINE
  5
4BB
330
411
100
AcDbEntity
  8
DIBUJOS
 62
     7
100
AcDb2dPolyline
 66
     1
 10
0.0
 20
0.0
 30
0.0
  0
VERTEX
  5
4BC
330
4BB
100
AcDbEntity
  8
DIBUJOS
 62
     7
100
AcDbVertex
100
AcDb2dVertex
 10
75.26611642357099
 20
46.46114939842534
 30
0.0
  0
VERTEX
  5
4BD
330
4BB
100
AcDbEntity
  8
DIBUJOS
 62
     7
100
AcDbVertex
100
AcDb2dVertex
 10
75.26611642357099
 20
46.46719892488274
 30
0.0
  0
SEQEND
  5
4BE
330
4BB
100
AcDbEntity
  8
DIBUJOS
 62
     7
  0
POLYLINE
  5
4BF
330
411
100
AcDbEntity
  8
DIBUJOS
 62
     7
100
AcDb2dPolyline
 66
     1
 10
0.0
 20
0.0
 30
0.0
  0
VERTEX
  5
4C0
330
4BF
100
AcDbEntity
  8
DIBUJOS
 62
     7
100
AcDbVertex
100
AcDb2dVertex
 10
76.47574402922564
 20
46.46114939842534
 30
0.0
  0
VERTEX
  5
4C1
330
4BF
100
AcDbEntity
  8
DIBUJOS
 62
     7
100
AcDbVertex
100
AcDb2dVertex
 10
76.47574402922564
 20
46.46719892488274
 30
0.0
  0
SEQEND
  5
4C2
330
4BF
100
AcDbEntity
  8
DIBUJOS
 62
     7
  0
POLYLINE
  5
4C3
330
411
100
AcDbEntity
  8
DIBUJOS
 62
     7
100
AcDb2dPolyline
 66
     1
 10
0.0
 20
0.0
 30
0.0
  0
VERTEX
  5
4C4
330
4C3
100
AcDbEntity
  8
DIBUJOS
 62
     7
100
AcDbVertex
100
AcDb2dVertex
 10
79.37280446444686
 20
46.46114939842534
 30
0.0
  0
VERTEX
  5
4C5
330
4C3
100
AcDbEntity
  8
DIBUJOS
 62
     7
100
AcDbVertex
100
AcDb2dVertex
 10
79.37280446444686
 20
46.46719892488274
 30
0.0
  0
SEQEND
  5
4C6
330
4C3
100
AcDbEntity
  8
DIBUJOS
 62
     7
  0
POLYLINE
  5
4C7
330
411
100
AcDbEntity
  8
DIBUJOS
 62
     7
100
AcDb2dPolyline
 66
     1
 10
0.0
 20
0.0
 30
0.0
  0
VERTEX
  5
4C8
330
4C7
100
AcDbEntity
  8
DIBUJOS
 62
     7
100
AcDbVertex
100
AcDb2dVertex
 10
79.62682650581081
 20
46.46114939842534
 30
0.0
  0
VERTEX
  5
4C9
330
4C7
100
AcDbEntity
  8
DIBUJOS
 62
     7
100
AcDbVertex
100
AcDb2dVertex
 10
79.62682650581081
 20
46.46719892488274
 30
0.0
  0
SEQEND
  5
4CA
330
4C7
100
AcDbEntity
  8
DIBUJOS
 62
     7
  0
POLYLINE
  5
4CB
330
411
100
AcDbEntity
  8
DIBUJOS
 62
     7
100
AcDb2dPolyline
 66
     1
 10
0.0
 20
0.0
 30
0.0
  0
VERTEX
  5
4CC
330
4CB
100
AcDbEntity
  8
DIBUJOS
 62
     7
100
AcDbVertex
100
AcDb2dVertex
 10
82.53598183341987
 20
46.46114939842534
 30
0.0
  0
VERTEX
  5
4CD
330
4CB
100
AcDbEntity
  8
DIBUJOS
 62
     7
100
AcDbVertex
100
AcDb2dVertex
 10
82.53598183341987
 20
46.46719892488274
 30
0.0
  0
SEQEND
  5
4CE
330
4CB
100
AcDbEntity
  8
DIBUJOS
 62
     7
  0
POLYLINE
  5
4CF
330
411
100
AcDbEntity
  8
DIBUJOS
 62
     7
100
AcDb2dPolyline
 66
     1
 10
0.0
 20
0.0
 30
0.0
  0
VERTEX
  5
4D0
330
4CF
100
AcDbEntity
  8
DIBUJOS
 62
     7
100
AcDbVertex
100
AcDb2dVertex
 10
83.73956199287963
 20
46.46114939842534
 30
0.0
  0
VERTEX
  5
4D1
330
4CF
100
AcDbEntity
  8
DIBUJOS
 62
     7
100
AcDbVertex
100
AcDb2dVertex
 10
83.73351291884059
 20
46.46719892488274
 30
0.0
  0
VERTEX
  5
4D2
330
4CF
100
AcDbEntity
  8
DIBUJOS
 62
     7
100
AcDbVertex
100
AcDb2dVertex
 10
82.54202927961347
 20
46.46719892488274
 30
0.0
  0
SEQEND
  5
4D3
330
4CF
100
AcDbEntity
  8
DIBUJOS
 62
     7
  0
POLYLINE
  5
4D4
330
411
100
AcDbEntity
  8
DIBUJOS
 62
     7
100
AcDb2dPolyline
 66
     1
 10
0.0
 20
0.0
 30
0.0
  0
VERTEX
  5
4D5
330
4D4
100
AcDbEntity
  8
DIBUJOS
 62
     7
100
AcDbVertex
100
AcDb2dVertex
 10
83.74560943907387
 20
46.46114939842534
 30
0.0
  0
VERTEX
  5
4D6
330
4D4
100
AcDbEntity
  8
DIBUJOS
 62
     7
100
AcDbVertex
100
AcDb2dVertex
 10
83.73956199287963
 20
46.46114939842534
 30
0.0
  0
SEQEND
  5
4D7
330
4D4
100
AcDbEntity
  8
DIBUJOS
 62
     7
  0
POLYLINE
  5
4D8
330
411
100
AcDbEntity
  8
DIBUJOS
 62
     7
100
AcDb2dPolyline
 66
     1
 10
0.0
 20
0.0
 30
0.0
  0
VERTEX
  5
4D9
330
4D8
100
AcDbEntity
  8
DIBUJOS
 62
     7
100
AcDbVertex
100
AcDb2dVertex
 10
83.74560943907387
 20
46.46114939842534
 30
0.0
  0
VERTEX
  5
4DA
330
4D8
100
AcDbEntity
  8
DIBUJOS
 62
     7
100
AcDbVertex
100
AcDb2dVertex
 10
83.9093186096869
 20
46.47079867002836
 30
0.0
  0
VERTEX
  5
4DB
330
4D8
100
AcDbEntity
  8
DIBUJOS
 62
     7
100
AcDbVertex
100
AcDb2dVertex
 10
83.95729447354374
 20
46.4853572773188
 30
0.0
  0
VERTEX
  5
4DC
330
4D8
100
AcDbEntity
  8
DIBUJOS
 62
     7
100
AcDbVertex
100
AcDb2dVertex
 10
83.97543843997127
 20
46.50351237206732
 30
0.0
  0
VERTEX
  5
4DD
330
4D8
100
AcDbEntity
  8
DIBUJOS
 62
     7
100
AcDbVertex
100
AcDb2dVertex
 10
83.98354185508656
 20
46.52280765758584
 30
0.0
  0
VERTEX
  5
4DE
330
4D8
100
AcDbEntity
  8
DIBUJOS
 62
     7
100
AcDbVertex
100
AcDb2dVertex
 10
83.98998649559296
 20
46.55151766117768
 30
0.0
  0
VERTEX
  5
4DF
330
4D8
100
AcDbEntity
  8
DIBUJOS
 62
     7
100
AcDbVertex
100
AcDb2dVertex
 10
83.99358403424424
 20
46.58218553520604
 30
0.0
  0
VERTEX
  5
4E0
330
4D8
100
AcDbEntity
  8
DIBUJOS
 62
     7
100
AcDbVertex
100
AcDb2dVertex
 10
83.98148751401031
 20
46.63060129299358
 30
0.0
  0
VERTEX
  5
4E1
330
4D8
100
AcDbEntity
  8
DIBUJOS
 62
     7
100
AcDbVertex
100
AcDb2dVertex
 10
83.95185095804652
 20
46.6560177741037
 30
0.0
  0
VERTEX
  5
4E2
330
4D8
100
AcDbEntity
  8
DIBUJOS
 62
     7
100
AcDbVertex
100
AcDb2dVertex
 10
83.93300701803528
 20
46.66398607874283
 30
0.0
  0
VERTEX
  5
4E3
330
4D8
100
AcDbEntity
  8
DIBUJOS
 62
     7
100
AcDbVertex
100
AcDb2dVertex
 10
83.75165851311355
 20
46.66691148249032
 30
0.0
  0
VERTEX
  5
4E4
330
4D8
100
AcDbEntity
  8
DIBUJOS
 62
     7
100
AcDbVertex
100
AcDb2dVertex
 10
83.73956199287963
 20
46.67901379309296
 30
0.0
  0
VERTEX
  5
4E5
330
4D8
100
AcDbEntity
  8
DIBUJOS
 62
     7
100
AcDbVertex
100
AcDb2dVertex
 10
83.7347224080788
 20
46.71592991254211
 30
0.0
  0
VERTEX
  5
4E6
330
4D8
100
AcDbEntity
  8
DIBUJOS
 62
     7
100
AcDbVertex
100
AcDb2dVertex
 10
83.72746547264634
 20
46.73348233502607
 30
0.0
  0
VERTEX
  5
4E7
330
4D8
100
AcDbEntity
  8
DIBUJOS
 62
     7
100
AcDbVertex
100
AcDb2dVertex
 10
83.69722498598553
 20
46.76373974037724
 30
0.0
  0
VERTEX
  5
4E8
330
4D8
100
AcDbEntity
  8
DIBUJOS
 62
     7
100
AcDbVertex
100
AcDb2dVertex
 10
83.68466290192717
 20
46.76746653535172
 30
0.0
  0
VERTEX
  5
4E9
330
4D8
100
AcDbEntity
  8
DIBUJOS
 62
     7
100
AcDbVertex
100
AcDb2dVertex
 10
83.6614009891114
 20
46.77212177138173
 30
0.0
  0
VERTEX
  5
4EA
330
4D8
100
AcDbEntity
  8
DIBUJOS
 62
     7
100
AcDbVertex
100
AcDb2dVertex
 10
83.65488797909143
 20
46.77584530866837
 30
0.0
  0
VERTEX
  5
4EB
330
4D8
100
AcDbEntity
  8
DIBUJOS
 62
     7
100
AcDbVertex
100
AcDb2dVertex
 10
83.4371538705819
 20
46.77584530866837
 30
0.0
  0
VERTEX
  5
4EC
330
4D8
100
AcDbEntity
  8
DIBUJOS
 62
     7
100
AcDbVertex
100
AcDb2dVertex
 10
83.3948168636878
 20
46.76373974037724
 30
0.0
  0
VERTEX
  5
4ED
330
4D8
100
AcDbEntity
  8
DIBUJOS
 62
     7
100
AcDbVertex
100
AcDb2dVertex
 10
83.36336688778877
 20
46.7280354808326
 30
0.0
  0
VERTEX
  5
4EE
330
4D8
100
AcDbEntity
  8
DIBUJOS
 62
     7
100
AcDbVertex
100
AcDb2dVertex
 10
83.35480604807623
 20
46.70275582261488
 30
0.0
  0
VERTEX
  5
4EF
330
4D8
100
AcDbEntity
  8
DIBUJOS
 62
     7
100
AcDbVertex
100
AcDb2dVertex
 10
83.35248148463977
 20
46.67901379309296
 30
0.0
  0
SEQEND
  5
4F0
330
4D8
100
AcDbEntity
  8
DIBUJOS
 62
     7
  0
POLYLINE
  5
4F1
330
411
100
AcDbEntity
  8
DIBUJOS
 62
     7
100
AcDb2dPolyline
 66
     1
 10
0.0
 20
0.0
 30
0.0
  0
VERTEX
  5
4F2
330
4F1
100
AcDbEntity
  8
DIBUJOS
 62
     7
100
AcDbVertex
100
AcDb2dVertex
 10
83.74560943907387
 20
46.45509661427978
 30
0.0
  0
VERTEX
  5
4F3
330
4F1
100
AcDbEntity
  8
DIBUJOS
 62
     7
100
AcDbVertex
100
AcDb2dVertex
 10
83.74560943907387
 20
46.46114939842534
 30
0.0
  0
SEQEND
  5
4F4
330
4F1
100
AcDbEntity
  8
DIBUJOS
 62
     7
  0
POLYLINE
  5
4F5
330
411
100
AcDbEntity
  8
DIBUJOS
 62
     7
100
AcDb2dPolyline
 66
     1
 10
0.0
 20
0.0
 30
0.0
  0
VERTEX
  5
4F6
330
4F5
100
AcDbEntity
  8
DIBUJOS
 62
     7
100
AcDbVertex
100
AcDb2dVertex
 10
75.26611642357099
 20
46.46114939842534
 30
0.0
  0
VERTEX
  5
4F7
330
4F5
100
AcDbEntity
  8
DIBUJOS
 62
     7
100
AcDbVertex
100
AcDb2dVertex
 10
75.26913444920875
 20
43.35050374318029
 30
0.0
  0
VERTEX
  5
4F8
330
4F5
100
AcDbEntity
  8
DIBUJOS
 62
     7
100
AcDbVertex
100
AcDb2dVertex
 10
75.29896146310175
 20
43.1087507230345
 30
0.0
  0
VERTEX
  5
4F9
330
4F5
100
AcDbEntity
  8
DIBUJOS
 62
     7
100
AcDbVertex
100
AcDb2dVertex
 10
75.31571036589818
 20
43.07271743701072
 30
0.0
  0
VERTEX
  5
4FA
330
4F5
100
AcDbEntity
  8
DIBUJOS
 62
     7
100
AcDbVertex
100
AcDb2dVertex
 10
75.35562839431458
 20
42.99888519811307
 30
0.0
  0
VERTEX
  5
4FB
330
4F5
100
AcDbEntity
  8
DIBUJOS
 62
     7
100
AcDbVertex
100
AcDb2dVertex
 10
75.38707837021425
 20
42.93292027552909
 30
0.0
  0
VERTEX
  5
4FC
330
4F5
100
AcDbEntity
  8
DIBUJOS
 62
     7
100
AcDbVertex
100
AcDb2dVertex
 10
75.40522396448722
 20
42.91476518078088
 30
0.0
  0
VERTEX
  5
4FD
330
4F5
100
AcDbEntity
  8
DIBUJOS
 62
     7
100
AcDbVertex
100
AcDb2dVertex
 10
75.50292399831407
 20
42.84959187636036
 30
0.0
  0
VERTEX
  5
4FE
330
4F5
100
AcDbEntity
  8
DIBUJOS
 62
     7
100
AcDbVertex
100
AcDb2dVertex
 10
75.5071108170515
 20
42.84679678012958
 30
0.0
  0
VERTEX
  5
4FF
330
4F5
100
AcDbEntity
  8
DIBUJOS
 62
     7
100
AcDbVertex
100
AcDb2dVertex
 10
75.56294103565477
 20
42.81421012791948
 30
0.0
  0
VERTEX
  5
500
330
4F5
100
AcDbEntity
  8
DIBUJOS
 62
     7
100
AcDbVertex
100
AcDb2dVertex
 10
75.77416050630019
 20
42.77557069156381
 30
0.0
  0
VERTEX
  5
501
330
4F5
100
AcDbEntity
  8
DIBUJOS
 62
     7
100
AcDbVertex
100
AcDb2dVertex
 10
75.96769994649708
 20
42.77557069156381
 30
0.0
  0
VERTEX
  5
502
330
4F5
100
AcDbEntity
  8
DIBUJOS
 62
     7
100
AcDbVertex
100
AcDb2dVertex
 10
76.18502546577511
 20
42.81433717774802
 30
0.0
  0
VERTEX
  5
503
330
4F5
100
AcDbEntity
  8
DIBUJOS
 62
     7
100
AcDbVertex
100
AcDb2dVertex
 10
76.23272947942567
 20
42.84359447290977
 30
0.0
  0
VERTEX
  5
504
330
4F5
100
AcDbEntity
  8
DIBUJOS
 62
     7
100
AcDbVertex
100
AcDb2dVertex
 10
76.35478208258303
 20
42.93292027552909
 30
0.0
  0
VERTEX
  5
505
330
4F5
100
AcDbEntity
  8
DIBUJOS
 62
     7
100
AcDbVertex
100
AcDb2dVertex
 10
76.38986052619859
 20
43.00009380032909
 30
0.0
  0
VERTEX
  5
506
330
4F5
100
AcDbEntity
  8
DIBUJOS
 62
     7
100
AcDbVertex
100
AcDb2dVertex
 10
76.42252161918255
 20
43.06545605064882
 30
0.0
  0
VERTEX
  5
507
330
4F5
100
AcDbEntity
  8
DIBUJOS
 62
     7
100
AcDbVertex
100
AcDb2dVertex
 10
76.44317735128293
 20
43.10888754592658
 30
0.0
  0
VERTEX
  5
508
330
4F5
100
AcDbEntity
  8
DIBUJOS
 62
     7
100
AcDbVertex
100
AcDb2dVertex
 10
76.44782973384673
 20
43.13216372607697
 30
0.0
  0
VERTEX
  5
509
330
4F5
100
AcDbEntity
  8
DIBUJOS
 62
     7
100
AcDbVertex
100
AcDb2dVertex
 10
76.47272600358788
 20
43.3383981748898
 30
0.0
  0
VERTEX
  5
50A
330
4F5
100
AcDbEntity
  8
DIBUJOS
 62
     7
100
AcDbVertex
100
AcDb2dVertex
 10
76.47574402922564
 20
46.46114939842534
 30
0.0
  0
SEQEND
  5
50B
330
4F5
100
AcDbEntity
  8
DIBUJOS
 62
     7
  0
POLYLINE
  5
50C
330
411
100
AcDbEntity
  8
DIBUJOS
 62
     7
100
AcDb2dPolyline
 66
     1
 10
0.0
 20
0.0
 30
0.0
  0
VERTEX
  5
50D
330
50C
100
AcDbEntity
  8
DIBUJOS
 62
     7
100
AcDbVertex
100
AcDb2dVertex
 10
79.37280446444686
 20
46.46114939842534
 30
0.0
  0
VERTEX
  5
50E
330
50C
100
AcDbEntity
  8
DIBUJOS
 62
     7
100
AcDbVertex
100
AcDb2dVertex
 10
79.38487982268751
 20
42.81190368487611
 30
0.0
  0
VERTEX
  5
50F
330
50C
100
AcDbEntity
  8
DIBUJOS
 62
     7
100
AcDbVertex
100
AcDb2dVertex
 10
79.39094843087373
 20
42.79372578631234
 30
0.0
  0
VERTEX
  5
510
330
50C
100
AcDbEntity
  8
DIBUJOS
 62
     7
100
AcDbVertex
100
AcDb2dVertex
 10
79.4024393925652
 20
42.78646439995043
 30
0.0
  0
VERTEX
  5
511
330
50C
100
AcDbEntity
  8
DIBUJOS
 62
     7
100
AcDbVertex
100
AcDb2dVertex
 10
79.42723636372816
 20
42.77557069156381
 30
0.0
  0
VERTEX
  5
512
330
50C
100
AcDbEntity
  8
DIBUJOS
 62
     7
100
AcDbVertex
100
AcDb2dVertex
 10
79.57239297868342
 20
42.77557069156381
 30
0.0
  0
VERTEX
  5
513
330
50C
100
AcDbEntity
  8
DIBUJOS
 62
     7
100
AcDbVertex
100
AcDb2dVertex
 10
79.59658439130456
 20
42.78162347570937
 30
0.0
  0
VERTEX
  5
514
330
50C
100
AcDbEntity
  8
DIBUJOS
 62
     7
100
AcDbVertex
100
AcDb2dVertex
 10
79.62198692101062
 20
42.8112782087963
 30
0.0
  0
VERTEX
  5
515
330
50C
100
AcDbEntity
  8
DIBUJOS
 62
     7
100
AcDbVertex
100
AcDb2dVertex
 10
79.62682650581081
 20
46.46114939842534
 30
0.0
  0
SEQEND
  5
516
330
50C
100
AcDbEntity
  8
DIBUJOS
 62
     7
  0
POLYLINE
  5
517
330
411
100
AcDbEntity
  8
DIBUJOS
 62
     7
100
AcDb2dPolyline
 66
     1
 10
0.0
 20
0.0
 30
0.0
  0
VERTEX
  5
518
330
517
100
AcDbEntity
  8
DIBUJOS
 62
     7
100
AcDbVertex
100
AcDb2dVertex
 10
82.53598183341987
 20
46.46114939842534
 30
0.0
  0
VERTEX
  5
519
330
517
100
AcDbEntity
  8
DIBUJOS
 62
     7
100
AcDbVertex
100
AcDb2dVertex
 10
82.53899985905763
 20
43.32629586428684
 30
0.0
  0
VERTEX
  5
51A
330
517
100
AcDbEntity
  8
DIBUJOS
 62
     7
100
AcDbVertex
100
AcDb2dVertex
 10
82.56854851136194
 20
43.10283801946949
 30
0.0
  0
VERTEX
  5
51B
330
517
100
AcDbEntity
  8
DIBUJOS
 62
     7
100
AcDbVertex
100
AcDb2dVertex
 10
82.60372137001939
 20
43.03640724751399
 30
0.0
  0
VERTEX
  5
51C
330
517
100
AcDbEntity
  8
DIBUJOS
 62
     7
100
AcDbVertex
100
AcDb2dVertex
 10
82.6339618566802
 20
42.97588917912348
 30
0.0
  0
VERTEX
  5
51D
330
517
100
AcDbEntity
  8
DIBUJOS
 62
     7
100
AcDbVertex
100
AcDb2dVertex
 10
82.66299285410217
 20
42.9208147072386
 30
0.0
  0
VERTEX
  5
51E
330
517
100
AcDbEntity
  8
DIBUJOS
 62
     7
100
AcDbVertex
100
AcDb2dVertex
 10
82.80318779584033
 20
42.82543937816156
 30
0.0
  0
VERTEX
  5
51F
330
517
100
AcDbEntity
  8
DIBUJOS
 62
     7
100
AcDbVertex
100
AcDb2dVertex
 10
82.82675737146397
 20
42.81421012791948
 30
0.0
  0
VERTEX
  5
520
330
517
100
AcDbEntity
  8
DIBUJOS
 62
     7
100
AcDbVertex
100
AcDb2dVertex
 10
82.85001928427972
 20
42.80955489188946
 30
0.0
  0
VERTEX
  5
521
330
517
100
AcDbEntity
  8
DIBUJOS
 62
     7
100
AcDbVertex
100
AcDb2dVertex
 10
83.04402591614779
 20
42.77557069156381
 30
0.0
  0
VERTEX
  5
522
330
517
100
AcDbEntity
  8
DIBUJOS
 62
     7
100
AcDbVertex
100
AcDb2dVertex
 10
83.23756535634531
 20
42.77557069156381
 30
0.0
  0
VERTEX
  5
523
330
517
100
AcDbEntity
  8
DIBUJOS
 62
     7
100
AcDbVertex
100
AcDb2dVertex
 10
83.27344632781367
 20
42.784076514709
 30
0.0
  0
VERTEX
  5
524
330
517
100
AcDbEntity
  8
DIBUJOS
 62
     7
100
AcDbVertex
100
AcDb2dVertex
 10
83.45590339555125
 20
42.81672506298945
 30
0.0
  0
VERTEX
  5
525
330
517
100
AcDbEntity
  8
DIBUJOS
 62
     7
100
AcDbVertex
100
AcDb2dVertex
 10
83.51082039280547
 20
42.85279418358049
 30
0.0
  0
VERTEX
  5
526
330
517
100
AcDbEntity
  8
DIBUJOS
 62
     7
100
AcDbVertex
100
AcDb2dVertex
 10
83.61255097219734
 20
42.9208147072386
 30
0.0
  0
VERTEX
  5
527
330
517
100
AcDbEntity
  8
DIBUJOS
 62
     7
100
AcDbVertex
100
AcDb2dVertex
 10
83.66214491452453
 20
43.01098750871571
 30
0.0
  0
VERTEX
  5
528
330
517
100
AcDbEntity
  8
DIBUJOS
 62
     7
100
AcDbVertex
100
AcDb2dVertex
 10
83.69238540118535
 20
43.07150557710622
 30
0.0
  0
VERTEX
  5
529
330
517
100
AcDbEntity
  8
DIBUJOS
 62
     7
100
AcDbVertex
100
AcDb2dVertex
 10
83.71276439954376
 20
43.11480024949222
 30
0.0
  0
VERTEX
  5
52A
330
517
100
AcDbEntity
  8
DIBUJOS
 62
     7
100
AcDbVertex
100
AcDb2dVertex
 10
83.7179751331278
 20
43.15651168555131
 30
0.0
  0
VERTEX
  5
52B
330
517
100
AcDbEntity
  8
DIBUJOS
 62
     7
100
AcDbVertex
100
AcDb2dVertex
 10
83.74259141343612
 20
43.36260605378358
 30
0.0
  0
VERTEX
  5
52C
330
517
100
AcDbEntity
  8
DIBUJOS
 62
     7
100
AcDbVertex
100
AcDb2dVertex
 10
83.74560943907387
 20
46.45509661427978
 30
0.0
  0
SEQEND
  5
52D
330
517
100
AcDbEntity
  8
DIBUJOS
 62
     7
  0
ENDBLK
  5
414
330
411
100
AcDbEntity
  8
0
100
AcDbBlockEnd
  0
BLOCK
  5
530
330
52E
100
AcDbEntity
  8
0
100
AcDbBlockBegin
  2
BLOCK_7
 70
     0
 10
0.0
 20
0.0
 30
0.0
  3
BLOCK_7
  1

  0
POLYLINE
  5
532
330
52E
100
AcDbEntity
  8
DIBUJOS
 62
     7
100
AcDb2dPolyline
 66
     1
 10
0.0
 20
0.0
 30
0.0
  0
VERTEX
  5
533
330
532
100
AcDbEntity
  8
DIBUJOS
 62
     7
100
AcDbVertex
100
AcDb2dVertex
 10
83.32223937013352
 20
32.13944443174901
 30
0.0
  0
VERTEX
  5
534
330
532
100
AcDbEntity
  8
DIBUJOS
 62
     7
100
AcDbVertex
100
AcDb2dVertex
 10
83.23901739457062
 20
32.24946632569024
 30
0.0
  0
VERTEX
  5
535
330
532
100
AcDbEntity
  8
DIBUJOS
 62
     7
100
AcDbVertex
100
AcDb2dVertex
 10
82.96993940977463
 20
32.6221914307572
 30
0.0
  0
VERTEX
  5
536
330
532
100
AcDbEntity
  8
DIBUJOS
 62
     7
100
AcDbVertex
100
AcDb2dVertex
 10
82.56622232008004
 20
33.05327312828268
 30
0.0
  0
VERTEX
  5
537
330
532
100
AcDbEntity
  8
DIBUJOS
 62
     7
100
AcDbVertex
100
AcDb2dVertex
 10
82.11959033832392
 20
33.41778071558424
 30
0.0
  0
VERTEX
  5
538
330
532
100
AcDbEntity
  8
DIBUJOS
 62
     7
100
AcDbVertex
100
AcDb2dVertex
 10
81.67621567550049
 20
33.69942412424531
 30
0.0
  0
VERTEX
  5
539
330
532
100
AcDbEntity
  8
DIBUJOS
 62
     7
100
AcDbVertex
100
AcDb2dVertex
 10
81.34389263565092
 20
33.85695939642228
 30
0.0
  0
VERTEX
  5
53A
330
532
100
AcDbEntity
  8
DIBUJOS
 62
     7
100
AcDbVertex
100
AcDb2dVertex
 10
81.25317117566911
 20
33.89932237006393
 30
0.0
  0
VERTEX
  5
53B
330
532
100
AcDbEntity
  8
DIBUJOS
 62
     7
100
AcDbVertex
100
AcDb2dVertex
 10
81.12011108094778
 20
33.95923613734595
 30
0.0
  0
VERTEX
  5
53C
330
532
100
AcDbEntity
  8
DIBUJOS
 62
     7
100
AcDbVertex
100
AcDb2dVertex
 10
80.99431117734912
 20
33.9991770200238
 30
0.0
  0
VERTEX
  5
53D
330
532
100
AcDbEntity
  8
DIBUJOS
 62
     7
100
AcDbVertex
100
AcDb2dVertex
 10
80.57080111369267
 20
34.13283018209795
 30
0.0
  0
VERTEX
  5
53E
330
532
100
AcDbEntity
  8
DIBUJOS
 62
     7
100
AcDbVertex
100
AcDb2dVertex
 10
80.40750053231051
 20
34.16308921629305
 30
0.0
  0
VERTEX
  5
53F
330
532
100
AcDbEntity
  8
DIBUJOS
 62
     7
100
AcDbVertex
100
AcDb2dVertex
 10
80.03789982951605
 20
34.23058850988433
 30
0.0
  0
VERTEX
  5
540
330
532
100
AcDbEntity
  8
DIBUJOS
 62
     7
100
AcDbVertex
100
AcDb2dVertex
 10
79.95967371192576
 20
34.23618033119045
 30
0.0
  0
VERTEX
  5
541
330
532
100
AcDbEntity
  8
DIBUJOS
 62
     7
100
AcDbVertex
100
AcDb2dVertex
 10
79.40909239730127
 20
34.26364264031053
 30
0.0
  0
VERTEX
  5
542
330
532
100
AcDbEntity
  8
DIBUJOS
 62
     7
100
AcDbVertex
100
AcDb2dVertex
 10
78.92545460280591
 20
34.22455527186681
 30
0.0
  0
VERTEX
  5
543
330
532
100
AcDbEntity
  8
DIBUJOS
 62
     7
100
AcDbVertex
100
AcDb2dVertex
 10
78.86502897623306
 20
34.21858392991962
 30
0.0
  0
VERTEX
  5
544
330
532
100
AcDbEntity
  8
DIBUJOS
 62
     7
100
AcDbVertex
100
AcDb2dVertex
 10
78.33910463805542
 20
34.11021042606286
 30
0.0
  0
VERTEX
  5
545
330
532
100
AcDbEntity
  8
DIBUJOS
 62
     7
100
AcDbVertex
100
AcDb2dVertex
 10
78.33205769469808
 20
34.10862230320418
 30
0.0
  0
VERTEX
  5
546
330
532
100
AcDbEntity
  8
DIBUJOS
 62
     7
100
AcDbVertex
100
AcDb2dVertex
 10
77.86016317795263
 20
33.95015696112809
 30
0.0
  0
VERTEX
  5
547
330
532
100
AcDbEntity
  8
DIBUJOS
 62
     7
100
AcDbVertex
100
AcDb2dVertex
 10
77.78274772744297
 20
33.92292431900561
 30
0.0
  0
VERTEX
  5
548
330
532
100
AcDbEntity
  8
DIBUJOS
 62
     7
100
AcDbVertex
100
AcDb2dVertex
 10
77.65573670676066
 20
33.8630105517236
 30
0.0
  0
VERTEX
  5
549
330
532
100
AcDbEntity
  8
DIBUJOS
 62
     7
100
AcDbVertex
100
AcDb2dVertex
 10
77.60009369039443
 20
33.83517197964903
 30
0.0
  0
VERTEX
  5
54A
330
532
100
AcDbEntity
  8
DIBUJOS
 62
     7
100
AcDbVertex
100
AcDb2dVertex
 10
77.23269220692929
 20
33.65100999530169
 30
0.0
  0
VERTEX
  5
54B
330
532
100
AcDbEntity
  8
DIBUJOS
 62
     7
100
AcDbVertex
100
AcDb2dVertex
 10
77.18244712638541
 20
33.61749164434789
 30
0.0
  0
VERTEX
  5
54C
330
532
100
AcDbEntity
  8
DIBUJOS
 62
     7
100
AcDbVertex
100
AcDb2dVertex
 10
76.75524022549948
 20
33.33016357027581
 30
0.0
  0
VERTEX
  5
54D
330
532
100
AcDbEntity
  8
DIBUJOS
 62
     7
100
AcDbVertex
100
AcDb2dVertex
 10
76.61958860067234
 20
33.21212124868832
 30
0.0
  0
VERTEX
  5
54E
330
532
100
AcDbEntity
  8
DIBUJOS
 62
     7
100
AcDbVertex
100
AcDb2dVertex
 10
76.3230423501766
 20
32.95170330563559
 30
0.0
  0
VERTEX
  5
54F
330
532
100
AcDbEntity
  8
DIBUJOS
 62
     7
100
AcDbVertex
100
AcDb2dVertex
 10
75.95105522581581
 20
32.53150228574503
 30
0.0
  0
VERTEX
  5
550
330
532
100
AcDbEntity
  8
DIBUJOS
 62
     7
100
AcDbVertex
100
AcDb2dVertex
 10
75.7695081237364
 20
32.26560165393157
 30
0.0
  0
VERTEX
  5
551
330
532
100
AcDbEntity
  8
DIBUJOS
 62
     7
100
AcDbVertex
100
AcDb2dVertex
 10
75.68343741847231
 20
32.13944443174901
 30
0.0
  0
SEQEND
  5
552
330
532
100
AcDbEntity
  8
DIBUJOS
 62
     7
  0
POLYLINE
  5
553
330
52E
100
AcDbEntity
  8
DIBUJOS
 62
     7
100
AcDb2dPolyline
 66
     1
 10
0.0
 20
0.0
 30
0.0
  0
VERTEX
  5
554
330
553
100
AcDbEntity
  8
DIBUJOS
 62
     7
100
AcDbVertex
100
AcDb2dVertex
 10
75.55642639779064
 20
31.92157677939291
 30
0.0
  0
VERTEX
  5
555
330
553
100
AcDbEntity
  8
DIBUJOS
 62
     7
100
AcDbVertex
100
AcDb2dVertex
 10
75.53719340269446
 20
31.93828057417547
 30
0.0
  0
VERTEX
  5
556
330
553
100
AcDbEntity
  8
DIBUJOS
 62
     7
100
AcDbVertex
100
AcDb2dVertex
 10
75.4832449735387
 20
31.96878230612019
 30
0.0
  0
VERTEX
  5
557
330
553
100
AcDbEntity
  8
DIBUJOS
 62
     7
100
AcDbVertex
100
AcDb2dVertex
 10
75.30240435642605
 20
32.07287357921294
 30
0.0
  0
VERTEX
  5
558
330
553
100
AcDbEntity
  8
DIBUJOS
 62
     7
100
AcDbVertex
100
AcDb2dVertex
 10
75.26611642357099
 20
32.11523655285524
 30
0.0
  0
VERTEX
  5
559
330
553
100
AcDbEntity
  8
DIBUJOS
 62
     7
100
AcDbVertex
100
AcDb2dVertex
 10
75.26611642357099
 20
32.13944443174901
 30
0.0
  0
VERTEX
  5
55A
330
553
100
AcDbEntity
  8
DIBUJOS
 62
     7
100
AcDbVertex
100
AcDb2dVertex
 10
75.27337335900408
 20
32.15094244124413
 30
0.0
  0
VERTEX
  5
55B
330
553
100
AcDbEntity
  8
DIBUJOS
 62
     7
100
AcDbVertex
100
AcDb2dVertex
 10
75.28305090076032
 20
32.17030776705228
 30
0.0
  0
VERTEX
  5
55C
330
553
100
AcDbEntity
  8
DIBUJOS
 62
     7
100
AcDbVertex
100
AcDb2dVertex
 10
75.34474136332015
 20
32.27863729212248
 30
0.0
  0
VERTEX
  5
55D
330
553
100
AcDbEntity
  8
DIBUJOS
 62
     7
100
AcDbVertex
100
AcDb2dVertex
 10
75.36288695759312
 20
32.29679238687037
 30
0.0
  0
VERTEX
  5
55E
330
553
100
AcDbEntity
  8
DIBUJOS
 62
     7
100
AcDbVertex
100
AcDb2dVertex
 10
75.39917489044754
 20
32.30284354217169
 30
0.0
  0
VERTEX
  5
55F
330
553
100
AcDbEntity
  8
DIBUJOS
 62
     7
100
AcDbVertex
100
AcDb2dVertex
 10
75.4058278951836
 20
32.2986069190388
 30
0.0
  0
VERTEX
  5
560
330
553
100
AcDbEntity
  8
DIBUJOS
 62
     7
100
AcDbVertex
100
AcDb2dVertex
 10
75.64017091177284
 20
32.16830591782887
 30
0.0
  0
VERTEX
  5
561
330
553
100
AcDbEntity
  8
DIBUJOS
 62
     7
100
AcDbVertex
100
AcDb2dVertex
 10
75.68343741847231
 20
32.13944443174901
 30
0.0
  0
SEQEND
  5
562
330
553
100
AcDbEntity
  8
DIBUJOS
 62
     7
  0
POLYLINE
  5
563
330
52E
100
AcDbEntity
  8
DIBUJOS
 62
     7
100
AcDb2dPolyline
 66
     1
 10
0.0
 20
0.0
 30
0.0
  0
VERTEX
  5
564
330
563
100
AcDbEntity
  8
DIBUJOS
 62
     7
100
AcDbVertex
100
AcDb2dVertex
 10
75.55642639779064
 20
31.92157677939291
 30
0.0
  0
VERTEX
  5
565
330
563
100
AcDbEntity
  8
DIBUJOS
 62
     7
100
AcDbVertex
100
AcDb2dVertex
 10
75.57940994901837
 20
31.9645456829873
 30
0.0
  0
VERTEX
  5
566
330
563
100
AcDbEntity
  8
DIBUJOS
 62
     7
100
AcDbVertex
100
AcDb2dVertex
 10
75.65180186818104
 20
32.09196037270517
 30
0.0
  0
VERTEX
  5
567
330
563
100
AcDbEntity
  8
DIBUJOS
 62
     7
100
AcDbVertex
100
AcDb2dVertex
 10
75.68343741847231
 20
32.13944443174901
 30
0.0
  0
SEQEND
  5
568
330
563
100
AcDbEntity
  8
DIBUJOS
 62
     7
  0
POLYLINE
  5
569
330
52E
100
AcDbEntity
  8
DIBUJOS
 62
     7
100
AcDb2dPolyline
 66
     1
 10
0.0
 20
0.0
 30
0.0
  0
VERTEX
  5
56A
330
569
100
AcDbEntity
  8
DIBUJOS
 62
     7
100
AcDbVertex
100
AcDb2dVertex
 10
83.4371538705819
 20
31.92157677939291
 30
0.0
  0
VERTEX
  5
56B
330
569
100
AcDbEntity
  8
DIBUJOS
 62
     7
100
AcDbVertex
100
AcDb2dVertex
 10
83.32405441791418
 20
32.12794479341062
 30
0.0
  0
VERTEX
  5
56C
330
569
100
AcDbEntity
  8
DIBUJOS
 62
     7
100
AcDbVertex
100
AcDb2dVertex
 10
83.32223937013352
 20
32.13944443174901
 30
0.0
  0
SEQEND
  5
56D
330
569
100
AcDbEntity
  8
DIBUJOS
 62
     7
  0
POLYLINE
  5
56E
330
52E
100
AcDbEntity
  8
DIBUJOS
 62
     7
100
AcDb2dPolyline
 66
     1
 10
0.0
 20
0.0
 30
0.0
  0
VERTEX
  5
56F
330
56E
100
AcDbEntity
  8
DIBUJOS
 62
     7
100
AcDbVertex
100
AcDb2dVertex
 10
83.44320294462158
 20
31.92157677939291
 30
0.0
  0
VERTEX
  5
570
330
56E
100
AcDbEntity
  8
DIBUJOS
 62
     7
100
AcDbVertex
100
AcDb2dVertex
 10
83.4371538705819
 20
31.92157677939291
 30
0.0
  0
SEQEND
  5
571
330
56E
100
AcDbEntity
  8
DIBUJOS
 62
     7
  0
POLYLINE
  5
572
330
52E
100
AcDbEntity
  8
DIBUJOS
 62
     7
100
AcDb2dPolyline
 66
     1
 10
0.0
 20
0.0
 30
0.0
  0
VERTEX
  5
573
330
572
100
AcDbEntity
  8
DIBUJOS
 62
     7
100
AcDbVertex
100
AcDb2dVertex
 10
83.44320294462158
 20
31.92157677939291
 30
0.0
  0
VERTEX
  5
574
330
572
100
AcDbEntity
  8
DIBUJOS
 62
     7
100
AcDbVertex
100
AcDb2dVertex
 10
83.49251852536008
 20
31.95043989431734
 30
0.0
  0
VERTEX
  5
575
330
572
100
AcDbEntity
  8
DIBUJOS
 62
     7
100
AcDbVertex
100
AcDb2dVertex
 10
83.71536895241306
 20
32.07892473451426
 30
0.0
  0
VERTEX
  5
576
330
572
100
AcDbEntity
  8
DIBUJOS
 62
     7
100
AcDbVertex
100
AcDb2dVertex
 10
83.74560943907387
 20
32.11523655285524
 30
0.0
  0
VERTEX
  5
577
330
572
100
AcDbEntity
  8
DIBUJOS
 62
     7
100
AcDbVertex
100
AcDb2dVertex
 10
83.74137541281551
 20
32.14004873285718
 30
0.0
  0
VERTEX
  5
578
330
572
100
AcDbEntity
  8
DIBUJOS
 62
     7
100
AcDbVertex
100
AcDb2dVertex
 10
83.7347224080788
 20
32.15820545644964
 30
0.0
  0
VERTEX
  5
579
330
572
100
AcDbEntity
  8
DIBUJOS
 62
     7
100
AcDbVertex
100
AcDb2dVertex
 10
83.67303194551896
 20
32.26653335267527
 30
0.0
  0
VERTEX
  5
57A
330
572
100
AcDbEntity
  8
DIBUJOS
 62
     7
100
AcDbVertex
100
AcDb2dVertex
 10
83.63069493862486
 20
32.30284354217169
 30
0.0
  0
VERTEX
  5
57B
330
572
100
AcDbEntity
  8
DIBUJOS
 62
     7
100
AcDbVertex
100
AcDb2dVertex
 10
83.60650189815829
 20
32.30284354217169
 30
0.0
  0
VERTEX
  5
57C
330
572
100
AcDbEntity
  8
DIBUJOS
 62
     7
100
AcDbVertex
100
AcDb2dVertex
 10
83.34736353825154
 20
32.15620360722623
 30
0.0
  0
VERTEX
  5
57D
330
572
100
AcDbEntity
  8
DIBUJOS
 62
     7
100
AcDbVertex
100
AcDb2dVertex
 10
83.32223937013352
 20
32.13944443174901
 30
0.0
  0
SEQEND
  5
57E
330
572
100
AcDbEntity
  8
DIBUJOS
 62
     7
  0
POLYLINE
  5
57F
330
52E
100
AcDbEntity
  8
DIBUJOS
 62
     7
100
AcDb2dPolyline
 66
     1
 10
0.0
 20
0.0
 30
0.0
  0
VERTEX
  5
580
330
57F
100
AcDbEntity
  8
DIBUJOS
 62
     7
100
AcDbVertex
100
AcDb2dVertex
 10
83.4371538705819
 20
31.91552562409159
 30
0.0
  0
VERTEX
  5
581
330
57F
100
AcDbEntity
  8
DIBUJOS
 62
     7
100
AcDbVertex
100
AcDb2dVertex
 10
83.4371538705819
 20
31.92157677939291
 30
0.0
  0
SEQEND
  5
582
330
57F
100
AcDbEntity
  8
DIBUJOS
 62
     7
  0
POLYLINE
  5
583
330
52E
100
AcDbEntity
  8
DIBUJOS
 62
     7
100
AcDb2dPolyline
 66
     1
 10
0.0
 20
0.0
 30
0.0
  0
VERTEX
  5
584
330
583
100
AcDbEntity
  8
DIBUJOS
 62
     7
100
AcDbVertex
100
AcDb2dVertex
 10
79.62682650581081
 20
25.27059398969555
 30
0.0
  0
VERTEX
  5
585
330
583
100
AcDbEntity
  8
DIBUJOS
 62
     7
100
AcDbVertex
100
AcDb2dVertex
 10
79.62077743177113
 20
25.27059398969555
 30
0.0
  0
SEQEND
  5
586
330
583
100
AcDbEntity
  8
DIBUJOS
 62
     7
  0
POLYLINE
  5
587
330
52E
100
AcDbEntity
  8
DIBUJOS
 62
     7
100
AcDb2dPolyline
 66
     1
 10
0.0
 20
0.0
 30
0.0
  0
VERTEX
  5
588
330
587
100
AcDbEntity
  8
DIBUJOS
 62
     7
100
AcDbVertex
100
AcDb2dVertex
 10
79.63287395200506
 20
25.27059398969555
 30
0.0
  0
VERTEX
  5
589
330
587
100
AcDbEntity
  8
DIBUJOS
 62
     7
100
AcDbVertex
100
AcDb2dVertex
 10
79.62682650581081
 20
25.27059398969555
 30
0.0
  0
SEQEND
  5
58A
330
587
100
AcDbEntity
  8
DIBUJOS
 62
     7
  0
POLYLINE
  5
58B
330
52E
100
AcDbEntity
  8
DIBUJOS
 62
     7
100
AcDb2dPolyline
 66
     1
 10
0.0
 20
0.0
 30
0.0
  0
VERTEX
  5
58C
330
58B
100
AcDbEntity
  8
DIBUJOS
 62
     7
100
AcDbVertex
100
AcDb2dVertex
 10
79.63287395200506
 20
25.27059398969555
 30
0.0
  0
VERTEX
  5
58D
330
58B
100
AcDbEntity
  8
DIBUJOS
 62
     7
100
AcDbVertex
100
AcDb2dVertex
 10
79.85657574227655
 20
25.27958765160619
 30
0.0
  0
VERTEX
  5
58E
330
58B
100
AcDbEntity
  8
DIBUJOS
 62
     7
100
AcDbVertex
100
AcDb2dVertex
 10
80.37038402607436
 20
25.35180977825157
 30
0.0
  0
VERTEX
  5
58F
330
58B
100
AcDbEntity
  8
DIBUJOS
 62
     7
100
AcDbVertex
100
AcDb2dVertex
 10
80.40662800709936
 20
25.35777297597913
 30
0.0
  0
VERTEX
  5
590
330
58B
100
AcDbEntity
  8
DIBUJOS
 62
     7
100
AcDbVertex
100
AcDb2dVertex
 10
80.51529809204317
 20
25.38739431776564
 30
0.0
  0
VERTEX
  5
591
330
58B
100
AcDbEntity
  8
DIBUJOS
 62
     7
100
AcDbVertex
100
AcDb2dVertex
 10
80.81279500433627
 20
25.46816868960897
 30
0.0
  0
VERTEX
  5
592
330
58B
100
AcDbEntity
  8
DIBUJOS
 62
     7
100
AcDbVertex
100
AcDb2dVertex
 10
80.98705261407187
 20
25.51993009288505
 30
0.0
  0
VERTEX
  5
593
330
58B
100
AcDbEntity
  8
DIBUJOS
 62
     7
100
AcDbVertex
100
AcDb2dVertex
 10
81.46001662533878
 20
25.71722055952754
 30
0.0
  0
VERTEX
  5
594
330
58B
100
AcDbEntity
  8
DIBUJOS
 62
     7
100
AcDbVertex
100
AcDb2dVertex
 10
81.76242474763653
 20
25.88667245409674
 30
0.0
  0
VERTEX
  5
595
330
58B
100
AcDbEntity
  8
DIBUJOS
 62
     7
100
AcDbVertex
100
AcDb2dVertex
 10
81.9620132618731
 20
26.00165743557579
 30
0.0
  0
VERTEX
  5
596
330
58B
100
AcDbEntity
  8
DIBUJOS
 62
     7
100
AcDbVertex
100
AcDb2dVertex
 10
82.12579731338145
 20
26.12245250345111
 30
0.0
  0
VERTEX
  5
597
330
58B
100
AcDbEntity
  8
DIBUJOS
 62
     7
100
AcDbVertex
100
AcDb2dVertex
 10
82.14998872600258
 20
26.14060759819899
 30
0.0
  0
VERTEX
  5
598
330
58B
100
AcDbEntity
  8
DIBUJOS
 62
     7
100
AcDbVertex
100
AcDb2dVertex
 10
82.43772995995388
 20
26.36143974655737
 30
0.0
  0
VERTEX
  5
599
330
58B
100
AcDbEntity
  8
DIBUJOS
 62
     7
100
AcDbVertex
100
AcDb2dVertex
 10
82.86258136833874
 20
26.77750513164082
 30
0.0
  0
VERTEX
  5
59A
330
58B
100
AcDbEntity
  8
DIBUJOS
 62
     7
100
AcDbVertex
100
AcDb2dVertex
 10
82.92763495979123
 20
26.86341199079379
 30
0.0
  0
VERTEX
  5
59B
330
58B
100
AcDbEntity
  8
DIBUJOS
 62
     7
100
AcDbVertex
100
AcDb2dVertex
 10
83.18770607519488
 20
27.19626299578503
 30
0.0
  0
VERTEX
  5
59C
330
58B
100
AcDbEntity
  8
DIBUJOS
 62
     7
100
AcDbVertex
100
AcDb2dVertex
 10
83.29320837271155
 20
27.36392804853184
 30
0.0
  0
VERTEX
  5
59D
330
58B
100
AcDbEntity
  8
DIBUJOS
 62
     7
100
AcDbVertex
100
AcDb2dVertex
 10
83.40551832029062
 20
27.55307266654408
 30
0.0
  0
VERTEX
  5
59E
330
58B
100
AcDbEntity
  8
DIBUJOS
 62
     7
100
AcDbVertex
100
AcDb2dVertex
 10
83.51698992741534
 20
27.7512475954565
 30
0.0
  0
VERTEX
  5
59F
330
58B
100
AcDbEntity
  8
DIBUJOS
 62
     7
100
AcDbVertex
100
AcDb2dVertex
 10
83.71960297867143
 20
28.21845053657951
 30
0.0
  0
VERTEX
  5
5A0
330
58B
100
AcDbEntity
  8
DIBUJOS
 62
     7
100
AcDbVertex
100
AcDb2dVertex
 10
83.79185978665433
 20
28.45440161454961
 30
0.0
  0
VERTEX
  5
5A1
330
58B
100
AcDbEntity
  8
DIBUJOS
 62
     7
100
AcDbVertex
100
AcDb2dVertex
 10
83.88080363930247
 20
28.76802900315654
 30
0.0
  0
VERTEX
  5
5A2
330
58B
100
AcDbEntity
  8
DIBUJOS
 62
     7
100
AcDbVertex
100
AcDb2dVertex
 10
83.90040941102795
 20
28.85974920639362
 30
0.0
  0
VERTEX
  5
5A3
330
58B
100
AcDbEntity
  8
DIBUJOS
 62
     7
100
AcDbVertex
100
AcDb2dVertex
 10
83.91144945950393
 20
28.93160077103888
 30
0.0
  0
VERTEX
  5
5A4
330
58B
100
AcDbEntity
  8
DIBUJOS
 62
     7
100
AcDbVertex
100
AcDb2dVertex
 10
83.97853134650371
 20
29.37986514347047
 30
0.0
  0
VERTEX
  5
5A5
330
58B
100
AcDbEntity
  8
DIBUJOS
 62
     7
100
AcDbVertex
100
AcDb2dVertex
 10
83.99358403424424
 20
29.93051864705897
 30
0.0
  0
VERTEX
  5
5A6
330
58B
100
AcDbEntity
  8
DIBUJOS
 62
     7
100
AcDbVertex
100
AcDb2dVertex
 10
83.92938017816482
 20
30.53011728272147
 30
0.0
  0
VERTEX
  5
5A7
330
58B
100
AcDbEntity
  8
DIBUJOS
 62
     7
100
AcDbVertex
100
AcDb2dVertex
 10
83.79790886069337
 20
31.07983582987907
 30
0.0
  0
VERTEX
  5
5A8
330
58B
100
AcDbEntity
  8
DIBUJOS
 62
     7
100
AcDbVertex
100
AcDb2dVertex
 10
83.58714844249255
 20
31.63653560223712
 30
0.0
  0
VERTEX
  5
5A9
330
58B
100
AcDbEntity
  8
DIBUJOS
 62
     7
100
AcDbVertex
100
AcDb2dVertex
 10
83.4371538705819
 20
31.91552562409159
 30
0.0
  0
SEQEND
  5
5AA
330
58B
100
AcDbEntity
  8
DIBUJOS
 62
     7
  0
POLYLINE
  5
5AB
330
52E
100
AcDbEntity
  8
DIBUJOS
 62
     7
100
AcDb2dPolyline
 66
     1
 10
0.0
 20
0.0
 30
0.0
  0
VERTEX
  5
5AC
330
5AB
100
AcDbEntity
  8
DIBUJOS
 62
     7
100
AcDbVertex
100
AcDb2dVertex
 10
79.37280446444686
 20
25.26454201997227
 30
0.0
  0
VERTEX
  5
5AD
330
5AB
100
AcDbEntity
  8
DIBUJOS
 62
     7
100
AcDbVertex
100
AcDb2dVertex
 10
79.23382226763842
 20
25.27348274445414
 30
0.0
  0
VERTEX
  5
5AE
330
5AB
100
AcDbEntity
  8
DIBUJOS
 62
     7
100
AcDbVertex
100
AcDb2dVertex
 10
78.71993096371745
 20
25.33371902283991
 30
0.0
  0
VERTEX
  5
5AF
330
5AB
100
AcDbEntity
  8
DIBUJOS
 62
     7
100
AcDbVertex
100
AcDb2dVertex
 10
78.67762976942556
 20
25.339705838805
 30
0.0
  0
VERTEX
  5
5B0
330
5AB
100
AcDbEntity
  8
DIBUJOS
 62
     7
100
AcDbVertex
100
AcDb2dVertex
 10
78.50845266563182
 20
25.38166323030156
 30
0.0
  0
VERTEX
  5
5B1
330
5AB
100
AcDbEntity
  8
DIBUJOS
 62
     7
100
AcDbVertex
100
AcDb2dVertex
 10
78.2181426914128
 20
25.45428523813895
 30
0.0
  0
VERTEX
  5
5B2
330
5AB
100
AcDbEntity
  8
DIBUJOS
 62
     7
100
AcDbVertex
100
AcDb2dVertex
 10
78.07910677570166
 20
25.49632814394337
 30
0.0
  0
VERTEX
  5
5B3
330
5AB
100
AcDbEntity
  8
DIBUJOS
 62
     7
100
AcDbVertex
100
AcDb2dVertex
 10
77.61219021062836
 20
25.68030362565706
 30
0.0
  0
VERTEX
  5
5B4
330
5AB
100
AcDbEntity
  8
DIBUJOS
 62
     7
100
AcDbVertex
100
AcDb2dVertex
 10
77.12382515267451
 20
25.94374551751717
 30
0.0
  0
VERTEX
  5
5B5
330
5AB
100
AcDbEntity
  8
DIBUJOS
 62
     7
100
AcDbVertex
100
AcDb2dVertex
 10
77.03713261041229
 20
26.00141555224813
 30
0.0
  0
VERTEX
  5
5B6
330
5AB
100
AcDbEntity
  8
DIBUJOS
 62
     7
100
AcDbVertex
100
AcDb2dVertex
 10
76.63434990406067
 20
26.29486074980169
 30
0.0
  0
VERTEX
  5
5B7
330
5AB
100
AcDbEntity
  8
DIBUJOS
 62
     7
100
AcDbVertex
100
AcDb2dVertex
 10
76.19753057523991
 20
26.70488149495886
 30
0.0
  0
VERTEX
  5
5B8
330
5AB
100
AcDbEntity
  8
DIBUJOS
 62
     7
100
AcDbVertex
100
AcDb2dVertex
 10
75.83603654325162
 20
27.15365080901741
 30
0.0
  0
VERTEX
  5
5B9
330
5AB
100
AcDbEntity
  8
DIBUJOS
 62
     7
100
AcDbVertex
100
AcDb2dVertex
 10
75.56387053546078
 20
27.58938285604113
 30
0.0
  0
VERTEX
  5
5BA
330
5AB
100
AcDbEntity
  8
DIBUJOS
 62
     7
100
AcDbVertex
100
AcDb2dVertex
 10
75.50078338142441
 20
27.7088846218142
 30
0.0
  0
VERTEX
  5
5BB
330
5AB
100
AcDbEntity
  8
DIBUJOS
 62
     7
100
AcDbVertex
100
AcDb2dVertex
 10
75.30361547351033
 20
28.14582852874211
 30
0.0
  0
VERTEX
  5
5BC
330
5AB
100
AcDbEntity
  8
DIBUJOS
 62
     7
100
AcDbVertex
100
AcDb2dVertex
 10
75.19535234995259
 20
28.48473068903467
 30
0.0
  0
VERTEX
  5
5BD
330
5AB
100
AcDbEntity
  8
DIBUJOS
 62
     7
100
AcDbVertex
100
AcDb2dVertex
 10
75.1309222233424
 20
28.69540699531915
 30
0.0
  0
VERTEX
  5
5BE
330
5AB
100
AcDbEntity
  8
DIBUJOS
 62
     7
100
AcDbVertex
100
AcDb2dVertex
 10
75.06407637394665
 20
29.06469523963598
 30
0.0
  0
VERTEX
  5
5BF
330
5AB
100
AcDbEntity
  8
DIBUJOS
 62
     7
100
AcDbVertex
100
AcDb2dVertex
 10
75.03988333347944
 20
29.2038881000088
 30
0.0
  0
VERTEX
  5
5C0
330
5AB
100
AcDbEntity
  8
DIBUJOS
 62
     7
100
AcDbVertex
100
AcDb2dVertex
 10
75.02706404982503
 20
29.28310692587319
 30
0.0
  0
VERTEX
  5
5C1
330
5AB
100
AcDbEntity
  8
DIBUJOS
 62
     7
100
AcDbVertex
100
AcDb2dVertex
 10
74.99999786197374
 20
29.82158482088125
 30
0.0
  0
VERTEX
  5
5C2
330
5AB
100
AcDbEntity
  8
DIBUJOS
 62
     7
100
AcDbVertex
100
AcDb2dVertex
 10
75.05229728359387
 20
30.44545974688355
 30
0.0
  0
VERTEX
  5
5C3
330
5AB
100
AcDbEntity
  8
DIBUJOS
 62
     7
100
AcDbVertex
100
AcDb2dVertex
 10
75.0989025015025
 20
30.65620609345799
 30
0.0
  0
VERTEX
  5
5C4
330
5AB
100
AcDbEntity
  8
DIBUJOS
 62
     7
100
AcDbVertex
100
AcDb2dVertex
 10
75.18023292054458
 20
31.02045632341462
 30
0.0
  0
VERTEX
  5
5C5
330
5AB
100
AcDbEntity
  8
DIBUJOS
 62
     7
100
AcDbVertex
100
AcDb2dVertex
 10
75.2280134429359
 20
31.15359802848612
 30
0.0
  0
VERTEX
  5
5C6
330
5AB
100
AcDbEntity
  8
DIBUJOS
 62
     7
100
AcDbVertex
100
AcDb2dVertex
 10
75.37982143478115
 20
31.57117498076132
 30
0.0
  0
VERTEX
  5
5C7
330
5AB
100
AcDbEntity
  8
DIBUJOS
 62
     7
100
AcDbVertex
100
AcDb2dVertex
 10
75.55642639779064
 20
31.92157677939291
 30
0.0
  0
SEQEND
  5
5C8
330
5AB
100
AcDbEntity
  8
DIBUJOS
 62
     7
  0
POLYLINE
  5
5C9
330
52E
100
AcDbEntity
  8
DIBUJOS
 62
     7
100
AcDb2dPolyline
 66
     1
 10
0.0
 20
0.0
 30
0.0
  0
VERTEX
  5
5CA
330
5C9
100
AcDbEntity
  8
DIBUJOS
 62
     7
100
AcDbVertex
100
AcDb2dVertex
 10
79.37885191064045
 20
25.26454201997227
 30
0.0
  0
VERTEX
  5
5CB
330
5C9
100
AcDbEntity
  8
DIBUJOS
 62
     7
100
AcDbVertex
100
AcDb2dVertex
 10
79.37280446444686
 20
25.26454201997227
 30
0.0
  0
SEQEND
  5
5CC
330
5C9
100
AcDbEntity
  8
DIBUJOS
 62
     7
  0
POLYLINE
  5
5CD
330
52E
100
AcDbEntity
  8
DIBUJOS
 62
     7
100
AcDb2dPolyline
 66
     1
 10
0.0
 20
0.0
 30
0.0
  0
VERTEX
  5
5CE
330
5CD
100
AcDbEntity
  8
DIBUJOS
 62
     7
100
AcDbVertex
100
AcDb2dVertex
 10
79.37885191064045
 20
25.26454201997227
 30
0.0
  0
VERTEX
  5
5CF
330
5CD
100
AcDbEntity
  8
DIBUJOS
 62
     7
100
AcDbVertex
100
AcDb2dVertex
 10
79.40251101776902
 20
25.27272940412382
 30
0.0
  0
VERTEX
  5
5D0
330
5CD
100
AcDbEntity
  8
DIBUJOS
 62
     7
100
AcDbVertex
100
AcDb2dVertex
 10
79.40909239730127
 20
25.27664514499687
 30
0.0
  0
VERTEX
  5
5D1
330
5CD
100
AcDbEntity
  8
DIBUJOS
 62
     7
100
AcDbVertex
100
AcDb2dVertex
 10
79.61472998557753
 20
25.27664514499687
 30
0.0
  0
VERTEX
  5
5D2
330
5CD
100
AcDbEntity
  8
DIBUJOS
 62
     7
100
AcDbVertex
100
AcDb2dVertex
 10
79.62077743177113
 20
25.27059398969555
 30
0.0
  0
SEQEND
  5
5D3
330
5CD
100
AcDbEntity
  8
DIBUJOS
 62
     7
  0
POLYLINE
  5
5D4
330
52E
100
AcDbEntity
  8
DIBUJOS
 62
     7
100
AcDb2dPolyline
 66
     1
 10
0.0
 20
0.0
 30
0.0
  0
VERTEX
  5
5D5
330
5D4
100
AcDbEntity
  8
DIBUJOS
 62
     7
100
AcDbVertex
100
AcDb2dVertex
 10
79.62682650581081
 20
25.26454201997227
 30
0.0
  0
VERTEX
  5
5D6
330
5D4
100
AcDbEntity
  8
DIBUJOS
 62
     7
100
AcDbVertex
100
AcDb2dVertex
 10
79.62682650581081
 20
25.27059398969555
 30
0.0
  0
SEQEND
  5
5D7
330
5D4
100
AcDbEntity
  8
DIBUJOS
 62
     7
  0
POLYLINE
  5
5D8
330
52E
100
AcDbEntity
  8
DIBUJOS
 62
     7
100
AcDb2dPolyline
 66
     1
 10
0.0
 20
0.0
 30
0.0
  0
VERTEX
  5
5D9
330
5D8
100
AcDbEntity
  8
DIBUJOS
 62
     7
100
AcDbVertex
100
AcDb2dVertex
 10
79.37885191064045
 20
25.25849005024898
 30
0.0
  0
VERTEX
  5
5DA
330
5D8
100
AcDbEntity
  8
DIBUJOS
 62
     7
100
AcDbVertex
100
AcDb2dVertex
 10
79.37885191064045
 20
25.26454201997227
 30
0.0
  0
SEQEND
  5
5DB
330
5D8
100
AcDbEntity
  8
DIBUJOS
 62
     7
  0
POLYLINE
  5
5DC
330
52E
100
AcDbEntity
  8
DIBUJOS
 62
     7
100
AcDb2dPolyline
 66
     1
 10
0.0
 20
0.0
 30
0.0
  0
VERTEX
  5
5DD
330
5DC
100
AcDbEntity
  8
DIBUJOS
 62
     7
100
AcDbVertex
100
AcDb2dVertex
 10
79.37885191064045
 20
25.25849005024898
 30
0.0
  0
VERTEX
  5
5DE
330
5DC
100
AcDbEntity
  8
DIBUJOS
 62
     7
100
AcDbVertex
100
AcDb2dVertex
 10
79.37885191064045
 20
24.95589726503088
 30
0.0
  0
VERTEX
  5
5DF
330
5DC
100
AcDbEntity
  8
DIBUJOS
 62
     7
100
AcDbVertex
100
AcDb2dVertex
 10
79.40909239730127
 20
24.92563823083579
 30
0.0
  0
VERTEX
  5
5E0
330
5DC
100
AcDbEntity
  8
DIBUJOS
 62
     7
100
AcDbVertex
100
AcDb2dVertex
 10
79.43933288396208
 20
24.91958626111251
 30
0.0
  0
VERTEX
  5
5E1
330
5DC
100
AcDbEntity
  8
DIBUJOS
 62
     7
100
AcDbVertex
100
AcDb2dVertex
 10
79.56634390464374
 20
24.91958626111251
 30
0.0
  0
VERTEX
  5
5E2
330
5DC
100
AcDbEntity
  8
DIBUJOS
 62
     7
100
AcDbVertex
100
AcDb2dVertex
 10
79.57292691202208
 20
24.92350200198555
 30
0.0
  0
VERTEX
  5
5E3
330
5DC
100
AcDbEntity
  8
DIBUJOS
 62
     7
100
AcDbVertex
100
AcDb2dVertex
 10
79.6026334653436
 20
24.93169020055907
 30
0.0
  0
VERTEX
  5
5E4
330
5DC
100
AcDbEntity
  8
DIBUJOS
 62
     7
100
AcDbVertex
100
AcDb2dVertex
 10
79.61472998557753
 20
24.94379414000564
 30
0.0
  0
VERTEX
  5
5E5
330
5DC
100
AcDbEntity
  8
DIBUJOS
 62
     7
100
AcDbVertex
100
AcDb2dVertex
 10
79.62386382692182
 20
24.96806065728191
 30
0.0
  0
VERTEX
  5
5E6
330
5DC
100
AcDbEntity
  8
DIBUJOS
 62
     7
100
AcDbVertex
100
AcDb2dVertex
 10
79.62682650581081
 20
25.26454201997227
 30
0.0
  0
SEQEND
  5
5E7
330
5DC
100
AcDbEntity
  8
DIBUJOS
 62
     7
  0
ENDBLK
  5
531
330
52E
100
AcDbEntity
  8
0
100
AcDbBlockEnd
  0
ENDSEC
  0
SECTION
  2
ENTITIES
  0
MTEXT
  5
41
330
1F
100
AcDbEntity
  8
REFERENCIAS
 62
   255
100
AcDbMText
 10
40.93094530141956
 20
54.85563098807646
 30
0.0
 40
1.49859999962535
 41
0.0
 71
     7
 72
     1
  1
\fMyriad Pro|b0|i0|c0|p34;\W1;UMBRA_1128-S_1128-M_1128-L__AUXILIARY_TABLE
  0
MTEXT
  5
43
330
1F
100
AcDbEntity
  8
M_U_00C1RGENES
 62
   255
100
AcDbMText
 10
110.1384430504005
 20
23.7555119243149
 30
0.0
 40
1.748366666229575
 41
0.0
 71
     7
 72
     1
  1
\fMyriad Pro|b0|i0|c0|p34;\W1;400
  0
MTEXT
  5
44
330
1F
100
AcDbEntity
  8
M_U_00C1RGENES
 62
   255
100
AcDbMText
 10
104.2089331048478
 20
20.50332059082737
 30
0.0
 40
1.748366666229575
 41
0.0
 71
     7
 72
     1
  1
\fMyriad Pro|b0|i0|c0|p34;\W1;800
  0
MTEXT
  5
45
330
1F
100
AcDbEntity
  8
M_U_00C1RGENES
 62
   255
100
AcDbMText
 10
70.34154512978061
 20
20.50332059082737
 30
0.0
 40
1.748366666229575
 41
0.0
 71
     7
 72
     1
  1
\fMyriad Pro|b0|i0|c0|p34;\W1;400
  0
POLYLINE
  5
46
330
1F
100
AcDbEntity
  8
M_U_00C1RGENES
 62
   255
100
AcDb2dPolyline
 66
     1
 10
0.0
 20
0.0
 30
0.0
  0
VERTEX
  5
47
330
46
100
AcDbEntity
  8
M_U_00C1RGENES
 62
   255
100
AcDbVertex
100
AcDb2dVertex
 10
74.98114844115133
 20
20.88258920325216
 30
0.0
  0
VERTEX
  5
48
330
46
100
AcDbEntity
  8
M_U_00C1RGENES
 62
   255
100
AcDbVertex
100
AcDb2dVertex
 10
74.98114844115133
 20
19.74726776251925
 30
0.0
  0
SEQEND
  5
49
330
46
100
AcDbEntity
  8
M_U_00C1RGENES
 62
   255
  0
POLYLINE
  5
4A
330
1F
100
AcDbEntity
  8
M_U_00C1RGENES
 62
   255
100
AcDb2dPolyline
 66
     1
 10
0.0
 20
0.0
 30
0.0
  0
VERTEX
  5
4B
330
4A
100
AcDbEntity
  8
M_U_00C1RGENES
 62
   255
100
AcDbVertex
100
AcDb2dVertex
 10
104.4138297671496
 20
24.76314475783758
 30
0.0
  0
VERTEX
  5
4C
330
4A
100
AcDbEntity
  8
M_U_00C1RGENES
 62
   255
100
AcDbVertex
100
AcDb2dVertex
 10
114.9971630978371
 20
19.74726776251925
 30
0.0
  0
SEQEND
  5
4D
330
4A
100
AcDbEntity
  8
M_U_00C1RGENES
 62
   255
  0
POLYLINE
  5
4E
330
1F
100
AcDbEntity
  8
M_U_00C1RGENES
 62
   254
100
AcDb2dPolyline
 66
     1
 10
0.0
 20
0.0
 30
0.0
  0
VERTEX
  5
4F
330
4E
100
AcDbEntity
  8
M_U_00C1RGENES
 62
   254
100
AcDbVertex
100
AcDb2dVertex
 10
34.99999779751944
 20
20.88258920325216
 30
0.0
  0
VERTEX
  5
50
330
4E
100
AcDbEntity
  8
M_U_00C1RGENES
 62
   254
100
AcDbVertex
100
AcDb2dVertex
 10
34.99999779751944
 20
19.74726776251925
 30
0.0
  0
SEQEND
  5
51
330
4E
100
AcDbEntity
  8
M_U_00C1RGENES
 62
   254
  0
POLYLINE
  5
52
330
1F
100
AcDbEntity
  8
M_U_00C1RGENES
 62
   255
100
AcDb2dPolyline
 66
     1
 10
0.0
 20
0.0
 30
0.0
  0
VERTEX
  5
53
330
52
100
AcDbEntity
  8
M_U_00C1RGENES
 62
   255
100
AcDbVertex
100
AcDb2dVertex
 10
114.9999978516528
 20
59.74999886675599
 30
0.0
  0
VERTEX
  5
54
330
52
100
AcDbEntity
  8
M_U_00C1RGENES
 62
   255
100
AcDbVertex
100
AcDb2dVertex
 10
113.8646764109199
 20
59.7499988667053
 30
0.0
  0
SEQEND
  5
55
330
52
100
AcDbEntity
  8
M_U_00C1RGENES
 62
   255
  0
INSERT
  5
58
330
1F
100
AcDbEntity
  8
DIBUJOS
100
AcDbBlockReference
  2
BLOCK_2
 10
0.0
 20
0.0
 30
0.0
  0
INSERT
  5
187
330
1F
100
AcDbEntity
  8
DIBUJOS
100
AcDbBlockReference
  2
BLOCK_3
 10
0.0
 20
0.0
 30
0.0
  0
INSERT
  5
248
330
1F
100
AcDbEntity
  8
DIBUJOS
100
AcDbBlockReference
  2
BLOCK_4
 10
0.0
 20
0.0
 30
0.0
  0
INSERT
  5
355
330
1F
100
AcDbEntity
  8
DIBUJOS
100
AcDbBlockReference
  2
BLOCK_5
 10
0.0
 20
0.0
 30
0.0
  0
INSERT
  5
412
330
1F
100
AcDbEntity
  8
DIBUJOS
100
AcDbBlockReference
  2
BLOCK_6
 10
0.0
 20
0.0
 30
0.0
  0
INSERT
  5
52F
330
1F
100
AcDbEntity
  8
DIBUJOS
100
AcDbBlockReference
  2
BLOCK_7
 10
0.0
 20
0.0
 30
0.0
  0
POLYLINE
  5
5E9
330
1F
100
AcDbEntity
  8
COTAS_LINEA
 62
     7
100
AcDb2dPolyline
 66
     1
 10
0.0
 20
0.0
 30
0.0
  0
VERTEX
  5
5EA
330
5E9
100
AcDbEntity
  8
COTAS_LINEA
 62
     7
100
AcDbVertex
100
AcDb2dVertex
 10
42.06341795695682
 20
39.36675131169094
 30
0.0
  0
VERTEX
  5
5EB
330
5E9
100
AcDbEntity
  8
COTAS_LINEA
 62
     7
100
AcDbVertex
100
AcDb2dVertex
 10
47.25272259246741
 20
39.36675131169094
 30
0.0
  0
SEQEND
  5
5EC
330
5E9
100
AcDbEntity
  8
COTAS_LINEA
 62
     7
  0
POLYLINE
  5
5ED
330
1F
100
AcDbEntity
  8
COTAS_LINEA
 62
     7
100
AcDb2dPolyline
 66
     1
 10
0.0
 20
0.0
 30
0.0
  0
VERTEX
  5
5EE
330
5ED
100
AcDbEntity
  8
COTAS_LINEA
 62
     7
100
AcDbVertex
100
AcDb2dVertex
 10
48.82351245475937
 20
49.34007944467039
 30
0.0
  0
VERTEX
  5
5EF
330
5ED
100
AcDbEntity
  8
COTAS_LINEA
 62
     7
100
AcDbVertex
100
AcDb2dVertex
 10
48.82351245571422
 20
42.77557069156381
 30
0.0
  0
SEQEND
  5
5F0
330
5ED
100
AcDbEntity
  8
COTAS_LINEA
 62
     7
  0
POLYLINE
  5
5F1
330
1F
100
AcDbEntity
  8
COTAS_LINEA
 62
     7
100
AcDb2dPolyline
 66
     1
 10
0.0
 20
0.0
 30
0.0
  0
VERTEX
  5
5F2
330
5F1
100
AcDbEntity
  8
COTAS_LINEA
 62
     7
100
AcDbVertex
100
AcDb2dVertex
 10
48.82351245475937
 20
34.26666903238251
 30
0.0
  0
VERTEX
  5
5F3
330
5F1
100
AcDbEntity
  8
COTAS_LINEA
 62
     7
100
AcDbVertex
100
AcDb2dVertex
 10
48.82351245571422
 20
30.00616704749133
 30
0.0
  0
SEQEND
  5
5F4
330
5F1
100
AcDbEntity
  8
COTAS_LINEA
 62
     7
  0
POLYLINE
  5
5F6
330
1F
100
AcDbEntity
  8
COTAS_N_U_00DAMERO
 62
     7
100
AcDb2dPolyline
 66
     1
 10
0.0
 20
0.0
 30
0.0
  0
VERTEX
  5
5F7
330
5F6
100
AcDbEntity
  8
COTAS_N_U_00DAMERO
 62
     7
100
AcDbVertex
100
AcDb2dVertex
 10
66.238418121615
 20
46.9755546080725
 30
0.0
  0
VERTEX
  5
5F8
330
5F6
100
AcDbEntity
  8
COTAS_N_U_00DAMERO
 62
     7
100
AcDbVertex
100
AcDb2dVertex
 10
66.2384181225692
 20
42.77557069156381
 30
0.0
  0
SEQEND
  5
5F9
330
5F6
100
AcDbEntity
  8
COTAS_N_U_00DAMERO
 62
     7
  0
POLYLINE
  5
5FA
330
1F
100
AcDbEntity
  8
COTAS_N_U_00DAMERO
 62
     7
100
AcDb2dPolyline
 66
     1
 10
0.0
 20
0.0
 30
0.0
  0
VERTEX
  5
5FB
330
5FA
100
AcDbEntity
  8
COTAS_N_U_00DAMERO
 62
     7
100
AcDbVertex
100
AcDb2dVertex
 10
58.54990636091887
 20
39.36675131169094
 30
0.0
  0
VERTEX
  5
5FC
330
5FA
100
AcDbEntity
  8
COTAS_N_U_00DAMERO
 62
     7
100
AcDbVertex
100
AcDb2dVertex
 10
63.73921098676644
 20
39.36675131169094
 30
0.0
  0
SEQEND
  5
5FD
330
5FA
100
AcDbEntity
  8
COTAS_N_U_00DAMERO
 62
     7
  0
MTEXT
  5
5FE
330
1F
100
AcDbEntity
  8
COTAS_N_U_00DAMERO
 62
     7
100
AcDbMText
 10
59.66536647576563
 20
39.92172341938155
 30
0.0
 40
1.998533025814148
 41
0.0
 71
     7
 72
     1
  1
\fMyriad Pro|b0|i0|c0|p34;\W1;60
  0
MTEXT
  5
5FF
330
1F
100
AcDbEntity
  8
COTAS_N_U_00DAMERO
 62
     7
100
AcDbMText
 10
66.66096121922887
 20
45.01917282674434
 30
0.0
 40
1.998533025814148
 41
0.0
 71
     7
 72
     1
  1
\fMyriad Pro|b0|i0|c0|p34;\W1;42
  0
POLYLINE
  5
600
330
1F
100
AcDbEntity
  8
COTAS_N_U_00DAMERO
 62
     7
100
AcDb2dPolyline
 66
     1
 10
0.0
 20
0.0
 30
0.0
  0
VERTEX
  5
601
330
600
100
AcDbEntity
  8
COTAS_N_U_00DAMERO
 62
     7
100
AcDbVertex
100
AcDb2dVertex
 10
85.88396730189275
 20
46.92714047913497
 30
0.0
  0
VERTEX
  5
602
330
600
100
AcDbEntity
  8
COTAS_N_U_00DAMERO
 62
     7
100
AcDbVertex
100
AcDb2dVertex
 10
85.88396730284761
 20
42.77557069156381
 30
0.0
  0
SEQEND
  5
603
330
600
100
AcDbEntity
  8
COTAS_N_U_00DAMERO
 62
     7
  0
POLYLINE
  5
604
330
1F
100
AcDbEntity
  8
COTAS_N_U_00DAMERO
 62
     7
100
AcDb2dPolyline
 66
     1
 10
0.0
 20
0.0
 30
0.0
  0
VERTEX
  5
605
330
604
100
AcDbEntity
  8
COTAS_N_U_00DAMERO
 62
     7
100
AcDbVertex
100
AcDb2dVertex
 10
76.94584579643954
 20
39.36675131169094
 30
0.0
  0
VERTEX
  5
606
330
604
100
AcDbEntity
  8
COTAS_N_U_00DAMERO
 62
     7
100
AcDbVertex
100
AcDb2dVertex
 10
82.13515042228711
 20
39.36675131169094
 30
0.0
  0
SEQEND
  5
607
330
604
100
AcDbEntity
  8
COTAS_N_U_00DAMERO
 62
     7
  0
MTEXT
  5
608
330
1F
100
AcDbEntity
  8
COTAS_N_U_00DAMERO
 62
     7
100
AcDbMText
 10
78.06130432720505
 20
39.92172341938155
 30
0.0
 40
1.998533025814148
 41
0.0
 71
     7
 72
     1
  1
\fMyriad Pro|b0|i0|c0|p34;\W1;90
  0
MTEXT
  5
609
330
1F
100
AcDbEntity
  8
COTAS_N_U_00DAMERO
 62
     7
100
AcDbMText
 10
86.30650518167045
 20
45.01917282674434
 30
0.0
 40
1.998533025814148
 41
0.0
 71
     7
 72
     1
  1
\fMyriad Pro|b0|i0|c0|p34;\W1;40
  0
MTEXT
  5
60A
330
1F
100
AcDbEntity
  8
COTAS_N_U_00DAMERO
 62
     7
100
AcDbMText
 10
43.0900808438553
 20
39.92172341938155
 30
0.0
 40
1.998533025814148
 41
0.0
 71
     7
 72
     1
  1
\fMyriad Pro|b0|i0|c0|p34;\W1;40
  0
MTEXT
  5
60B
330
1F
100
AcDbEntity
  8
COTAS_N_U_00DAMERO
 62
     7
100
AcDbMText
 10
49.24604929646534
 20
45.69285048296155
 30
0.0
 40
1.998533025814148
 41
0.0
 71
     7
 72
     1
  1
\fMyriad Pro|b0|i0|c0|p34;\W1;62
  0
POLYLINE
  5
60C
330
1F
100
AcDbEntity
  8
COTAS_N_U_00DAMERO
 62
     7
100
AcDb2dPolyline
 66
     1
 10
0.0
 20
0.0
 30
0.0
  0
VERTEX
  5
60D
330
60C
100
AcDbEntity
  8
COTAS_N_U_00DAMERO
 62
     7
100
AcDbVertex
100
AcDb2dVertex
 10
66.238418121615
 20
34.26364264031053
 30
0.0
  0
VERTEX
  5
60E
330
60C
100
AcDbEntity
  8
COTAS_N_U_00DAMERO
 62
     7
100
AcDbVertex
100
AcDb2dVertex
 10
66.2384181225692
 20
27.92735494721165
 30
0.0
  0
SEQEND
  5
60F
330
60C
100
AcDbEntity
  8
COTAS_N_U_00DAMERO
 62
     7
  0
MTEXT
  5
610
330
1F
100
AcDbEntity
  8
COTAS_N_U_00DAMERO
 62
     7
100
AcDbMText
 10
66.66096121922887
 20
31.26419308198701
 30
0.0
 40
1.998533025814148
 41
0.0
 71
     7
 72
     1
  1
\fMyriad Pro|b0|i0|c0|p34;\W1;63
  0
POLYLINE
  5
611
330
1F
100
AcDbEntity
  8
COTAS_N_U_00DAMERO
 62
     7
100
AcDb2dPolyline
 66
     1
 10
0.0
 20
0.0
 30
0.0
  0
VERTEX
  5
612
330
611
100
AcDbEntity
  8
COTAS_N_U_00DAMERO
 62
     7
100
AcDbVertex
100
AcDb2dVertex
 10
85.88396730189275
 20
34.26364264031053
 30
0.0
  0
VERTEX
  5
613
330
611
100
AcDbEntity
  8
COTAS_N_U_00DAMERO
 62
     7
100
AcDbVertex
100
AcDb2dVertex
 10
85.88396730284761
 20
24.91958626111251
 30
0.0
  0
SEQEND
  5
614
330
611
100
AcDbEntity
  8
COTAS_N_U_00DAMERO
 62
     7
  0
MTEXT
  5
615
330
1F
100
AcDbEntity
  8
COTAS_N_U_00DAMERO
 62
     7
100
AcDbMText
 10
86.30650518167045
 20
31.26419308198701
 30
0.0
 40
1.998533025814148
 41
0.0
 71
     7
 72
     1
  1
\fMyriad Pro|b0|i0|c0|p34;\W1;93
  0
MTEXT
  5
616
330
1F
100
AcDbEntity
  8
COTAS_N_U_00DAMERO
 62
     7
100
AcDbMText
 10
49.24604929646534
 20
31.93787073820423
 30
0.0
 40
1.998533025814148
 41
0.0
 71
     7
 72
     1
  1
\fMyriad Pro|b0|i0|c0|p34;\W1;43
  0
ENDSEC
  0
SECTION
  2
OBJECTS
  0
DICTIONARY
  5
C
330
0
100
AcDbDictionary
  3
ACAD_GROUP
350
D
  3
ACAD_LAYOUT
350
1A
  3
ACAD_MATERIAL
350
3B
  3
ACAD_MLEADERSTYLE
350
639
  3
ACAD_MLINESTYLE
350
17
  3
ACAD_PLOTSETTINGS
350
19
  3
ACAD_VISUALSTYLE
350
2A
  3
ACDBHEADERROUNDTRIPXREC
350
617
  3
ACDBVARIABLEDICTIONARY
350
637
  0
DICTIONARY
  5
D
102
{ACAD_REACTORS
330
C
102
}
330
C
100
AcDbDictionary
  0
DICTIONARY
  5
1A
102
{ACAD_REACTORS
330
C
102
}
330
C
100
AcDbDictionary
  0
DICTIONARY
  5
3B
102
{ACAD_REACTORS
330
C
102
}
330
C
100
AcDbDictionary
  3
BYBLOCK
350
3D
  3
BYLAYER
350
3C
  3
GLOBAL
350
3E
  0
DICTIONARY
  5
639
102
{ACAD_REACTORS
330
C
102
}
330
C
100
AcDbDictionary
  0
DICTIONARY
  5
17
102
{ACAD_REACTORS
330
C
102
}
330
C
100
AcDbDictionary
  3
STANDARD
350
18
  0
DICTIONARY
  5
19
102
{ACAD_REACTORS
330
C
102
}
330
C
100
AcDbDictionary
  0
DICTIONARY
  5
2A
102
{ACAD_REACTORS
330
C
102
}
330
C
100
AcDbDictionary
  3
2DWIREFRAME
350
2F
  3
3D_HIDDEN
350
31
  3
3DWIREFRAME
350
30
  3
BASIC
350
32
  3
BRIGHTEN
350
36
  3
COLORCHANGE
350
3A
  3
CONCEPTUAL
350
34
  3
DIM
350
35
  3
FACEPATTERN
350
39
  3
FLAT
350
2B
  3
FLATWITHEDGES
350
2C
  3
GOURAUD
350
2D
  3
GOURAUDWITHEDGES
350
2E
  3
LINEPATTERN
350
38
  3
REALISTIC
350
33
  3
THICKEN
350
37
  0
DICTIONARY
  5
617
102
{ACAD_REACTORS
330
C
102
}
330
C
100
AcDbDictionary
  3
CEPSNTYPE
350
620
  3
DIMSTYLEDATA
350
636
  3
FINGERPRINTGUID
350
621
  3
HYPERLINKBASE
350
61A
  3
INSUNITS
350
61F
  3
LAYOUTDICT
350
61C
  3
LWETCUNION
350
61E
  3
PLOTSETDICT
350
61D
  3
PSVPSCALE
350
623
  3
PUCSBASE
350
626
  3
PUCSORGBACK
350
62C
  3
PUCSORGBOTTOM
350
628
  3
PUCSORGFRONT
350
62B
  3
PUCSORGLEFT
350
629
  3
PUCSORGRIGHT
350
62A
  3
PUCSORGTOP
350
627
  3
PUCSORTHOREF
350
624
  3
PUCSORTHOVIEW
350
625
  3
STYLESHEET
350
61B
  3
TSTACKALIGN
350
618
  3
TSTACKSIZE
350
619
  3
UCSBASE
350
62F
  3
UCSORGBACK
350
635
  3
UCSORGBOTTOM
350
631
  3
UCSORGFRONT
350
634
  3
UCSORGLEFT
350
632
  3
UCSORGRIGHT
350
633
  3
UCSORGTOP
350
630
  3
UCSORTHOREF
350
62D
  3
UCSORTHOVIEW
350
62E
  3
VERSIONGUID
350
622
  0
DICTIONARY
  5
637
102
{ACAD_REACTORS
330
C
102
}
330
C
100
AcDbDictionary
  3
DIMASSOC
350
63A
  3
HIDETEXT
350
63B
  0
MATERIAL
  5
3D
102
{ACAD_REACTORS
330
3B
102
}
102
{ACAD_XDICTIONARY
360
63E
102
}
330
3B
100
AcDbMaterial
  1
ByBlock
  0
MATERIAL
  5
3C
102
{ACAD_REACTORS
330
3B
102
}
102
{ACAD_XDICTIONARY
360
63C
102
}
330
3B
100
AcDbMaterial
  1
ByLayer
  0
MATERIAL
  5
3E
102
{ACAD_REACTORS
330
3B
102
}
102
{ACAD_XDICTIONARY
360
640
102
}
330
3B
100
AcDbMaterial
  1
Global
  0
MLINESTYLE
  5
18
102
{ACAD_REACTORS
330
17
102
}
330
17
100
AcDbMlineStyle
  2
Standard
 70
     0
  3

 62
   256
 51
90.0
 52
90.0
 71
     2
 49
0.5
 62
   256
  6
BYLAYER
 49
-0.5
 62
   256
  6
BYLAYER
  0
ACAD_PROXY_OBJECT
  5
2F
102
{ACAD_REACTORS
330
2A
102
}
330
2A
100
AcDbProxyObject
 90
      499
 91
      501
 93
      436
310
42CC9915DA5C99599C985B595049028333333333333E3BF0000000000000FB0107901411070040501600405405064090741402480A0340
1001
ACAD
1000
AcDbSavedByObjectVersion
1070
     0
  0
ACAD_PROXY_OBJECT
  5
31
102
{ACAD_REACTORS
330
2A
102
}
330
2A
100
AcDbProxyObject
 90
      499
 91
      501
 93
      500
310
424CD108121A5919195B90640502408333333333333E3BF0000000000000FB01079024090700405020000000000001110200405405064090740C02480A0340
1001
ACAD
1000
AcDbSavedByObjectVersion
1070
     0
  0
ACAD_PROXY_OBJECT
  5
30
102
{ACAD_REACTORS
330
2A
102
}
330
2A
100
AcDbProxyObject
 90
      499
 91
      501
 93
      436
310
42CCD915DA5C99599C985B595059028333333333333E3BF0000000000000FB0107901411070040501600405405064090741402480A0340
1001
ACAD
1000
AcDbSavedByObjectVersion
1070
     0
  0
ACAD_PROXY_OBJECT
  5
32
102
{ACAD_REACTORS
330
2A
102
}
330
2A
100
AcDbProxyObject
 90
      499
 91
      501
 93
      388
310
4150985CDA58D07406404333333333333E3BF0000000000000FB0107A41107004050150841D405064090741402480A0350
1001
ACAD
1000
AcDbSavedByObjectVersion
1070
     0
  0
ACAD_PROXY_OBJECT
  5
36
102
{ACAD_REACTORS
330
2A
102
}
330
2A
100
AcDbProxyObject
 90
      499
 91
      501
 93
      428
310
42109C9A59DA1D195B90C409028333333333333E3BF0000000000000FB010790141107004050150841D405064090741402480A029950
1001
ACAD
1000
AcDbSavedByObjectVersion
1070
     0
  0
ACAD_PROXY_OBJECT
  5
3A
102
{ACAD_REACTORS
330
2A
102
}
330
2A
100
AcDbProxyObject
 90
      499
 91
      501
 93
      452
310
42D0DBDB1BDC90DA185B99D95104090240C333333333333E3BF0000000000000FB0108901411070040501508421405064090741402480A0350
1001
ACAD
1000
AcDbSavedByObjectVersion
1070
     0
  0
ACAD_PROXY_OBJECT
  5
34
102
{ACAD_REACTORS
330
2A
102
}
330
2A
100
AcDbProxyObject
 90
      499
 91
      501
 93
      500
310
4290DBDB98D95C1D1D585B10940D028333333333333E3BF0000000000000FB0107902409070040501000000000000111010841D405064090740C02480A0340
1001
ACAD
1000
AcDbSavedByObjectVersion
1070
     0
  0
ACAD_PROXY_OBJECT
  5
35
102
{ACAD_REACTORS
330
2A
102
}
330
2A
100
AcDbProxyObject
 90
      499
 91
      501
 93
      412
310
40D11A5B50B409028333333333333E3BF0000000000000FB010790141107004050150841D405064090741402480A02677FFFFFD0
1001
ACAD
1000
AcDbSavedByObjectVersion
1070
     0
  0
ACAD_PROXY_OBJECT
  5
39
102
{ACAD_REACTORS
330
2A
102
}
330
2A
100
AcDbProxyObject
 90
      499
 91
      501
 93
      444
310
42D19858D95C185D1D195C9B90F409028333333333333E3BF0000000000000FB010790141107004050150841D405064090741402480A0350
1001
ACAD
1000
AcDbSavedByObjectVersion
1070
     0
  0
ACAD_PROXY_OBJECT
  5
2B
102
{ACAD_REACTORS
330
2A
102
}
330
2A
100
AcDbProxyObject
 90
      499
 91
      501
 93
      388
310
41119B185D240901404333333333333E3BF0000000000000F9010740A41107004050150841D405064090741402480A1B50
1001
ACAD
1000
AcDbSavedByObjectVersion
1070
     0
  0
ACAD_PROXY_OBJECT
  5
2C
102
{ACAD_REACTORS
330
2A
102
}
330
2A
100
AcDbProxyObject
 90
      499
 91
      501
 93
      476
310
43519B185D15DA5D1A115919D95CD0140901404333333333333E3BF0000000000000F9010740901411070040501600405405064090741402480A1B50
1001
ACAD
1000
AcDbSavedByObjectVersion
1070
     0
  0
ACAD_PROXY_OBJECT
  5
2D
102
{ACAD_REACTORS
330
2A
102
}
330
2A
100
AcDbProxyObject
 90
      499
 91
      501
 93
      412
310
41D1DBDD5C985D5910240902404333333333333E3BF0000000000000F9010740A411070040501641D405064090741402480A1B50
1001
ACAD
1000
AcDbSavedByObjectVersion
1070
     0
  0
ACAD_PROXY_OBJECT
  5
2E
102
{ACAD_REACTORS
330
2A
102
}
330
2A
100
AcDbProxyObject
 90
      499
 91
      501
 93
      500
310
4411DBDD5C985D5915DA5D1A115919D95CD0340902404333333333333E3BF0000000000000F9010740901411070040501600405405064090741402480A1B50
1001
ACAD
1000
AcDbSavedByObjectVersion
1070
     0
  0
ACAD_PROXY_OBJECT
  5
38
102
{ACAD_REACTORS
330
2A
102
}
330
2A
100
AcDbProxyObject
 90
      499
 91
      501
 93
      444
310
42D31A5B995C185D1D195C9B90E409028333333333333E3BF0000000000000FB010790141107004050750841D405064090741402483A0350
1001
ACAD
1000
AcDbSavedByObjectVersion
1070
     0
  0
ACAD_PROXY_OBJECT
  5
33
102
{ACAD_REACTORS
330
2A
102
}
330
2A
100
AcDbProxyObject
 90
      499
 91
      501
 93
      420
310
425499585B1A5CDD1A58D08409028333333333333E3BF0000000000000FB01079019070040501508421405064090741402480A1B40
1001
ACAD
1000
AcDbSavedByObjectVersion
1070
     0
  0
ACAD_PROXY_OBJECT
  5
37
102
{ACAD_REACTORS
330
2A
102
}
330
2A
100
AcDbProxyObject
 90
      499
 91
      501
 93
      412
310
41D51A1A58DAD95B90D409028333333333333E3BF0000000000000FB010790141107004050150C41D405064090741402480A0350
1001
ACAD
1000
AcDbSavedByObjectVersion
1070
     0
  0
XRECORD
  5
620
102
{ACAD_REACTORS
330
617
102
}
330
617
100
AcDbXrecord
 90
        0
  0
XRECORD
  5
636
102
{ACAD_REACTORS
330
617
102
}
330
617
100
AcDbXrecord
1000
DSTYLE
1002
{
1070
   340
340
11
1002
}
  0
XRECORD
  5
621
102
{ACAD_REACTORS
330
617
102
}
330
617
100
AcDbXrecord
  1
{E3A10805-8037-413B-A650-A47470B857ED}
  0
XRECORD
  5
61A
102
{ACAD_REACTORS
330
617
102
}
330
617
100
AcDbXrecord
  1

  0
XRECORD
  5
61F
102
{ACAD_REACTORS
330
617
102
}
330
617
100
AcDbXrecord
 90
        1
  0
XRECORD
  5
61C
102
{ACAD_REACTORS
330
617
102
}
330
617
100
AcDbXrecord
340
1A
  0
XRECORD
  5
61E
102
{ACAD_REACTORS
330
617
102
}
330
617
100
AcDbXrecord
 90
    10269
  0
XRECORD
  5
61D
102
{ACAD_REACTORS
330
617
102
}
330
617
100
AcDbXrecord
340
19
  0
XRECORD
  5
623
102
{ACAD_REACTORS
330
617
102
}
330
617
100
AcDbXrecord
 40
0.0
  0
XRECORD
  5
626
102
{ACAD_REACTORS
330
617
102
}
330
617
100
AcDbXrecord
340
0
  0
XRECORD
  5
62C
102
{ACAD_REACTORS
330
617
102
}
330
617
100
AcDbXrecord
 10
0.0
 20
0.0
 30
0.0
  0
XRECORD
  5
628
102
{ACAD_REACTORS
330
617
102
}
330
617
100
AcDbXrecord
 10
0.0
 20
0.0
 30
0.0
  0
XRECORD
  5
62B
102
{ACAD_REACTORS
330
617
102
}
330
617
100
AcDbXrecord
 10
0.0
 20
0.0
 30
0.0
  0
XRECORD
  5
629
102
{ACAD_REACTORS
330
617
102
}
330
617
100
AcDbXrecord
 10
0.0
 20
0.0
 30
0.0
  0
XRECORD
  5
62A
102
{ACAD_REACTORS
330
617
102
}
330
617
100
AcDbXrecord
 10
0.0
 20
0.0
 30
0.0
  0
XRECORD
  5
627
102
{ACAD_REACTORS
330
617
102
}
330
617
100
AcDbXrecord
 10
0.0
 20
0.0
 30
0.0
  0
XRECORD
  5
624
102
{ACAD_REACTORS
330
617
102
}
330
617
100
AcDbXrecord
340
0
  0
XRECORD
  5
625
102
{ACAD_REACTORS
330
617
102
}
330
617
100
AcDbXrecord
 70
     0
  0
XRECORD
  5
61B
102
{ACAD_REACTORS
330
617
102
}
330
617
100
AcDbXrecord
  1

  0
XRECORD
  5
618
102
{ACAD_REACTORS
330
617
102
}
330
617
100
AcDbXrecord
 90
        1
  0
XRECORD
  5
619
102
{ACAD_REACTORS
330
617
102
}
330
617
100
AcDbXrecord
 90
       70
  0
XRECORD
  5
62F
102
{ACAD_REACTORS
330
617
102
}
330
617
100
AcDbXrecord
340
0
  0
XRECORD
  5
635
102
{ACAD_REACTORS
330
617
102
}
330
617
100
AcDbXrecord
 10
0.0
 20
0.0
 30
0.0
  0
XRECORD
  5
631
102
{ACAD_REACTORS
330
617
102
}
330
617
100
AcDbXrecord
 10
0.0
 20
0.0
 30
0.0
  0
XRECORD
  5
634
102
{ACAD_REACTORS
330
617
102
}
330
617
100
AcDbXrecord
 10
0.0
 20
0.0
 30
0.0
  0
XRECORD
  5
632
102
{ACAD_REACTORS
330
617
102
}
330
617
100
AcDbXrecord
 10
0.0
 20
0.0
 30
0.0
  0
XRECORD
  5
633
102
{ACAD_REACTORS
330
617
102
}
330
617
100
AcDbXrecord
 10
0.0
 20
0.0
 30
0.0
  0
XRECORD
  5
630
102
{ACAD_REACTORS
330
617
102
}
330
617
100
AcDbXrecord
 10
0.0
 20
0.0
 30
0.0
  0
XRECORD
  5
62D
102
{ACAD_REACTORS
330
617
102
}
330
617
100
AcDbXrecord
340
0
  0
XRECORD
  5
62E
102
{ACAD_REACTORS
330
617
102
}
330
617
100
AcDbXrecord
 70
     0
  0
XRECORD
  5
622
102
{ACAD_REACTORS
330
617
102
}
330
617
100
AcDbXrecord
  1
{FAEB1C32-E019-11D5-929B-00C0DF256EC4}
  0
DICTIONARYVAR
  5
63A
102
{ACAD_REACTORS
330
637
102
}
330
637
100
DictionaryVariables
280
     0
  1
2
  0
DICTIONARYVAR
  5
63B
102
{ACAD_REACTORS
330
637
102
}
330
637
100
DictionaryVariables
280
     0
  1
1
  0
DICTIONARY
  5
63E
330
3D
100
AcDbDictionary
280
     1
  3
ACAD_XREC_ROUNDTRIP
360
63F
  0
DICTIONARY
  5
63C
330
3C
100
AcDbDictionary
280
     1
  3
ACAD_XREC_ROUNDTRIP
360
63D
  0
DICTIONARY
  5
640
330
3E
100
AcDbDictionary
280
     1
  3
ACAD_XREC_ROUNDTRIP
360
641
  0
XRECORD
  5
63F
102
{ACAD_REACTORS
330
63E
102
}
330
63E
100
AcDbXrecord
102
MATERIAL
148
0.0
149
0.0
149
0.0
 93
        0
 94
      127
282
     0
 72
     1
 77
     1
171
     1
175
     1
179
     1
273
     0
  0
XRECORD
  5
63D
102
{ACAD_REACTORS
330
63C
102
}
330
63C
100
AcDbXrecord
102
MATERIAL
148
0.0
149
0.0
149
0.0
 93
        0
 94
      127
282
     0
 72
     1
 77
     1
171
     1
175
     1
179
     1
273
     0
  0
XRECORD
  5
641
102
{ACAD_REACTORS
330
640
102
}
330
640
100
AcDbXrecord
102
MATERIAL
148
0.0
149
0.0
149
0.0
 93
        0
 94
      127
282
     0
 72
     1
 77
     1
171
     1
175
     1
179
     1
273
     0
  0
ENDSEC
  0
EOF
