  0
SECTION
  2
HEADER
  9
$ACADVER
  1
AC1021
  9
$ACADMAINTVER
 70
    25
  9
$DWGCODEPAGE
  3
ANSI_1252
  9
$INSBASE
 10
0.0
 20
0.0
 30
0.0
  9
$EXTMIN
 10
1.000000000000000E+20
 20
1.000000000000000E+20
 30
1.000000000000000E+20
  9
$EXTMAX
 10
-1.000000000000000E+20
 20
-1.000000000000000E+20
 30
-1.000000000000000E+20
  9
$LIMMIN
 10
0.0
 20
0.0
  9
$LIMMAX
 10
12.0
 20
9.0
  9
$ORTHOMODE
 70
     0
  9
$REGENMODE
 70
     1
  9
$FILLMODE
 70
     1
  9
$QTEXTMODE
 70
     0
  9
$MIRRTEXT
 70
     1
  9
$LTSCALE
 40
1.0
  9
$ATTMODE
 70
     1
  9
$TEXTSIZE
 40
0.2
  9
$TRACEWID
 40
0.05
  9
$TEXTSTYLE
  7
Standard
  9
$CLAYER
  8
0
  9
$CELTYPE
  6
ByLayer
  9
$CECOLOR
 62
   256
  9
$CELTSCALE
 40
1.0
  9
$DISPSILH
 70
     0
  9
$DIMSCALE
 40
1.0
  9
$DIMASZ
 40
0.18
  9
$DIMEXO
 40
0.0625
  9
$DIMDLI
 40
0.38
  9
$DIMRND
 40
0.0
  9
$DIMDLE
 40
0.0
  9
$DIMEXE
 40
0.18
  9
$DIMTP
 40
0.0
  9
$DIMTM
 40
0.0
  9
$DIMTXT
 40
0.18
  9
$DIMCEN
 40
0.09
  9
$DIMTSZ
 40
0.0
  9
$DIMTOL
 70
     0
  9
$DIMLIM
 70
     0
  9
$DIMTIH
 70
     1
  9
$DIMTOH
 70
     1
  9
$DIMSE1
 70
     0
  9
$DIMSE2
 70
     0
  9
$DIMTAD
 70
     0
  9
$DIMZIN
 70
     0
  9
$DIMBLK
  1

  9
$DIMASO
 70
     1
  9
$DIMSHO
 70
     1
  9
$DIMPOST
  1

  9
$DIMAPOST
  1

  9
$DIMALT
 70
     0
  9
$DIMALTD
 70
     2
  9
$DIMALTF
 40
25.4
  9
$DIMLFAC
 40
1.0
  9
$DIMTOFL
 70
     0
  9
$DIMTVP
 40
0.0
  9
$DIMTIX
 70
     0
  9
$DIMSOXD
 70
     0
  9
$DIMSAH
 70
     0
  9
$DIMBLK1
  1

  9
$DIMBLK2
  1

  9
$DIMSTYLE
  2
Standard
  9
$DIMCLRD
 70
     0
  9
$DIMCLRE
 70
     0
  9
$DIMCLRT
 70
     0
  9
$DIMTFAC
 40
1.0
  9
$DIMGAP
 40
0.09
  9
$DIMJUST
 70
     0
  9
$DIMSD1
 70
     0
  9
$DIMSD2
 70
     0
  9
$DIMTOLJ
 70
     1
  9
$DIMTZIN
 70
     0
  9
$DIMALTZ
 70
     0
  9
$DIMALTTZ
 70
     0
  9
$DIMUPT
 70
     0
  9
$DIMDEC
 70
     4
  9
$DIMTDEC
 70
     4
  9
$DIMALTU
 70
     2
  9
$DIMALTTD
 70
     2
  9
$DIMTXSTY
  7
Standard
  9
$DIMAUNIT
 70
     0
  9
$DIMADEC
 70
     0
  9
$DIMALTRND
 40
0.0
  9
$DIMAZIN
 70
     0
  9
$DIMDSEP
 70
    46
  9
$DIMATFIT
 70
     3
  9
$DIMFRAC
 70
     0
  9
$DIMLDRBLK
  1

  9
$DIMLUNIT
 70
     2
  9
$DIMLWD
 70
    -2
  9
$DIMLWE
 70
    -2
  9
$DIMTMOVE
 70
     0
  9
$DIMFXL
 40
1.0
  9
$DIMFXLON
 70
     0
  9
$DIMJOGANG
 40
0.7853981633974483
  9
$DIMTFILL
 70
     0
  9
$DIMTFILLCLR
 70
     0
  9
$DIMARCSYM
 70
     0
  9
$DIMLTYPE
  6

  9
$DIMLTEX1
  6

  9
$DIMLTEX2
  6

  9
$LUNITS
 70
     2
  9
$LUPREC
 70
     4
  9
$SKETCHINC
 40
0.1
  9
$FILLETRAD
 40
0.5
  9
$AUNITS
 70
     0
  9
$AUPREC
 70
     0
  9
$MENU
  1
.
  9
$ELEVATION
 40
0.0
  9
$PELEVATION
 40
0.0
  9
$THICKNESS
 40
0.0
  9
$LIMCHECK
 70
     0
  9
$CHAMFERA
 40
0.5
  9
$CHAMFERB
 40
0.5
  9
$CHAMFERC
 40
1.0
  9
$CHAMFERD
 40
0.0
  9
$SKPOLY
 70
     0
  9
$TDCREATE
 40
2459604.407013368
  9
$TDUCREATE
 40
2459604.365346701
  9
$TDUPDATE
 40
2459604.407013519
  9
$TDUUPDATE
 40
2459604.365346852
  9
$TDINDWG
 40
0.0000000116
  9
$TDUSRTIMER
 40
0.0000000116
  9
$USRTIMER
 70
     1
  9
$ANGBASE
 50
0.0
  9
$ANGDIR
 70
     0
  9
$PDMODE
 70
     0
  9
$PDSIZE
 40
0.0
  9
$PLINEWID
 40
0.0
  9
$SPLFRAME
 70
     0
  9
$SPLINETYPE
 70
     6
  9
$SPLINESEGS
 70
     8
  9
$HANDSEED
  5
5C6
  9
$SURFTAB1
 70
     6
  9
$SURFTAB2
 70
     6
  9
$SURFTYPE
 70
     6
  9
$SURFU
 70
     6
  9
$SURFV
 70
     6
  9
$UCSBASE
  2

  9
$UCSNAME
  2

  9
$UCSORG
 10
0.0
 20
0.0
 30
0.0
  9
$UCSXDIR
 10
1.0
 20
0.0
 30
0.0
  9
$UCSYDIR
 10
0.0
 20
1.0
 30
0.0
  9
$UCSORTHOREF
  2

  9
$UCSORTHOVIEW
 70
     0
  9
$UCSORGTOP
 10
0.0
 20
0.0
 30
0.0
  9
$UCSORGBOTTOM
 10
0.0
 20
0.0
 30
0.0
  9
$UCSORGLEFT
 10
0.0
 20
0.0
 30
0.0
  9
$UCSORGRIGHT
 10
0.0
 20
0.0
 30
0.0
  9
$UCSORGFRONT
 10
0.0
 20
0.0
 30
0.0
  9
$UCSORGBACK
 10
0.0
 20
0.0
 30
0.0
  9
$PUCSBASE
  2

  9
$PUCSNAME
  2

  9
$PUCSORG
 10
0.0
 20
0.0
 30
0.0
  9
$PUCSXDIR
 10
1.0
 20
0.0
 30
0.0
  9
$PUCSYDIR
 10
0.0
 20
1.0
 30
0.0
  9
$PUCSORTHOREF
  2

  9
$PUCSORTHOVIEW
 70
     0
  9
$PUCSORGTOP
 10
0.0
 20
0.0
 30
0.0
  9
$PUCSORGBOTTOM
 10
0.0
 20
0.0
 30
0.0
  9
$PUCSORGLEFT
 10
0.0
 20
0.0
 30
0.0
  9
$PUCSORGRIGHT
 10
0.0
 20
0.0
 30
0.0
  9
$PUCSORGFRONT
 10
0.0
 20
0.0
 30
0.0
  9
$PUCSORGBACK
 10
0.0
 20
0.0
 30
0.0
  9
$USERI1
 70
     0
  9
$USERI2
 70
     0
  9
$USERI3
 70
     0
  9
$USERI4
 70
     0
  9
$USERI5
 70
     0
  9
$USERR1
 40
0.0
  9
$USERR2
 40
0.0
  9
$USERR3
 40
0.0
  9
$USERR4
 40
0.0
  9
$USERR5
 40
0.0
  9
$WORLDVIEW
 70
     1
  9
$SHADEDGE
 70
     3
  9
$SHADEDIF
 70
    70
  9
$TILEMODE
 70
     1
  9
$MAXACTVP
 70
    64
  9
$PINSBASE
 10
0.0
 20
0.0
 30
0.0
  9
$PLIMCHECK
 70
     0
  9
$PEXTMIN
 10
1.000000000000000E+20
 20
1.000000000000000E+20
 30
1.000000000000000E+20
  9
$PEXTMAX
 10
-1.000000000000000E+20
 20
-1.000000000000000E+20
 30
-1.000000000000000E+20
  9
$PLIMMIN
 10
0.0
 20
0.0
  9
$PLIMMAX
 10
12.0
 20
9.0
  9
$UNITMODE
 70
     0
  9
$VISRETAIN
 70
     1
  9
$PLINEGEN
 70
     0
  9
$PSLTSCALE
 70
     1
  9
$TREEDEPTH
 70
  3020
  9
$CMLSTYLE
  2
Standard
  9
$CMLJUST
 70
     0
  9
$CMLSCALE
 40
1.0
  9
$PROXYGRAPHICS
 70
     1
  9
$MEASUREMENT
 70
     0
  9
$CELWEIGHT
370
    -1
  9
$ENDCAPS
280
     0
  9
$JOINSTYLE
280
     0
  9
$LWDISPLAY
290
     1
  9
$INSUNITS
 70
     1
  9
$HYPERLINKBASE
  1

  9
$STYLESHEET
  1

  9
$XEDIT
290
     1
  9
$CEPSNTYPE
380
     0
  9
$PSTYLEMODE
290
     1
  9
$FINGERPRINTGUID
  2
{55438CD8-D17C-4D28-B80B-7433AAD6267F}
  9
$VERSIONGUID
  2
{FAEB1C32-E019-11D5-929B-00C0DF256EC4}
  9
$EXTNAMES
290
     1
  9
$PSVPSCALE
 40
0.0
  9
$OLESTARTUP
290
     0
  9
$SORTENTS
280
   127
  9
$INDEXCTL
280
     0
  9
$HIDETEXT
280
     1
  9
$XCLIPFRAME
290
     0
  9
$HALOGAP
280
     0
  9
$OBSCOLOR
 70
   257
  9
$OBSLTYPE
280
     0
  9
$INTERSECTIONDISPLAY
280
     0
  9
$INTERSECTIONCOLOR
 70
   257
  9
$DIMASSOC
280
     2
  9
$PROJECTNAME
  1

  9
$CAMERADISPLAY
290
     0
  9
$LENSLENGTH
 40
50.0
  9
$CAMERAHEIGHT
 40
0.0
  9
$STEPSPERSEC
 40
2.0
  9
$STEPSIZE
 40
6.0
  9
$3DDWFPREC
 40
2.0
  9
$PSOLWIDTH
 40
0.25
  9
$PSOLHEIGHT
 40
4.0
  9
$LOFTANG1
 40
1.570796326794897
  9
$LOFTANG2
 40
1.570796326794897
  9
$LOFTMAG1
 40
0.0
  9
$LOFTMAG2
 40
0.0
  9
$LOFTPARAM
 70
     7
  9
$LOFTNORMALS
280
     1
  9
$LATITUDE
 40
37.795
  9
$LONGITUDE
 40
-122.394
  9
$NORTHDIRECTION
 40
0.0
  9
$TIMEZONE
 70
 -8000
  9
$LIGHTGLYPHDISPLAY
280
     1
  9
$TILEMODELIGHTSYNCH
280
     1
  9
$CMATERIAL
347
3C
  9
$SOLIDHIST
280
     1
  9
$SHOWHIST
280
     1
  9
$DWFFRAME
280
     2
  9
$DGNFRAME
280
     2
  9
$REALWORLDSCALE
290
     1
  9
$INTERFERECOLOR
 62
   256
  9
$CSHADOW
280
     0
  9
$SHADOWPLANELOCATION
 40
0.0
  0
ENDSEC
  0
SECTION
  2
CLASSES
  0
CLASS
  1
ACDBDICTIONARYWDFLT
  2
AcDbDictionaryWithDefault
  3
ObjectDBX Classes
 90
        0
 91
        4
280
     0
281
     0
  0
CLASS
  1
VISUALSTYLE
  2
AcDbVisualStyle
  3
ObjectDBX Classes
 90
     4095
 91
        4
280
     0
281
     0
  0
CLASS
  1
MATERIAL
  2
AcDbMaterial
  3
ObjectDBX Classes
 90
     1153
 91
        4
280
     0
281
     0
  0
CLASS
  1
SUN
  2
AcDbSun
  3
SCENEOE
 90
     1024
 91
        4
280
     0
281
     0
  0
ENDSEC
  0
SECTION
  2
TABLES
  0
TABLE
  2
VPORT
  5
8
330
0
100
AcDbSymbolTable
 70
     1
  0
VPORT
  5
29
330
8
100
AcDbSymbolTableRecord
100
AcDbViewportTableRecord
  2
*Active
 70
     0
 10
0.0
 20
0.0
 11
1.0
 21
1.0
 12
0.0
 22
0.0
 13
0.0
 23
0.0
 14
0.5
 24
0.5
 15
0.5
 25
0.5
 16
0.0
 26
0.0
 36
1.0
 17
74.99999786197358
 27
39.74999886684608
 37
0.0
 40
39.99999998999989
 41
1.000000000000008
 42
50.0
 43
0.0
 44
0.0
 50
0.0
 51
0.0
 71
     0
 72
   100
 73
     1
 74
     3
 75
     0
 76
     0
 77
     0
 78
     0
281
     0
 65
     1
110
0.0
120
0.0
130
0.0
111
1.0
121
0.0
131
0.0
112
0.0
122
1.0
132
0.0
 79
     0
146
0.0
 60
     3
 61
     5
292
     1
282
     1
141
0.0
142
0.0
 63
   250
361
3F
  0
ENDTAB
  0
TABLE
  2
LTYPE
  5
5
330
0
100
AcDbSymbolTable
 70
     1
  0
LTYPE
  5
14
330
5
100
AcDbSymbolTableRecord
100
AcDbLinetypeTableRecord
  2
ByBlock
 70
     0
  3

 72
    65
 73
     0
 40
0.0
  0
LTYPE
  5
15
330
5
100
AcDbSymbolTableRecord
100
AcDbLinetypeTableRecord
  2
ByLayer
 70
     0
  3

 72
    65
 73
     0
 40
0.0
  0
LTYPE
  5
16
330
5
100
AcDbSymbolTableRecord
100
AcDbLinetypeTableRecord
  2
Continuous
 70
     0
  3
Solid line
 72
    65
 73
     0
 40
0.0
  0
ENDTAB
  0
TABLE
  2
LAYER
  5
2
330
0
100
AcDbSymbolTable
 70
     6
  0
LAYER
  5
10
330
2
100
AcDbSymbolTableRecord
100
AcDbLayerTableRecord
  2
0
 70
     0
 62
     7
  6
Continuous
370
    -3
390
F
347
3E
  0
LAYER
  5
40
330
2
100
AcDbSymbolTableRecord
100
AcDbLayerTableRecord
  2
REFERENCIAS
 70
     4
 62
     7
  6
Continuous
370
    -3
390
F
347
3E
  0
LAYER
  5
42
330
2
100
AcDbSymbolTableRecord
100
AcDbLayerTableRecord
  2
M_U+00C1RGENES
 70
     4
 62
     7
  6
Continuous
370
    -3
390
F
347
3E
  0
LAYER
  5
51
330
2
100
AcDbSymbolTableRecord
100
AcDbLayerTableRecord
  2
DIBUJOS
 70
     0
 62
     7
  6
Continuous
370
    -3
390
F
347
3E
  0
LAYER
  5
589
330
2
100
AcDbSymbolTableRecord
100
AcDbLayerTableRecord
  2
COTAS LINEA
 70
     0
 62
     7
  6
Continuous
370
    -3
390
F
347
3E
  0
LAYER
  5
59E
330
2
100
AcDbSymbolTableRecord
100
AcDbLayerTableRecord
  2
COTAS N_U+00DAMERO
 70
     0
 62
     7
  6
Continuous
370
    -3
390
F
347
3E
  0
ENDTAB
  0
TABLE
  2
STYLE
  5
3
330
0
100
AcDbSymbolTable
 70
     1
  0
STYLE
  5
11
330
3
100
AcDbSymbolTableRecord
100
AcDbTextStyleTableRecord
  2
Standard
 70
     0
 40
0.0
 41
1.0
 50
0.0
 71
     0
 42
0.2
  3
txt
  4

  0
ENDTAB
  0
TABLE
  2
VIEW
  5
6
330
0
100
AcDbSymbolTable
 70
     0
  0
ENDTAB
  0
TABLE
  2
UCS
  5
7
330
0
100
AcDbSymbolTable
 70
     0
  0
ENDTAB
  0
TABLE
  2
APPID
  5
9
330
0
100
AcDbSymbolTable
 70
     1
  0
APPID
  5
12
330
9
100
AcDbSymbolTableRecord
100
AcDbRegAppTableRecord
  2
ACAD
 70
     0
  0
ENDTAB
  0
TABLE
  2
DIMSTYLE
  5
A
330
0
100
AcDbSymbolTable
 70
     1
100
AcDbDimStyleTable
  0
DIMSTYLE
105
27
330
A
100
AcDbSymbolTableRecord
100
AcDbDimStyleTableRecord
  2
Standard
 70
     0
178
     0
340
11
  0
ENDTAB
  0
TABLE
  2
BLOCK_RECORD
  5
1
330
0
100
AcDbSymbolTable
 70
     4
  0
BLOCK_RECORD
  5
1F
330
1
100
AcDbSymbolTableRecord
100
AcDbBlockTableRecord
  2
*Model_Space
340
22
 70
     0
280
     1
281
     0
  0
BLOCK_RECORD
  5
1B
330
1
100
AcDbSymbolTableRecord
100
AcDbBlockTableRecord
  2
*Paper_Space
340
1E
 70
     0
280
     1
281
     0
  0
BLOCK_RECORD
  5
23
330
1
100
AcDbSymbolTableRecord
100
AcDbBlockTableRecord
  2
*Paper_Space0
340
26
 70
     0
280
     1
281
     0
  0
BLOCK_RECORD
  5
52
330
1
100
AcDbSymbolTableRecord
100
AcDbBlockTableRecord
  2
block 2
340
0
102
{BLKREFS
331
53
102
}
 70
     0
280
     1
281
     0
  0
BLOCK_RECORD
  5
2CB
330
1
100
AcDbSymbolTableRecord
100
AcDbBlockTableRecord
  2
block 3
340
0
102
{BLKREFS
331
2CC
102
}
 70
     0
280
     1
281
     0
  0
BLOCK_RECORD
  5
446
330
1
100
AcDbSymbolTableRecord
100
AcDbBlockTableRecord
  2
block 4
340
0
102
{BLKREFS
331
447
102
}
 70
     0
280
     1
281
     0
  0
ENDTAB
  0
ENDSEC
  0
SECTION
  2
BLOCKS
  0
BLOCK
  5
20
330
1F
100
AcDbEntity
  8
0
100
AcDbBlockBegin
  2
*Model_Space
 70
     0
 10
0.0
 20
0.0
 30
0.0
  3
*Model_Space
  1

  0
ENDBLK
  5
21
330
1F
100
AcDbEntity
  8
0
100
AcDbBlockEnd
  0
BLOCK
  5
1C
330
1B
100
AcDbEntity
 67
     1
  8
0
100
AcDbBlockBegin
  2
*Paper_Space
 70
     0
 10
0.0
 20
0.0
 30
0.0
  3
*Paper_Space
  1

  0
ENDBLK
  5
1D
330
1B
100
AcDbEntity
 67
     1
  8
0
100
AcDbBlockEnd
  0
BLOCK
  5
24
330
23
100
AcDbEntity
  8
0
100
AcDbBlockBegin
  2
*Paper_Space0
 70
     0
 10
0.0
 20
0.0
 30
0.0
  3
*Paper_Space0
  1

  0
ENDBLK
  5
25
330
23
100
AcDbEntity
  8
0
100
AcDbBlockEnd
  0
BLOCK
  5
54
330
52
100
AcDbEntity
  8
0
100
AcDbBlockBegin
  2
block 2
 70
     0
 10
0.0
 20
0.0
 30
0.0
  3
block 2
  1

  0
POLYLINE
  5
56
330
52
100
AcDbEntity
  8
DIBUJOS
 62
     7
370
    18
100
AcDb2dPolyline
 66
     1
 10
0.0
 20
0.0
 30
0.0
  0
VERTEX
  5
57
330
56
100
AcDbEntity
  8
DIBUJOS
 62
     7
370
    18
100
AcDbVertex
100
AcDb2dVertex
 10
61.92390915640563
 20
50.02488356466695
 30
0.0
  0
VERTEX
  5
58
330
56
100
AcDbEntity
  8
DIBUJOS
 62
     7
370
    18
100
AcDbVertex
100
AcDb2dVertex
 10
61.9182967811581
 20
50.02488356466695
 30
0.0
  0
SEQEND
  5
59
330
56
100
AcDbEntity
  8
DIBUJOS
 62
     7
370
    18
  0
POLYLINE
  5
5A
330
52
100
AcDbEntity
  8
DIBUJOS
 62
     7
370
    18
100
AcDb2dPolyline
 66
     1
 10
0.0
 20
0.0
 30
0.0
  0
VERTEX
  5
5B
330
5A
100
AcDbEntity
  8
DIBUJOS
 62
     7
370
    18
100
AcDbVertex
100
AcDb2dVertex
 10
61.92390915640563
 20
50.02488356466695
 30
0.0
  0
VERTEX
  5
5C
330
5A
100
AcDbEntity
  8
DIBUJOS
 62
     7
370
    18
100
AcDbVertex
100
AcDb2dVertex
 10
61.92390915640563
 20
50.03048320377739
 30
0.0
  0
SEQEND
  5
5D
330
5A
100
AcDbEntity
  8
DIBUJOS
 62
     7
370
    18
  0
POLYLINE
  5
5E
330
52
100
AcDbEntity
  8
DIBUJOS
 62
     7
370
    18
100
AcDb2dPolyline
 66
     1
 10
0.0
 20
0.0
 30
0.0
  0
VERTEX
  5
5F
330
5E
100
AcDbEntity
  8
DIBUJOS
 62
     7
370
    18
100
AcDbVertex
100
AcDb2dVertex
 10
67.94025684503933
 20
50.02488356466695
 30
0.0
  0
VERTEX
  5
60
330
5E
100
AcDbEntity
  8
DIBUJOS
 62
     7
370
    18
100
AcDbVertex
100
AcDb2dVertex
 10
67.98768598523439
 20
50.56773512327092
 30
0.0
  0
VERTEX
  5
61
330
5E
100
AcDbEntity
  8
DIBUJOS
 62
     7
370
    18
100
AcDbVertex
100
AcDb2dVertex
 10
67.9963790869833
 20
50.76952104200765
 30
0.0
  0
VERTEX
  5
62
330
5E
100
AcDbEntity
  8
DIBUJOS
 62
     7
370
    18
100
AcDbVertex
100
AcDb2dVertex
 10
67.9831740312946
 20
50.84740967127292
 30
0.0
  0
VERTEX
  5
63
330
5E
100
AcDbEntity
  8
DIBUJOS
 62
     7
370
    18
100
AcDbVertex
100
AcDb2dVertex
 10
67.95597089152032
 20
50.91452999561812
 30
0.0
  0
VERTEX
  5
64
330
5E
100
AcDbEntity
  8
DIBUJOS
 62
     7
370
    18
100
AcDbVertex
100
AcDb2dVertex
 10
67.94155136948744
 20
50.93834805153394
 30
0.0
  0
VERTEX
  5
65
330
5E
100
AcDbEntity
  8
DIBUJOS
 62
     7
370
    18
100
AcDbVertex
100
AcDb2dVertex
 10
67.86224701936854
 20
51.0113904915154
 30
0.0
  0
VERTEX
  5
66
330
5E
100
AcDbEntity
  8
DIBUJOS
 62
     7
370
    18
100
AcDbVertex
100
AcDb2dVertex
 10
67.80081375296749
 20
51.04515408514106
 30
0.0
  0
VERTEX
  5
67
330
5E
100
AcDbEntity
  8
DIBUJOS
 62
     7
370
    18
100
AcDbVertex
100
AcDb2dVertex
 10
67.68153170851465
 20
51.10936609315556
 30
0.0
  0
VERTEX
  5
68
330
5E
100
AcDbEntity
  8
DIBUJOS
 62
     7
370
    18
100
AcDbVertex
100
AcDb2dVertex
 10
67.60408228957745
 20
51.14016109446521
 30
0.0
  0
VERTEX
  5
69
330
5E
100
AcDbEntity
  8
DIBUJOS
 62
     7
370
    18
100
AcDbVertex
100
AcDb2dVertex
 10
67.4244243499177
 20
51.19700436317615
 30
0.0
  0
VERTEX
  5
6A
330
5E
100
AcDbEntity
  8
DIBUJOS
 62
     7
370
    18
100
AcDbVertex
100
AcDb2dVertex
 10
67.39530585775094
 20
51.20454790283942
 30
0.0
  0
VERTEX
  5
6B
330
5E
100
AcDbEntity
  8
DIBUJOS
 62
     7
370
    18
100
AcDbVertex
100
AcDb2dVertex
 10
67.12604628306872
 20
51.26565871136788
 30
0.0
  0
VERTEX
  5
6C
330
5E
100
AcDbEntity
  8
DIBUJOS
 62
     7
370
    18
100
AcDbVertex
100
AcDb2dVertex
 10
67.07639968442571
 20
51.27556506968696
 30
0.0
  0
VERTEX
  5
6D
330
5E
100
AcDbEntity
  8
DIBUJOS
 62
     7
370
    18
100
AcDbVertex
100
AcDb2dVertex
 10
66.6491628111621
 20
51.33813757087881
 30
0.0
  0
VERTEX
  5
6E
330
5E
100
AcDbEntity
  8
DIBUJOS
 62
     7
370
    18
100
AcDbVertex
100
AcDb2dVertex
 10
66.45892209637515
 20
51.3598037740904
 30
0.0
  0
VERTEX
  5
6F
330
5E
100
AcDbEntity
  8
DIBUJOS
 62
     7
370
    18
100
AcDbVertex
100
AcDb2dVertex
 10
65.90320253873591
 20
51.40475157694087
 30
0.0
  0
VERTEX
  5
70
330
5E
100
AcDbEntity
  8
DIBUJOS
 62
     7
370
    18
100
AcDbVertex
100
AcDb2dVertex
 10
65.40360069144995
 20
51.42168611524144
 30
0.0
  0
VERTEX
  5
71
330
5E
100
AcDbEntity
  8
DIBUJOS
 62
     7
370
    18
100
AcDbVertex
100
AcDb2dVertex
 10
64.44373120531374
 20
51.42168912904065
 30
0.0
  0
VERTEX
  5
72
330
5E
100
AcDbEntity
  8
DIBUJOS
 62
     7
370
    18
100
AcDbVertex
100
AcDb2dVertex
 10
63.87717510346085
 20
51.39961606292295
 30
0.0
  0
VERTEX
  5
73
330
5E
100
AcDbEntity
  8
DIBUJOS
 62
     7
370
    18
100
AcDbVertex
100
AcDb2dVertex
 10
63.3884369899334
 20
51.35985199487915
 30
0.0
  0
VERTEX
  5
74
330
5E
100
AcDbEntity
  8
DIBUJOS
 62
     7
370
    18
100
AcDbVertex
100
AcDb2dVertex
 10
63.19255444455936
 20
51.33813757087881
 30
0.0
  0
VERTEX
  5
75
330
5E
100
AcDbEntity
  8
DIBUJOS
 62
     7
370
    18
100
AcDbVertex
100
AcDb2dVertex
 10
62.76531757129575
 20
51.27556506968696
 30
0.0
  0
VERTEX
  5
76
330
5E
100
AcDbEntity
  8
DIBUJOS
 62
     7
370
    18
100
AcDbVertex
100
AcDb2dVertex
 10
62.71480694933301
 20
51.26436880526497
 30
0.0
  0
VERTEX
  5
77
330
5E
100
AcDbEntity
  8
DIBUJOS
 62
     7
370
    18
100
AcDbVertex
100
AcDb2dVertex
 10
62.44634493463741
 20
51.20424953670798
 30
0.0
  0
VERTEX
  5
78
330
5E
100
AcDbEntity
  8
DIBUJOS
 62
     7
370
    18
100
AcDbVertex
100
AcDb2dVertex
 10
62.40045653532586
 20
51.19140472406571
 30
0.0
  0
VERTEX
  5
79
330
5E
100
AcDbEntity
  8
DIBUJOS
 62
     7
370
    18
100
AcDbVertex
100
AcDb2dVertex
 10
62.24324734139088
 20
51.14072166113556
 30
0.0
  0
VERTEX
  5
7A
330
5E
100
AcDbEntity
  8
DIBUJOS
 62
     7
370
    18
100
AcDbVertex
100
AcDb2dVertex
 10
62.18712434418126
 20
51.11832611849236
 30
0.0
  0
VERTEX
  5
7B
330
5E
100
AcDbEntity
  8
DIBUJOS
 62
     7
370
    18
100
AcDbVertex
100
AcDb2dVertex
 10
62.0482424141077
 20
51.04816788444725
 30
0.0
  0
VERTEX
  5
7C
330
5E
100
AcDbEntity
  8
DIBUJOS
 62
     7
370
    18
100
AcDbVertex
100
AcDb2dVertex
 10
61.98478050554338
 20
51.01156227807556
 30
0.0
  0
VERTEX
  5
7D
330
5E
100
AcDbEntity
  8
DIBUJOS
 62
     7
370
    18
100
AcDbVertex
100
AcDb2dVertex
 10
61.90595046193213
 20
50.93804667160297
 30
0.0
  0
VERTEX
  5
7E
330
5E
100
AcDbEntity
  8
DIBUJOS
 62
     7
370
    18
100
AcDbVertex
100
AcDb2dVertex
 10
61.87043789509932
 20
50.8365690351694
 30
0.0
  0
VERTEX
  5
7F
330
5E
100
AcDbEntity
  8
DIBUJOS
 62
     7
370
    18
100
AcDbVertex
100
AcDb2dVertex
 10
61.8651359338243
 20
50.7360678697106
 30
0.0
  0
VERTEX
  5
80
330
5E
100
AcDbEntity
  8
DIBUJOS
 62
     7
370
    18
100
AcDbVertex
100
AcDb2dVertex
 10
61.88715342315439
 20
50.46181816045934
 30
0.0
  0
VERTEX
  5
81
330
5E
100
AcDbEntity
  8
DIBUJOS
 62
     7
370
    18
100
AcDbVertex
100
AcDb2dVertex
 10
61.92390915640563
 20
50.03048320377739
 30
0.0
  0
SEQEND
  5
82
330
5E
100
AcDbEntity
  8
DIBUJOS
 62
     7
370
    18
  0
POLYLINE
  5
83
330
52
100
AcDbEntity
  8
DIBUJOS
 62
     7
370
    18
100
AcDb2dPolyline
 66
     1
 10
0.0
 20
0.0
 30
0.0
  0
VERTEX
  5
84
330
83
100
AcDbEntity
  8
DIBUJOS
 62
     7
370
    18
100
AcDbVertex
100
AcDb2dVertex
 10
67.94025684503933
 20
50.01928693935541
 30
0.0
  0
VERTEX
  5
85
330
83
100
AcDbEntity
  8
DIBUJOS
 62
     7
370
    18
100
AcDbVertex
100
AcDb2dVertex
 10
67.94025684503933
 20
50.02488356466695
 30
0.0
  0
SEQEND
  5
86
330
83
100
AcDbEntity
  8
DIBUJOS
 62
     7
370
    18
  0
POLYLINE
  5
87
330
52
100
AcDbEntity
  8
DIBUJOS
 62
     7
370
    18
100
AcDb2dPolyline
 66
     1
 10
0.0
 20
0.0
 30
0.0
  0
VERTEX
  5
88
330
87
100
AcDbEntity
  8
DIBUJOS
 62
     7
370
    18
100
AcDbVertex
100
AcDb2dVertex
 10
67.94586846502216
 20
50.01928693935541
 30
0.0
  0
VERTEX
  5
89
330
87
100
AcDbEntity
  8
DIBUJOS
 62
     7
370
    18
100
AcDbVertex
100
AcDb2dVertex
 10
67.94025684503933
 20
50.01928693935541
 30
0.0
  0
SEQEND
  5
8A
330
87
100
AcDbEntity
  8
DIBUJOS
 62
     7
370
    18
  0
POLYLINE
  5
8B
330
52
100
AcDbEntity
  8
DIBUJOS
 62
     7
370
    18
100
AcDb2dPolyline
 66
     1
 10
0.0
 20
0.0
 30
0.0
  0
VERTEX
  5
8C
330
8B
100
AcDbEntity
  8
DIBUJOS
 62
     7
370
    18
100
AcDbVertex
100
AcDb2dVertex
 10
61.74431692481332
 20
49.84012561200844
 30
0.0
  0
VERTEX
  5
8D
330
8B
100
AcDbEntity
  8
DIBUJOS
 62
     7
370
    18
100
AcDbVertex
100
AcDb2dVertex
 10
61.76227561928714
 20
49.92914721591087
 30
0.0
  0
VERTEX
  5
8E
330
8B
100
AcDbEntity
  8
DIBUJOS
 62
     7
370
    18
100
AcDbVertex
100
AcDb2dVertex
 10
61.78921517152757
 20
49.98569211849133
 30
0.0
  0
VERTEX
  5
8F
330
8B
100
AcDbEntity
  8
DIBUJOS
 62
     7
370
    18
100
AcDbVertex
100
AcDb2dVertex
 10
61.82553587205906
 20
50.00893453873943
 30
0.0
  0
VERTEX
  5
90
330
8B
100
AcDbEntity
  8
DIBUJOS
 62
     7
370
    18
100
AcDbVertex
100
AcDb2dVertex
 10
61.87367269568944
 20
50.02242731823254
 30
0.0
  0
VERTEX
  5
91
330
8B
100
AcDbEntity
  8
DIBUJOS
 62
     7
370
    18
100
AcDbVertex
100
AcDb2dVertex
 10
61.9182967811581
 20
50.02488356466695
 30
0.0
  0
SEQEND
  5
92
330
8B
100
AcDbEntity
  8
DIBUJOS
 62
     7
370
    18
  0
POLYLINE
  5
93
330
52
100
AcDbEntity
  8
DIBUJOS
 62
     7
370
    18
100
AcDb2dPolyline
 66
     1
 10
0.0
 20
0.0
 30
0.0
  0
VERTEX
  5
94
330
93
100
AcDbEntity
  8
DIBUJOS
 62
     7
370
    18
100
AcDbVertex
100
AcDb2dVertex
 10
61.74431692481332
 20
49.83452597289832
 30
0.0
  0
VERTEX
  5
95
330
93
100
AcDbEntity
  8
DIBUJOS
 62
     7
370
    18
100
AcDbVertex
100
AcDb2dVertex
 10
61.73870454956579
 20
49.83452597289832
 30
0.0
  0
SEQEND
  5
96
330
93
100
AcDbEntity
  8
DIBUJOS
 62
     7
370
    18
  0
POLYLINE
  5
97
330
52
100
AcDbEntity
  8
DIBUJOS
 62
     7
370
    18
100
AcDb2dPolyline
 66
     1
 10
0.0
 20
0.0
 30
0.0
  0
VERTEX
  5
98
330
97
100
AcDbEntity
  8
DIBUJOS
 62
     7
370
    18
100
AcDbVertex
100
AcDb2dVertex
 10
61.74431692481332
 20
49.83452597289832
 30
0.0
  0
VERTEX
  5
99
330
97
100
AcDbEntity
  8
DIBUJOS
 62
     7
370
    18
100
AcDbVertex
100
AcDb2dVertex
 10
61.74431692481332
 20
49.84012561200844
 30
0.0
  0
SEQEND
  5
9A
330
97
100
AcDbEntity
  8
DIBUJOS
 62
     7
370
    18
  0
POLYLINE
  5
9B
330
52
100
AcDbEntity
  8
DIBUJOS
 62
     7
370
    18
100
AcDb2dPolyline
 66
     1
 10
0.0
 20
0.0
 30
0.0
  0
VERTEX
  5
9C
330
9B
100
AcDbEntity
  8
DIBUJOS
 62
     7
370
    18
100
AcDbVertex
100
AcDb2dVertex
 10
61.74992930006085
 20
49.82892633378788
 30
0.0
  0
VERTEX
  5
9D
330
9B
100
AcDbEntity
  8
DIBUJOS
 62
     7
370
    18
100
AcDbVertex
100
AcDb2dVertex
 10
61.74431692481332
 20
49.83452597289832
 30
0.0
  0
SEQEND
  5
9E
330
9B
100
AcDbEntity
  8
DIBUJOS
 62
     7
370
    18
  0
POLYLINE
  5
9F
330
52
100
AcDbEntity
  8
DIBUJOS
 62
     7
370
    18
100
AcDb2dPolyline
 66
     1
 10
0.0
 20
0.0
 30
0.0
  0
VERTEX
  5
A0
330
9F
100
AcDbEntity
  8
DIBUJOS
 62
     7
370
    18
100
AcDbVertex
100
AcDb2dVertex
 10
68.05250283945826
 20
49.77853862318962
 30
0.0
  0
VERTEX
  5
A1
330
9F
100
AcDbEntity
  8
DIBUJOS
 62
     7
370
    18
100
AcDbVertex
100
AcDb2dVertex
 10
68.05250283945826
 20
49.80093416583281
 30
0.0
  0
SEQEND
  5
A2
330
9F
100
AcDbEntity
  8
DIBUJOS
 62
     7
370
    18
  0
POLYLINE
  5
A3
330
52
100
AcDbEntity
  8
DIBUJOS
 62
     7
370
    18
100
AcDb2dPolyline
 66
     1
 10
0.0
 20
0.0
 30
0.0
  0
VERTEX
  5
A4
330
A3
100
AcDbEntity
  8
DIBUJOS
 62
     7
370
    18
100
AcDbVertex
100
AcDb2dVertex
 10
61.74431692481332
 20
49.71695163437145
 30
0.0
  0
VERTEX
  5
A5
330
A3
100
AcDbEntity
  8
DIBUJOS
 62
     7
370
    18
100
AcDbVertex
100
AcDb2dVertex
 10
61.75105162405741
 20
49.72759034592103
 30
0.0
  0
VERTEX
  5
A6
330
A3
100
AcDbEntity
  8
DIBUJOS
 62
     7
370
    18
100
AcDbVertex
100
AcDb2dVertex
 10
61.76115329529057
 20
49.78973488761161
 30
0.0
  0
VERTEX
  5
A7
330
A3
100
AcDbEntity
  8
DIBUJOS
 62
     7
370
    18
100
AcDbVertex
100
AcDb2dVertex
 10
61.75554167530837
 20
49.8065338049439
 30
0.0
  0
SEQEND
  5
A8
330
A3
100
AcDbEntity
  8
DIBUJOS
 62
     7
370
    18
  0
POLYLINE
  5
A9
330
52
100
AcDbEntity
  8
DIBUJOS
 62
     7
370
    18
100
AcDb2dPolyline
 66
     1
 10
0.0
 20
0.0
 30
0.0
  0
VERTEX
  5
AA
330
A9
100
AcDbEntity
  8
DIBUJOS
 62
     7
370
    18
100
AcDbVertex
100
AcDb2dVertex
 10
61.73870454956579
 20
49.71135199526005
 30
0.0
  0
VERTEX
  5
AB
330
A9
100
AcDbEntity
  8
DIBUJOS
 62
     7
370
    18
100
AcDbVertex
100
AcDb2dVertex
 10
61.73365333631655
 20
49.71247312860201
 30
0.0
  0
VERTEX
  5
AC
330
A9
100
AcDbEntity
  8
DIBUJOS
 62
     7
370
    18
100
AcDbVertex
100
AcDb2dVertex
 10
61.69941867809875
 20
49.73934717701368
 30
0.0
  0
VERTEX
  5
AD
330
A9
100
AcDbEntity
  8
DIBUJOS
 62
     7
370
    18
100
AcDbVertex
100
AcDb2dVertex
 10
61.69380630285122
 20
49.76174271965719
 30
0.0
  0
VERTEX
  5
AE
330
A9
100
AcDbEntity
  8
DIBUJOS
 62
     7
370
    18
100
AcDbVertex
100
AcDb2dVertex
 10
61.69773519210422
 20
49.79029545428291
 30
0.0
  0
VERTEX
  5
AF
330
A9
100
AcDbEntity
  8
DIBUJOS
 62
     7
370
    18
100
AcDbVertex
100
AcDb2dVertex
 10
61.70110216409392
 20
49.80037359916183
 30
0.0
  0
VERTEX
  5
B0
330
A9
100
AcDbEntity
  8
DIBUJOS
 62
     7
370
    18
100
AcDbVertex
100
AcDb2dVertex
 10
61.72186742382353
 20
49.82892633378788
 30
0.0
  0
VERTEX
  5
B1
330
A9
100
AcDbEntity
  8
DIBUJOS
 62
     7
370
    18
100
AcDbVertex
100
AcDb2dVertex
 10
61.73870454956579
 20
49.83452597289832
 30
0.0
  0
SEQEND
  5
B2
330
A9
100
AcDbEntity
  8
DIBUJOS
 62
     7
370
    18
  0
POLYLINE
  5
B3
330
52
100
AcDbEntity
  8
DIBUJOS
 62
     7
370
    18
100
AcDb2dPolyline
 66
     1
 10
0.0
 20
0.0
 30
0.0
  0
VERTEX
  5
B4
330
B3
100
AcDbEntity
  8
DIBUJOS
 62
     7
370
    18
100
AcDbVertex
100
AcDb2dVertex
 10
61.74431692481332
 20
49.71135199526005
 30
0.0
  0
VERTEX
  5
B5
330
B3
100
AcDbEntity
  8
DIBUJOS
 62
     7
370
    18
100
AcDbVertex
100
AcDb2dVertex
 10
61.73870454956579
 20
49.71135199526005
 30
0.0
  0
SEQEND
  5
B6
330
B3
100
AcDbEntity
  8
DIBUJOS
 62
     7
370
    18
  0
POLYLINE
  5
B7
330
52
100
AcDbEntity
  8
DIBUJOS
 62
     7
370
    18
100
AcDb2dPolyline
 66
     1
 10
0.0
 20
0.0
 30
0.0
  0
VERTEX
  5
B8
330
B7
100
AcDbEntity
  8
DIBUJOS
 62
     7
370
    18
100
AcDbVertex
100
AcDb2dVertex
 10
61.74431692481332
 20
49.71135199526005
 30
0.0
  0
VERTEX
  5
B9
330
B7
100
AcDbEntity
  8
DIBUJOS
 62
     7
370
    18
100
AcDbVertex
100
AcDb2dVertex
 10
61.74431692481332
 20
49.71695163437145
 30
0.0
  0
SEQEND
  5
BA
330
B7
100
AcDbEntity
  8
DIBUJOS
 62
     7
370
    18
  0
POLYLINE
  5
BB
330
52
100
AcDbEntity
  8
DIBUJOS
 62
     7
370
    18
100
AcDb2dPolyline
 66
     1
 10
0.0
 20
0.0
 30
0.0
  0
VERTEX
  5
BC
330
BB
100
AcDbEntity
  8
DIBUJOS
 62
     7
370
    18
100
AcDbVertex
100
AcDb2dVertex
 10
68.06372607942296
 20
49.71135199526005
 30
0.0
  0
VERTEX
  5
BD
330
BB
100
AcDbEntity
  8
DIBUJOS
 62
     7
370
    18
100
AcDbVertex
100
AcDb2dVertex
 10
68.05250283945826
 20
49.76174271965719
 30
0.0
  0
SEQEND
  5
BE
330
BB
100
AcDbEntity
  8
DIBUJOS
 62
     7
370
    18
  0
POLYLINE
  5
BF
330
52
100
AcDbEntity
  8
DIBUJOS
 62
     7
370
    18
100
AcDb2dPolyline
 66
     1
 10
0.0
 20
0.0
 30
0.0
  0
VERTEX
  5
C0
330
BF
100
AcDbEntity
  8
DIBUJOS
 62
     7
370
    18
100
AcDbVertex
100
AcDb2dVertex
 10
68.0693392099355
 20
49.71135199526005
 30
0.0
  0
VERTEX
  5
C1
330
BF
100
AcDbEntity
  8
DIBUJOS
 62
     7
370
    18
100
AcDbVertex
100
AcDb2dVertex
 10
68.06372607942296
 20
49.71135199526005
 30
0.0
  0
SEQEND
  5
C2
330
BF
100
AcDbEntity
  8
DIBUJOS
 62
     7
370
    18
  0
POLYLINE
  5
C3
330
52
100
AcDbEntity
  8
DIBUJOS
 62
     7
370
    18
100
AcDb2dPolyline
 66
     1
 10
0.0
 20
0.0
 30
0.0
  0
VERTEX
  5
C4
330
C3
100
AcDbEntity
  8
DIBUJOS
 62
     7
370
    18
100
AcDbVertex
100
AcDb2dVertex
 10
68.0693392099355
 20
49.71135199526005
 30
0.0
  0
VERTEX
  5
C5
330
C3
100
AcDbEntity
  8
DIBUJOS
 62
     7
370
    18
100
AcDbVertex
100
AcDb2dVertex
 10
68.0811243671632
 20
49.71583351482806
 30
0.0
  0
VERTEX
  5
C6
330
C3
100
AcDbEntity
  8
DIBUJOS
 62
     7
370
    18
100
AcDbVertex
100
AcDb2dVertex
 10
68.10413427488594
 20
49.73878661034333
 30
0.0
  0
VERTEX
  5
C7
330
C3
100
AcDbEntity
  8
DIBUJOS
 62
     7
370
    18
100
AcDbVertex
100
AcDb2dVertex
 10
68.11423670138474
 20
49.76734235876827
 30
0.0
  0
VERTEX
  5
C8
330
C3
100
AcDbEntity
  8
DIBUJOS
 62
     7
370
    18
100
AcDbVertex
100
AcDb2dVertex
 10
68.11060538659683
 20
49.784632525387
 30
0.0
  0
VERTEX
  5
C9
330
C3
100
AcDbEntity
  8
DIBUJOS
 62
     7
370
    18
100
AcDbVertex
100
AcDb2dVertex
 10
68.10413427488594
 20
49.80709135781503
 30
0.0
  0
VERTEX
  5
CA
330
C3
100
AcDbEntity
  8
DIBUJOS
 62
     7
370
    18
100
AcDbVertex
100
AcDb2dVertex
 10
68.08673749767573
 20
49.82444782801876
 30
0.0
  0
VERTEX
  5
CB
330
C3
100
AcDbEntity
  8
DIBUJOS
 62
     7
370
    18
100
AcDbVertex
100
AcDb2dVertex
 10
68.0693392099355
 20
49.82892633378788
 30
0.0
  0
VERTEX
  5
CC
330
C3
100
AcDbEntity
  8
DIBUJOS
 62
     7
370
    18
100
AcDbVertex
100
AcDb2dVertex
 10
68.05811445944013
 20
49.84012561200844
 30
0.0
  0
VERTEX
  5
CD
330
C3
100
AcDbEntity
  8
DIBUJOS
 62
     7
370
    18
100
AcDbVertex
100
AcDb2dVertex
 10
68.05569761099544
 20
49.87901567825405
 30
0.0
  0
VERTEX
  5
CE
330
C3
100
AcDbEntity
  8
DIBUJOS
 62
     7
370
    18
100
AcDbVertex
100
AcDb2dVertex
 10
68.04576738494914
 20
49.92914721591087
 30
0.0
  0
VERTEX
  5
CF
330
C3
100
AcDbEntity
  8
DIBUJOS
 62
     7
370
    18
100
AcDbVertex
100
AcDb2dVertex
 10
68.04296081969272
 20
49.93586497456406
 30
0.0
  0
VERTEX
  5
D0
330
C3
100
AcDbEntity
  8
DIBUJOS
 62
     7
370
    18
100
AcDbVertex
100
AcDb2dVertex
 10
68.03005333846879
 20
49.96889621495826
 30
0.0
  0
VERTEX
  5
D1
330
C3
100
AcDbEntity
  8
DIBUJOS
 62
     7
370
    18
100
AcDbVertex
100
AcDb2dVertex
 10
67.99076746700142
 20
50.00808766113452
 30
0.0
  0
VERTEX
  5
D2
330
C3
100
AcDbEntity
  8
DIBUJOS
 62
     7
370
    18
100
AcDbVertex
100
AcDb2dVertex
 10
67.95653280878362
 20
50.01760523934246
 30
0.0
  0
VERTEX
  5
D3
330
C3
100
AcDbEntity
  8
DIBUJOS
 62
     7
370
    18
100
AcDbVertex
100
AcDb2dVertex
 10
67.94586846502216
 20
50.01928693935541
 30
0.0
  0
SEQEND
  5
D4
330
C3
100
AcDbEntity
  8
DIBUJOS
 62
     7
370
    18
  0
POLYLINE
  5
D5
330
52
100
AcDbEntity
  8
DIBUJOS
 62
     7
370
    18
100
AcDb2dPolyline
 66
     1
 10
0.0
 20
0.0
 30
0.0
  0
VERTEX
  5
D6
330
D5
100
AcDbEntity
  8
DIBUJOS
 62
     7
370
    18
100
AcDbVertex
100
AcDb2dVertex
 10
61.74431692481332
 20
49.70575536994882
 30
0.0
  0
VERTEX
  5
D7
330
D5
100
AcDbEntity
  8
DIBUJOS
 62
     7
370
    18
100
AcDbVertex
100
AcDb2dVertex
 10
61.74431692481332
 20
49.71135199526005
 30
0.0
  0
SEQEND
  5
D8
330
D5
100
AcDbEntity
  8
DIBUJOS
 62
     7
370
    18
  0
POLYLINE
  5
D9
330
52
100
AcDbEntity
  8
DIBUJOS
 62
     7
370
    18
100
AcDb2dPolyline
 66
     1
 10
0.0
 20
0.0
 30
0.0
  0
VERTEX
  5
DA
330
D9
100
AcDbEntity
  8
DIBUJOS
 62
     7
370
    18
100
AcDbVertex
100
AcDb2dVertex
 10
68.06372607942296
 20
49.70575536994882
 30
0.0
  0
VERTEX
  5
DB
330
D9
100
AcDbEntity
  8
DIBUJOS
 62
     7
370
    18
100
AcDbVertex
100
AcDb2dVertex
 10
68.06372607942296
 20
49.71135199526005
 30
0.0
  0
SEQEND
  5
DC
330
D9
100
AcDbEntity
  8
DIBUJOS
 62
     7
370
    18
  0
POLYLINE
  5
DD
330
52
100
AcDbEntity
  8
DIBUJOS
 62
     7
370
    18
100
AcDb2dPolyline
 66
     1
 10
0.0
 20
0.0
 30
0.0
  0
VERTEX
  5
DE
330
DD
100
AcDbEntity
  8
DIBUJOS
 62
     7
370
    18
100
AcDbVertex
100
AcDb2dVertex
 10
67.76627698869423
 20
49.39782042585345
 30
0.0
  0
VERTEX
  5
DF
330
DD
100
AcDbEntity
  8
DIBUJOS
 62
     7
370
    18
100
AcDbVertex
100
AcDb2dVertex
 10
67.81117448014346
 20
49.39222380054223
 30
0.0
  0
VERTEX
  5
E0
330
DD
100
AcDbEntity
  8
DIBUJOS
 62
     7
370
    18
100
AcDbVertex
100
AcDb2dVertex
 10
67.81728306458749
 20
49.39584638730814
 30
0.0
  0
VERTEX
  5
E1
330
DD
100
AcDbEntity
  8
DIBUJOS
 62
     7
370
    18
100
AcDbVertex
100
AcDb2dVertex
 10
67.85046035161082
 20
49.40342006496422
 30
0.0
  0
VERTEX
  5
E2
330
DD
100
AcDbEntity
  8
DIBUJOS
 62
     7
370
    18
100
AcDbVertex
100
AcDb2dVertex
 10
67.86729823261842
 20
49.42021596849665
 30
0.0
  0
VERTEX
  5
E3
330
DD
100
AcDbEntity
  8
DIBUJOS
 62
     7
370
    18
100
AcDbVertex
100
AcDb2dVertex
 10
67.87683874185329
 20
49.44317207781082
 30
0.0
  0
VERTEX
  5
E4
330
DD
100
AcDbEntity
  8
DIBUJOS
 62
     7
370
    18
100
AcDbVertex
100
AcDb2dVertex
 10
67.90402828685514
 20
49.68917043236797
 30
0.0
  0
VERTEX
  5
E5
330
DD
100
AcDbEntity
  8
DIBUJOS
 62
     7
370
    18
100
AcDbVertex
100
AcDb2dVertex
 10
67.93662553025109
 20
50.01319303715867
 30
0.0
  0
VERTEX
  5
E6
330
DD
100
AcDbEntity
  8
DIBUJOS
 62
     7
370
    18
100
AcDbVertex
100
AcDb2dVertex
 10
67.94025684503933
 20
50.01928693935541
 30
0.0
  0
SEQEND
  5
E7
330
DD
100
AcDbEntity
  8
DIBUJOS
 62
     7
370
    18
  0
POLYLINE
  5
E8
330
52
100
AcDbEntity
  8
DIBUJOS
 62
     7
370
    18
100
AcDb2dPolyline
 66
     1
 10
0.0
 20
0.0
 30
0.0
  0
VERTEX
  5
E9
330
E8
100
AcDbEntity
  8
DIBUJOS
 62
     7
370
    18
100
AcDbVertex
100
AcDb2dVertex
 10
62.0810526422738
 20
49.38662416143146
 30
0.0
  0
VERTEX
  5
EA
330
E8
100
AcDbEntity
  8
DIBUJOS
 62
     7
370
    18
100
AcDbVertex
100
AcDb2dVertex
 10
62.0198127237478
 20
49.3997974781983
 30
0.0
  0
VERTEX
  5
EB
330
E8
100
AcDbEntity
  8
DIBUJOS
 62
     7
370
    18
100
AcDbVertex
100
AcDb2dVertex
 10
62.00248089933971
 20
49.40901970407434
 30
0.0
  0
VERTEX
  5
EC
330
E8
100
AcDbEntity
  8
DIBUJOS
 62
     7
370
    18
100
AcDbVertex
100
AcDb2dVertex
 10
61.98957266285044
 20
49.44205094446917
 30
0.0
  0
VERTEX
  5
ED
330
E8
100
AcDbEntity
  8
DIBUJOS
 62
     7
370
    18
100
AcDbVertex
100
AcDb2dVertex
 10
61.96572516608816
 20
49.64439742987688
 30
0.0
  0
VERTEX
  5
EE
330
E8
100
AcDbEntity
  8
DIBUJOS
 62
     7
370
    18
100
AcDbVertex
100
AcDb2dVertex
 10
61.92783804565862
 20
50.01872637268475
 30
0.0
  0
VERTEX
  5
EF
330
E8
100
AcDbEntity
  8
DIBUJOS
 62
     7
370
    18
100
AcDbVertex
100
AcDb2dVertex
 10
61.92390915640563
 20
50.02488356466695
 30
0.0
  0
SEQEND
  5
F0
330
E8
100
AcDbEntity
  8
DIBUJOS
 62
     7
370
    18
  0
POLYLINE
  5
F1
330
52
100
AcDbEntity
  8
DIBUJOS
 62
     7
370
    18
100
AcDb2dPolyline
 66
     1
 10
0.0
 20
0.0
 30
0.0
  0
VERTEX
  5
F2
330
F1
100
AcDbEntity
  8
DIBUJOS
 62
     7
370
    18
100
AcDbVertex
100
AcDb2dVertex
 10
62.08666501752132
 20
49.3810245223207
 30
0.0
  0
VERTEX
  5
F3
330
F1
100
AcDbEntity
  8
DIBUJOS
 62
     7
370
    18
100
AcDbVertex
100
AcDb2dVertex
 10
62.0810526422738
 20
49.38662416143146
 30
0.0
  0
SEQEND
  5
F4
330
F1
100
AcDbEntity
  8
DIBUJOS
 62
     7
370
    18
  0
POLYLINE
  5
F5
330
52
100
AcDbEntity
  8
DIBUJOS
 62
     7
370
    18
100
AcDb2dPolyline
 66
     1
 10
0.0
 20
0.0
 30
0.0
  0
VERTEX
  5
F6
330
F5
100
AcDbEntity
  8
DIBUJOS
 62
     7
370
    18
100
AcDbVertex
100
AcDb2dVertex
 10
62.09227739276853
 20
49.27464946201439
 30
0.0
  0
VERTEX
  5
F7
330
F5
100
AcDbEntity
  8
DIBUJOS
 62
     7
370
    18
100
AcDbVertex
100
AcDb2dVertex
 10
62.08666501752132
 20
49.28024910112516
 30
0.0
  0
VERTEX
  5
F8
330
F5
100
AcDbEntity
  8
DIBUJOS
 62
     7
370
    18
100
AcDbVertex
100
AcDb2dVertex
 10
62.08666501752132
 20
49.3810245223207
 30
0.0
  0
SEQEND
  5
F9
330
F5
100
AcDbEntity
  8
DIBUJOS
 62
     7
370
    18
  0
POLYLINE
  5
FA
330
52
100
AcDbEntity
  8
DIBUJOS
 62
     7
370
    18
100
AcDb2dPolyline
 66
     1
 10
0.0
 20
0.0
 30
0.0
  0
VERTEX
  5
FB
330
FA
100
AcDbEntity
  8
DIBUJOS
 62
     7
370
    18
100
AcDbVertex
100
AcDb2dVertex
 10
62.09788976801573
 20
49.27464946201439
 30
0.0
  0
VERTEX
  5
FC
330
FA
100
AcDbEntity
  8
DIBUJOS
 62
     7
370
    18
100
AcDbVertex
100
AcDb2dVertex
 10
62.09227739276853
 20
49.27464946201439
 30
0.0
  0
SEQEND
  5
FD
330
FA
100
AcDbEntity
  8
DIBUJOS
 62
     7
370
    18
  0
POLYLINE
  5
FE
330
52
100
AcDbEntity
  8
DIBUJOS
 62
     7
370
    18
100
AcDb2dPolyline
 66
     1
 10
0.0
 20
0.0
 30
0.0
  0
VERTEX
  5
FF
330
FE
100
AcDbEntity
  8
DIBUJOS
 62
     7
370
    18
100
AcDbVertex
100
AcDb2dVertex
 10
67.71576636673309
 20
49.27464946201439
 30
0.0
  0
VERTEX
  5
100
330
FE
100
AcDbEntity
  8
DIBUJOS
 62
     7
370
    18
100
AcDbVertex
100
AcDb2dVertex
 10
67.72137798671497
 20
49.28024910112516
 30
0.0
  0
SEQEND
  5
101
330
FE
100
AcDbEntity
  8
DIBUJOS
 62
     7
370
    18
  0
POLYLINE
  5
102
330
52
100
AcDbEntity
  8
DIBUJOS
 62
     7
370
    18
100
AcDb2dPolyline
 66
     1
 10
0.0
 20
0.0
 30
0.0
  0
VERTEX
  5
103
330
102
100
AcDbEntity
  8
DIBUJOS
 62
     7
370
    18
100
AcDbVertex
100
AcDb2dVertex
 10
62.09227739276853
 20
49.26904982290395
 30
0.0
  0
VERTEX
  5
104
330
102
100
AcDbEntity
  8
DIBUJOS
 62
     7
370
    18
100
AcDbVertex
100
AcDb2dVertex
 10
62.09227739276853
 20
49.27464946201439
 30
0.0
  0
SEQEND
  5
105
330
102
100
AcDbEntity
  8
DIBUJOS
 62
     7
370
    18
  0
POLYLINE
  5
106
330
52
100
AcDbEntity
  8
DIBUJOS
 62
     7
370
    18
100
AcDb2dPolyline
 66
     1
 10
0.0
 20
0.0
 30
0.0
  0
VERTEX
  5
107
330
106
100
AcDbEntity
  8
DIBUJOS
 62
     7
370
    18
100
AcDbVertex
100
AcDb2dVertex
 10
67.71576636673309
 20
49.26904982290395
 30
0.0
  0
VERTEX
  5
108
330
106
100
AcDbEntity
  8
DIBUJOS
 62
     7
370
    18
100
AcDbVertex
100
AcDb2dVertex
 10
67.71015474675025
 20
49.26904982290395
 30
0.0
  0
SEQEND
  5
109
330
106
100
AcDbEntity
  8
DIBUJOS
 62
     7
370
    18
  0
POLYLINE
  5
10A
330
52
100
AcDbEntity
  8
DIBUJOS
 62
     7
370
    18
100
AcDb2dPolyline
 66
     1
 10
0.0
 20
0.0
 30
0.0
  0
VERTEX
  5
10B
330
10A
100
AcDbEntity
  8
DIBUJOS
 62
     7
370
    18
100
AcDbVertex
100
AcDb2dVertex
 10
67.71576636673309
 20
49.26904982290395
 30
0.0
  0
VERTEX
  5
10C
330
10A
100
AcDbEntity
  8
DIBUJOS
 62
     7
370
    18
100
AcDbVertex
100
AcDb2dVertex
 10
67.71576636673309
 20
49.27464946201439
 30
0.0
  0
SEQEND
  5
10D
330
10A
100
AcDbEntity
  8
DIBUJOS
 62
     7
370
    18
  0
POLYLINE
  5
10E
330
52
100
AcDbEntity
  8
DIBUJOS
 62
     7
370
    18
100
AcDb2dPolyline
 66
     1
 10
0.0
 20
0.0
 30
0.0
  0
VERTEX
  5
10F
330
10E
100
AcDbEntity
  8
DIBUJOS
 62
     7
370
    18
100
AcDbVertex
100
AcDb2dVertex
 10
67.71576636673309
 20
49.26345018379351
 30
0.0
  0
VERTEX
  5
110
330
10E
100
AcDbEntity
  8
DIBUJOS
 62
     7
370
    18
100
AcDbVertex
100
AcDb2dVertex
 10
67.71576636673309
 20
49.26904982290395
 30
0.0
  0
SEQEND
  5
111
330
10E
100
AcDbEntity
  8
DIBUJOS
 62
     7
370
    18
  0
POLYLINE
  5
112
330
52
100
AcDbEntity
  8
DIBUJOS
 62
     7
370
    18
100
AcDb2dPolyline
 66
     1
 10
0.0
 20
0.0
 30
0.0
  0
VERTEX
  5
113
330
112
100
AcDbEntity
  8
DIBUJOS
 62
     7
370
    18
100
AcDbVertex
100
AcDb2dVertex
 10
62.50758485316277
 20
49.23545801583877
 30
0.0
  0
VERTEX
  5
114
330
112
100
AcDbEntity
  8
DIBUJOS
 62
     7
370
    18
100
AcDbVertex
100
AcDb2dVertex
 10
62.10294022599997
 20
49.27352832867307
 30
0.0
  0
VERTEX
  5
115
330
112
100
AcDbEntity
  8
DIBUJOS
 62
     7
370
    18
100
AcDbVertex
100
AcDb2dVertex
 10
62.09788976801573
 20
49.27464946201439
 30
0.0
  0
SEQEND
  5
116
330
112
100
AcDbEntity
  8
DIBUJOS
 62
     7
370
    18
  0
POLYLINE
  5
117
330
52
100
AcDbEntity
  8
DIBUJOS
 62
     7
370
    18
100
AcDb2dPolyline
 66
     1
 10
0.0
 20
0.0
 30
0.0
  0
VERTEX
  5
118
330
117
100
AcDbEntity
  8
DIBUJOS
 62
     7
370
    18
100
AcDbVertex
100
AcDb2dVertex
 10
62.51319722841029
 20
49.23545801583877
 30
0.0
  0
VERTEX
  5
119
330
117
100
AcDbEntity
  8
DIBUJOS
 62
     7
370
    18
100
AcDbVertex
100
AcDb2dVertex
 10
62.50758485316277
 20
49.23545801583877
 30
0.0
  0
SEQEND
  5
11A
330
117
100
AcDbEntity
  8
DIBUJOS
 62
     7
370
    18
  0
POLYLINE
  5
11B
330
52
100
AcDbEntity
  8
DIBUJOS
 62
     7
370
    18
100
AcDb2dPolyline
 66
     1
 10
0.0
 20
0.0
 30
0.0
  0
VERTEX
  5
11C
330
11B
100
AcDbEntity
  8
DIBUJOS
 62
     7
370
    18
100
AcDbVertex
100
AcDb2dVertex
 10
67.294846531091
 20
49.23545801583877
 30
0.0
  0
VERTEX
  5
11D
330
11B
100
AcDbEntity
  8
DIBUJOS
 62
     7
370
    18
100
AcDbVertex
100
AcDb2dVertex
 10
67.2892349111088
 20
49.23545801583877
 30
0.0
  0
SEQEND
  5
11E
330
11B
100
AcDbEntity
  8
DIBUJOS
 62
     7
370
    18
  0
POLYLINE
  5
11F
330
52
100
AcDbEntity
  8
DIBUJOS
 62
     7
370
    18
100
AcDb2dPolyline
 66
     1
 10
0.0
 20
0.0
 30
0.0
  0
VERTEX
  5
120
330
11F
100
AcDbEntity
  8
DIBUJOS
 62
     7
370
    18
100
AcDbVertex
100
AcDb2dVertex
 10
67.30045815107287
 20
49.23545801583877
 30
0.0
  0
VERTEX
  5
121
330
11F
100
AcDbEntity
  8
DIBUJOS
 62
     7
370
    18
100
AcDbVertex
100
AcDb2dVertex
 10
67.294846531091
 20
49.23545801583877
 30
0.0
  0
SEQEND
  5
122
330
11F
100
AcDbEntity
  8
DIBUJOS
 62
     7
370
    18
  0
POLYLINE
  5
123
330
52
100
AcDbEntity
  8
DIBUJOS
 62
     7
370
    18
100
AcDb2dPolyline
 66
     1
 10
0.0
 20
0.0
 30
0.0
  0
VERTEX
  5
124
330
123
100
AcDbEntity
  8
DIBUJOS
 62
     7
370
    18
100
AcDbVertex
100
AcDb2dVertex
 10
67.30045815107287
 20
49.23545801583877
 30
0.0
  0
VERTEX
  5
125
330
123
100
AcDbEntity
  8
DIBUJOS
 62
     7
370
    18
100
AcDbVertex
100
AcDb2dVertex
 10
67.71015474675025
 20
49.26904982290395
 30
0.0
  0
SEQEND
  5
126
330
123
100
AcDbEntity
  8
DIBUJOS
 62
     7
370
    18
  0
POLYLINE
  5
127
330
52
100
AcDbEntity
  8
DIBUJOS
 62
     7
370
    18
100
AcDb2dPolyline
 66
     1
 10
0.0
 20
0.0
 30
0.0
  0
VERTEX
  5
128
330
127
100
AcDbEntity
  8
DIBUJOS
 62
     7
370
    18
100
AcDbVertex
100
AcDb2dVertex
 10
62.51319722841029
 20
49.22985837672801
 30
0.0
  0
VERTEX
  5
129
330
127
100
AcDbEntity
  8
DIBUJOS
 62
     7
370
    18
100
AcDbVertex
100
AcDb2dVertex
 10
62.51319722841029
 20
49.23545801583877
 30
0.0
  0
SEQEND
  5
12A
330
127
100
AcDbEntity
  8
DIBUJOS
 62
     7
370
    18
  0
POLYLINE
  5
12B
330
52
100
AcDbEntity
  8
DIBUJOS
 62
     7
370
    18
100
AcDb2dPolyline
 66
     1
 10
0.0
 20
0.0
 30
0.0
  0
VERTEX
  5
12C
330
12B
100
AcDbEntity
  8
DIBUJOS
 62
     7
370
    18
100
AcDbVertex
100
AcDb2dVertex
 10
67.294846531091
 20
49.22985837672801
 30
0.0
  0
VERTEX
  5
12D
330
12B
100
AcDbEntity
  8
DIBUJOS
 62
     7
370
    18
100
AcDbVertex
100
AcDb2dVertex
 10
67.294846531091
 20
49.23545801583877
 30
0.0
  0
SEQEND
  5
12E
330
12B
100
AcDbEntity
  8
DIBUJOS
 62
     7
370
    18
  0
POLYLINE
  5
12F
330
52
100
AcDbEntity
  8
DIBUJOS
 62
     7
370
    18
100
AcDb2dPolyline
 66
     1
 10
0.0
 20
0.0
 30
0.0
  0
VERTEX
  5
130
330
12F
100
AcDbEntity
  8
DIBUJOS
 62
     7
370
    18
100
AcDbVertex
100
AcDb2dVertex
 10
62.8555453211183
 20
49.22425873761725
 30
0.0
  0
VERTEX
  5
131
330
12F
100
AcDbEntity
  8
DIBUJOS
 62
     7
370
    18
100
AcDbVertex
100
AcDb2dVertex
 10
62.51880960365782
 20
49.24105765494954
 30
0.0
  0
VERTEX
  5
132
330
12F
100
AcDbEntity
  8
DIBUJOS
 62
     7
370
    18
100
AcDbVertex
100
AcDb2dVertex
 10
62.51319722841029
 20
49.23545801583877
 30
0.0
  0
SEQEND
  5
133
330
12F
100
AcDbEntity
  8
DIBUJOS
 62
     7
370
    18
  0
POLYLINE
  5
134
330
52
100
AcDbEntity
  8
DIBUJOS
 62
     7
370
    18
100
AcDb2dPolyline
 66
     1
 10
0.0
 20
0.0
 30
0.0
  0
VERTEX
  5
135
330
134
100
AcDbEntity
  8
DIBUJOS
 62
     7
370
    18
100
AcDbVertex
100
AcDb2dVertex
 10
62.86115769636614
 20
49.22425873761725
 30
0.0
  0
VERTEX
  5
136
330
134
100
AcDbEntity
  8
DIBUJOS
 62
     7
370
    18
100
AcDbVertex
100
AcDb2dVertex
 10
62.8555453211183
 20
49.22425873761725
 30
0.0
  0
SEQEND
  5
137
330
134
100
AcDbEntity
  8
DIBUJOS
 62
     7
370
    18
  0
POLYLINE
  5
138
330
52
100
AcDbEntity
  8
DIBUJOS
 62
     7
370
    18
100
AcDb2dPolyline
 66
     1
 10
0.0
 20
0.0
 30
0.0
  0
VERTEX
  5
139
330
138
100
AcDbEntity
  8
DIBUJOS
 62
     7
370
    18
100
AcDbVertex
100
AcDb2dVertex
 10
62.86677007161335
 20
49.22425873761725
 30
0.0
  0
VERTEX
  5
13A
330
138
100
AcDbEntity
  8
DIBUJOS
 62
     7
370
    18
100
AcDbVertex
100
AcDb2dVertex
 10
62.86115769636614
 20
49.22425873761725
 30
0.0
  0
SEQEND
  5
13B
330
138
100
AcDbEntity
  8
DIBUJOS
 62
     7
370
    18
  0
POLYLINE
  5
13C
330
52
100
AcDbEntity
  8
DIBUJOS
 62
     7
370
    18
100
AcDb2dPolyline
 66
     1
 10
0.0
 20
0.0
 30
0.0
  0
VERTEX
  5
13D
330
13C
100
AcDbEntity
  8
DIBUJOS
 62
     7
370
    18
100
AcDbVertex
100
AcDb2dVertex
 10
62.86115769636614
 20
49.21866211230634
 30
0.0
  0
VERTEX
  5
13E
330
13C
100
AcDbEntity
  8
DIBUJOS
 62
     7
370
    18
100
AcDbVertex
100
AcDb2dVertex
 10
62.86115769636614
 20
49.22425873761725
 30
0.0
  0
SEQEND
  5
13F
330
13C
100
AcDbEntity
  8
DIBUJOS
 62
     7
370
    18
  0
POLYLINE
  5
140
330
52
100
AcDbEntity
  8
DIBUJOS
 62
     7
370
    18
100
AcDb2dPolyline
 66
     1
 10
0.0
 20
0.0
 30
0.0
  0
VERTEX
  5
141
330
140
100
AcDbEntity
  8
DIBUJOS
 62
     7
370
    18
100
AcDbVertex
100
AcDb2dVertex
 10
66.9468868184008
 20
49.21866211230634
 30
0.0
  0
VERTEX
  5
142
330
140
100
AcDbEntity
  8
DIBUJOS
 62
     7
370
    18
100
AcDbVertex
100
AcDb2dVertex
 10
66.94127368788827
 20
49.21866211230634
 30
0.0
  0
SEQEND
  5
143
330
140
100
AcDbEntity
  8
DIBUJOS
 62
     7
370
    18
  0
POLYLINE
  5
144
330
52
100
AcDbEntity
  8
DIBUJOS
 62
     7
370
    18
100
AcDb2dPolyline
 66
     1
 10
0.0
 20
0.0
 30
0.0
  0
VERTEX
  5
145
330
144
100
AcDbEntity
  8
DIBUJOS
 62
     7
370
    18
100
AcDbVertex
100
AcDb2dVertex
 10
66.952498438383
 20
49.21866211230634
 30
0.0
  0
VERTEX
  5
146
330
144
100
AcDbEntity
  8
DIBUJOS
 62
     7
370
    18
100
AcDbVertex
100
AcDb2dVertex
 10
66.9468868184008
 20
49.21866211230634
 30
0.0
  0
SEQEND
  5
147
330
144
100
AcDbEntity
  8
DIBUJOS
 62
     7
370
    18
  0
POLYLINE
  5
148
330
52
100
AcDbEntity
  8
DIBUJOS
 62
     7
370
    18
100
AcDb2dPolyline
 66
     1
 10
0.0
 20
0.0
 30
0.0
  0
VERTEX
  5
149
330
148
100
AcDbEntity
  8
DIBUJOS
 62
     7
370
    18
100
AcDbVertex
100
AcDb2dVertex
 10
66.952498438383
 20
49.21866211230634
 30
0.0
  0
VERTEX
  5
14A
330
148
100
AcDbEntity
  8
DIBUJOS
 62
     7
370
    18
100
AcDbVertex
100
AcDb2dVertex
 10
67.1714981391302
 20
49.23279080345277
 30
0.0
  0
VERTEX
  5
14B
330
148
100
AcDbEntity
  8
DIBUJOS
 62
     7
370
    18
100
AcDbVertex
100
AcDb2dVertex
 10
67.2892349111088
 20
49.23545801583877
 30
0.0
  0
SEQEND
  5
14C
330
148
100
AcDbEntity
  8
DIBUJOS
 62
     7
370
    18
  0
POLYLINE
  5
14D
330
52
100
AcDbEntity
  8
DIBUJOS
 62
     7
370
    18
100
AcDb2dPolyline
 66
     1
 10
0.0
 20
0.0
 30
0.0
  0
VERTEX
  5
14E
330
14D
100
AcDbEntity
  8
DIBUJOS
 62
     7
370
    18
100
AcDbVertex
100
AcDb2dVertex
 10
66.9468868184008
 20
49.21306247319558
 30
0.0
  0
VERTEX
  5
14F
330
14D
100
AcDbEntity
  8
DIBUJOS
 62
     7
370
    18
100
AcDbVertex
100
AcDb2dVertex
 10
66.9468868184008
 20
49.21866211230634
 30
0.0
  0
SEQEND
  5
150
330
14D
100
AcDbEntity
  8
DIBUJOS
 62
     7
370
    18
  0
POLYLINE
  5
151
330
52
100
AcDbEntity
  8
DIBUJOS
 62
     7
370
    18
100
AcDb2dPolyline
 66
     1
 10
0.0
 20
0.0
 30
0.0
  0
VERTEX
  5
152
330
151
100
AcDbEntity
  8
DIBUJOS
 62
     7
370
    18
100
AcDbVertex
100
AcDb2dVertex
 10
62.86677007161335
 20
49.22425873761725
 30
0.0
  0
VERTEX
  5
153
330
151
100
AcDbEntity
  8
DIBUJOS
 62
     7
370
    18
100
AcDbVertex
100
AcDb2dVertex
 10
63.01820450829567
 20
49.22156440103798
 30
0.0
  0
VERTEX
  5
154
330
151
100
AcDbEntity
  8
DIBUJOS
 62
     7
370
    18
100
AcDbVertex
100
AcDb2dVertex
 10
63.89383927348623
 20
49.20463890413506
 30
0.0
  0
VERTEX
  5
155
330
151
100
AcDbEntity
  8
DIBUJOS
 62
     7
370
    18
100
AcDbVertex
100
AcDb2dVertex
 10
64.49991386846945
 20
49.19909049961291
 30
0.0
  0
VERTEX
  5
156
330
151
100
AcDbEntity
  8
DIBUJOS
 62
     7
370
    18
100
AcDbVertex
100
AcDb2dVertex
 10
65.95917070659179
 20
49.20470822151929
 30
0.0
  0
VERTEX
  5
157
330
151
100
AcDbEntity
  8
DIBUJOS
 62
     7
370
    18
100
AcDbVertex
100
AcDb2dVertex
 10
66.93566206790543
 20
49.22425873761725
 30
0.0
  0
VERTEX
  5
158
330
151
100
AcDbEntity
  8
DIBUJOS
 62
     7
370
    18
100
AcDbVertex
100
AcDb2dVertex
 10
66.94127368788827
 20
49.21866211230634
 30
0.0
  0
SEQEND
  5
159
330
151
100
AcDbEntity
  8
DIBUJOS
 62
     7
370
    18
  0
POLYLINE
  5
15A
330
52
100
AcDbEntity
  8
DIBUJOS
 62
     7
370
    18
100
AcDb2dPolyline
 66
     1
 10
0.0
 20
0.0
 30
0.0
  0
VERTEX
  5
15B
330
15A
100
AcDbEntity
  8
DIBUJOS
 62
     7
370
    18
100
AcDbVertex
100
AcDb2dVertex
 10
62.87238169159523
 20
48.32845511468386
 30
0.0
  0
VERTEX
  5
15C
330
15A
100
AcDbEntity
  8
DIBUJOS
 62
     7
370
    18
100
AcDbVertex
100
AcDb2dVertex
 10
62.86115769636614
 20
49.21866211230634
 30
0.0
  0
SEQEND
  5
15D
330
15A
100
AcDbEntity
  8
DIBUJOS
 62
     7
370
    18
  0
POLYLINE
  5
15E
330
52
100
AcDbEntity
  8
DIBUJOS
 62
     7
370
    18
100
AcDb2dPolyline
 66
     1
 10
0.0
 20
0.0
 30
0.0
  0
VERTEX
  5
15F
330
15E
100
AcDbEntity
  8
DIBUJOS
 62
     7
370
    18
100
AcDbVertex
100
AcDb2dVertex
 10
66.93566206790543
 20
48.32845511468386
 30
0.0
  0
VERTEX
  5
160
330
15E
100
AcDbEntity
  8
DIBUJOS
 62
     7
370
    18
100
AcDbVertex
100
AcDb2dVertex
 10
66.9468868184008
 20
49.21306247319558
 30
0.0
  0
SEQEND
  5
161
330
15E
100
AcDbEntity
  8
DIBUJOS
 62
     7
370
    18
  0
POLYLINE
  5
162
330
52
100
AcDbEntity
  8
DIBUJOS
 62
     7
370
    18
100
AcDb2dPolyline
 66
     1
 10
0.0
 20
0.0
 30
0.0
  0
VERTEX
  5
163
330
162
100
AcDbEntity
  8
DIBUJOS
 62
     7
370
    18
100
AcDbVertex
100
AcDb2dVertex
 10
62.87238169159523
 20
48.32285848937232
 30
0.0
  0
VERTEX
  5
164
330
162
100
AcDbEntity
  8
DIBUJOS
 62
     7
370
    18
100
AcDbVertex
100
AcDb2dVertex
 10
62.86677007161335
 20
48.32285848937232
 30
0.0
  0
SEQEND
  5
165
330
162
100
AcDbEntity
  8
DIBUJOS
 62
     7
370
    18
  0
POLYLINE
  5
166
330
52
100
AcDbEntity
  8
DIBUJOS
 62
     7
370
    18
100
AcDb2dPolyline
 66
     1
 10
0.0
 20
0.0
 30
0.0
  0
VERTEX
  5
167
330
166
100
AcDbEntity
  8
DIBUJOS
 62
     7
370
    18
100
AcDbVertex
100
AcDb2dVertex
 10
62.87238169159523
 20
48.32285848937232
 30
0.0
  0
VERTEX
  5
168
330
166
100
AcDbEntity
  8
DIBUJOS
 62
     7
370
    18
100
AcDbVertex
100
AcDb2dVertex
 10
62.87238169159523
 20
48.32845511468386
 30
0.0
  0
SEQEND
  5
169
330
166
100
AcDbEntity
  8
DIBUJOS
 62
     7
370
    18
  0
POLYLINE
  5
16A
330
52
100
AcDbEntity
  8
DIBUJOS
 62
     7
370
    18
100
AcDb2dPolyline
 66
     1
 10
0.0
 20
0.0
 30
0.0
  0
VERTEX
  5
16B
330
16A
100
AcDbEntity
  8
DIBUJOS
 62
     7
370
    18
100
AcDbVertex
100
AcDb2dVertex
 10
62.87799406684308
 20
48.32285848937232
 30
0.0
  0
VERTEX
  5
16C
330
16A
100
AcDbEntity
  8
DIBUJOS
 62
     7
370
    18
100
AcDbVertex
100
AcDb2dVertex
 10
62.87238169159523
 20
48.32285848937232
 30
0.0
  0
SEQEND
  5
16D
330
16A
100
AcDbEntity
  8
DIBUJOS
 62
     7
370
    18
  0
POLYLINE
  5
16E
330
52
100
AcDbEntity
  8
DIBUJOS
 62
     7
370
    18
100
AcDb2dPolyline
 66
     1
 10
0.0
 20
0.0
 30
0.0
  0
VERTEX
  5
16F
330
16E
100
AcDbEntity
  8
DIBUJOS
 62
     7
370
    18
100
AcDbVertex
100
AcDb2dVertex
 10
66.93566206790543
 20
48.32285848937232
 30
0.0
  0
VERTEX
  5
170
330
16E
100
AcDbEntity
  8
DIBUJOS
 62
     7
370
    18
100
AcDbVertex
100
AcDb2dVertex
 10
66.93004893739354
 20
48.32285848937232
 30
0.0
  0
SEQEND
  5
171
330
16E
100
AcDbEntity
  8
DIBUJOS
 62
     7
370
    18
  0
POLYLINE
  5
172
330
52
100
AcDbEntity
  8
DIBUJOS
 62
     7
370
    18
100
AcDb2dPolyline
 66
     1
 10
0.0
 20
0.0
 30
0.0
  0
VERTEX
  5
173
330
172
100
AcDbEntity
  8
DIBUJOS
 62
     7
370
    18
100
AcDbVertex
100
AcDb2dVertex
 10
66.93566206790543
 20
48.32285848937232
 30
0.0
  0
VERTEX
  5
174
330
172
100
AcDbEntity
  8
DIBUJOS
 62
     7
370
    18
100
AcDbVertex
100
AcDb2dVertex
 10
66.93566206790543
 20
48.32845511468386
 30
0.0
  0
SEQEND
  5
175
330
172
100
AcDbEntity
  8
DIBUJOS
 62
     7
370
    18
  0
POLYLINE
  5
176
330
52
100
AcDbEntity
  8
DIBUJOS
 62
     7
370
    18
100
AcDb2dPolyline
 66
     1
 10
0.0
 20
0.0
 30
0.0
  0
VERTEX
  5
177
330
176
100
AcDbEntity
  8
DIBUJOS
 62
     7
370
    18
100
AcDbVertex
100
AcDb2dVertex
 10
66.94127368788827
 20
48.32285848937232
 30
0.0
  0
VERTEX
  5
178
330
176
100
AcDbEntity
  8
DIBUJOS
 62
     7
370
    18
100
AcDbVertex
100
AcDb2dVertex
 10
66.93566206790543
 20
48.32285848937232
 30
0.0
  0
SEQEND
  5
179
330
176
100
AcDbEntity
  8
DIBUJOS
 62
     7
370
    18
  0
POLYLINE
  5
17A
330
52
100
AcDbEntity
  8
DIBUJOS
 62
     7
370
    18
100
AcDb2dPolyline
 66
     1
 10
0.0
 20
0.0
 30
0.0
  0
VERTEX
  5
17B
330
17A
100
AcDbEntity
  8
DIBUJOS
 62
     7
370
    18
100
AcDbVertex
100
AcDb2dVertex
 10
62.49636010266835
 20
48.31165921115112
 30
0.0
  0
VERTEX
  5
17C
330
17A
100
AcDbEntity
  8
DIBUJOS
 62
     7
370
    18
100
AcDbVertex
100
AcDb2dVertex
 10
62.51319722841029
 20
49.22985837672801
 30
0.0
  0
SEQEND
  5
17D
330
17A
100
AcDbEntity
  8
DIBUJOS
 62
     7
370
    18
  0
POLYLINE
  5
17E
330
52
100
AcDbEntity
  8
DIBUJOS
 62
     7
370
    18
100
AcDb2dPolyline
 66
     1
 10
0.0
 20
0.0
 30
0.0
  0
VERTEX
  5
17F
330
17E
100
AcDbEntity
  8
DIBUJOS
 62
     7
370
    18
100
AcDbVertex
100
AcDb2dVertex
 10
67.31168290156793
 20
48.31165921115112
 30
0.0
  0
VERTEX
  5
180
330
17E
100
AcDbEntity
  8
DIBUJOS
 62
     7
370
    18
100
AcDbVertex
100
AcDb2dVertex
 10
67.294846531091
 20
49.22985837672801
 30
0.0
  0
SEQEND
  5
181
330
17E
100
AcDbEntity
  8
DIBUJOS
 62
     7
370
    18
  0
POLYLINE
  5
182
330
52
100
AcDbEntity
  8
DIBUJOS
 62
     7
370
    18
100
AcDb2dPolyline
 66
     1
 10
0.0
 20
0.0
 30
0.0
  0
VERTEX
  5
183
330
182
100
AcDbEntity
  8
DIBUJOS
 62
     7
370
    18
100
AcDbVertex
100
AcDb2dVertex
 10
62.49636010266835
 20
48.30605957204099
 30
0.0
  0
VERTEX
  5
184
330
182
100
AcDbEntity
  8
DIBUJOS
 62
     7
370
    18
100
AcDbVertex
100
AcDb2dVertex
 10
62.4907477274205
 20
48.30605957204099
 30
0.0
  0
SEQEND
  5
185
330
182
100
AcDbEntity
  8
DIBUJOS
 62
     7
370
    18
  0
POLYLINE
  5
186
330
52
100
AcDbEntity
  8
DIBUJOS
 62
     7
370
    18
100
AcDb2dPolyline
 66
     1
 10
0.0
 20
0.0
 30
0.0
  0
VERTEX
  5
187
330
186
100
AcDbEntity
  8
DIBUJOS
 62
     7
370
    18
100
AcDbVertex
100
AcDb2dVertex
 10
62.49636010266835
 20
48.30605957204099
 30
0.0
  0
VERTEX
  5
188
330
186
100
AcDbEntity
  8
DIBUJOS
 62
     7
370
    18
100
AcDbVertex
100
AcDb2dVertex
 10
62.49636010266835
 20
48.31165921115112
 30
0.0
  0
SEQEND
  5
189
330
186
100
AcDbEntity
  8
DIBUJOS
 62
     7
370
    18
  0
POLYLINE
  5
18A
330
52
100
AcDbEntity
  8
DIBUJOS
 62
     7
370
    18
100
AcDb2dPolyline
 66
     1
 10
0.0
 20
0.0
 30
0.0
  0
VERTEX
  5
18B
330
18A
100
AcDbEntity
  8
DIBUJOS
 62
     7
370
    18
100
AcDbVertex
100
AcDb2dVertex
 10
62.50197247791588
 20
48.30605957204099
 30
0.0
  0
VERTEX
  5
18C
330
18A
100
AcDbEntity
  8
DIBUJOS
 62
     7
370
    18
100
AcDbVertex
100
AcDb2dVertex
 10
62.49636010266835
 20
48.30605957204099
 30
0.0
  0
SEQEND
  5
18D
330
18A
100
AcDbEntity
  8
DIBUJOS
 62
     7
370
    18
  0
POLYLINE
  5
18E
330
52
100
AcDbEntity
  8
DIBUJOS
 62
     7
370
    18
100
AcDb2dPolyline
 66
     1
 10
0.0
 20
0.0
 30
0.0
  0
VERTEX
  5
18F
330
18E
100
AcDbEntity
  8
DIBUJOS
 62
     7
370
    18
100
AcDbVertex
100
AcDb2dVertex
 10
62.50197247791588
 20
48.30605957204099
 30
0.0
  0
VERTEX
  5
190
330
18E
100
AcDbEntity
  8
DIBUJOS
 62
     7
370
    18
100
AcDbVertex
100
AcDb2dVertex
 10
62.56912159088819
 20
48.30863034284853
 30
0.0
  0
VERTEX
  5
191
330
18E
100
AcDbEntity
  8
DIBUJOS
 62
     7
370
    18
100
AcDbVertex
100
AcDb2dVertex
 10
62.68725940865531
 20
48.32014606999679
 30
0.0
  0
VERTEX
  5
192
330
18E
100
AcDbEntity
  8
DIBUJOS
 62
     7
370
    18
100
AcDbVertex
100
AcDb2dVertex
 10
62.86677007161335
 20
48.32285848937232
 30
0.0
  0
SEQEND
  5
193
330
18E
100
AcDbEntity
  8
DIBUJOS
 62
     7
370
    18
  0
POLYLINE
  5
194
330
52
100
AcDbEntity
  8
DIBUJOS
 62
     7
370
    18
100
AcDb2dPolyline
 66
     1
 10
0.0
 20
0.0
 30
0.0
  0
VERTEX
  5
195
330
194
100
AcDbEntity
  8
DIBUJOS
 62
     7
370
    18
100
AcDbVertex
100
AcDb2dVertex
 10
67.30607128158606
 20
48.30605957204099
 30
0.0
  0
VERTEX
  5
196
330
194
100
AcDbEntity
  8
DIBUJOS
 62
     7
370
    18
100
AcDbVertex
100
AcDb2dVertex
 10
67.25581140764942
 20
48.30855499786619
 30
0.0
  0
VERTEX
  5
197
330
194
100
AcDbEntity
  8
DIBUJOS
 62
     7
370
    18
100
AcDbVertex
100
AcDb2dVertex
 10
67.14324215975185
 20
48.32013401479992
 30
0.0
  0
VERTEX
  5
198
330
194
100
AcDbEntity
  8
DIBUJOS
 62
     7
370
    18
100
AcDbVertex
100
AcDb2dVertex
 10
66.94127368788827
 20
48.32285848937232
 30
0.0
  0
SEQEND
  5
199
330
194
100
AcDbEntity
  8
DIBUJOS
 62
     7
370
    18
  0
POLYLINE
  5
19A
330
52
100
AcDbEntity
  8
DIBUJOS
 62
     7
370
    18
100
AcDb2dPolyline
 66
     1
 10
0.0
 20
0.0
 30
0.0
  0
VERTEX
  5
19B
330
19A
100
AcDbEntity
  8
DIBUJOS
 62
     7
370
    18
100
AcDbVertex
100
AcDb2dVertex
 10
67.31168290156793
 20
48.30605957204099
 30
0.0
  0
VERTEX
  5
19C
330
19A
100
AcDbEntity
  8
DIBUJOS
 62
     7
370
    18
100
AcDbVertex
100
AcDb2dVertex
 10
67.30607128158606
 20
48.30605957204099
 30
0.0
  0
SEQEND
  5
19D
330
19A
100
AcDbEntity
  8
DIBUJOS
 62
     7
370
    18
  0
POLYLINE
  5
19E
330
52
100
AcDbEntity
  8
DIBUJOS
 62
     7
370
    18
100
AcDb2dPolyline
 66
     1
 10
0.0
 20
0.0
 30
0.0
  0
VERTEX
  5
19F
330
19E
100
AcDbEntity
  8
DIBUJOS
 62
     7
370
    18
100
AcDbVertex
100
AcDb2dVertex
 10
67.31168290156793
 20
48.30605957204099
 30
0.0
  0
VERTEX
  5
1A0
330
19E
100
AcDbEntity
  8
DIBUJOS
 62
     7
370
    18
100
AcDbVertex
100
AcDb2dVertex
 10
67.31168290156793
 20
48.31165921115112
 30
0.0
  0
SEQEND
  5
1A1
330
19E
100
AcDbEntity
  8
DIBUJOS
 62
     7
370
    18
  0
POLYLINE
  5
1A2
330
52
100
AcDbEntity
  8
DIBUJOS
 62
     7
370
    18
100
AcDb2dPolyline
 66
     1
 10
0.0
 20
0.0
 30
0.0
  0
VERTEX
  5
1A3
330
1A2
100
AcDbEntity
  8
DIBUJOS
 62
     7
370
    18
100
AcDbVertex
100
AcDb2dVertex
 10
67.31729603208048
 20
48.30605957204099
 30
0.0
  0
VERTEX
  5
1A4
330
1A2
100
AcDbEntity
  8
DIBUJOS
 62
     7
370
    18
100
AcDbVertex
100
AcDb2dVertex
 10
67.31168290156793
 20
48.30605957204099
 30
0.0
  0
SEQEND
  5
1A5
330
1A2
100
AcDbEntity
  8
DIBUJOS
 62
     7
370
    18
  0
POLYLINE
  5
1A6
330
52
100
AcDbEntity
  8
DIBUJOS
 62
     7
370
    18
100
AcDb2dPolyline
 66
     1
 10
0.0
 20
0.0
 30
0.0
  0
VERTEX
  5
1A7
330
1A6
100
AcDbEntity
  8
DIBUJOS
 62
     7
370
    18
100
AcDbVertex
100
AcDb2dVertex
 10
62.87799406684308
 20
48.32285848937232
 30
0.0
  0
VERTEX
  5
1A8
330
1A6
100
AcDbEntity
  8
DIBUJOS
 62
     7
370
    18
100
AcDbVertex
100
AcDb2dVertex
 10
63.08554394808331
 20
48.31457054128104
 30
0.0
  0
VERTEX
  5
1A9
330
1A6
100
AcDbEntity
  8
DIBUJOS
 62
     7
370
    18
100
AcDbVertex
100
AcDb2dVertex
 10
64.10152661298241
 20
48.27520730854462
 30
0.0
  0
VERTEX
  5
1AA
330
1A6
100
AcDbEntity
  8
DIBUJOS
 62
     7
370
    18
100
AcDbVertex
100
AcDb2dVertex
 10
64.86470542004555
 20
48.26410145810169
 30
0.0
  0
VERTEX
  5
1AB
330
1A6
100
AcDbEntity
  8
DIBUJOS
 62
     7
370
    18
100
AcDbVertex
100
AcDb2dVertex
 10
65.45399198151988
 20
48.26963780742698
 30
0.0
  0
VERTEX
  5
1AC
330
1A6
100
AcDbEntity
  8
DIBUJOS
 62
     7
370
    18
100
AcDbVertex
100
AcDb2dVertex
 10
65.72896891330403
 20
48.27521032234415
 30
0.0
  0
VERTEX
  5
1AD
330
1A6
100
AcDbEntity
  8
DIBUJOS
 62
     7
370
    18
100
AcDbVertex
100
AcDb2dVertex
 10
66.89066034986743
 20
48.31994715924304
 30
0.0
  0
VERTEX
  5
1AE
330
1A6
100
AcDbEntity
  8
DIBUJOS
 62
     7
370
    18
100
AcDbVertex
100
AcDb2dVertex
 10
66.93004893739354
 20
48.32285848937232
 30
0.0
  0
SEQEND
  5
1AF
330
1A6
100
AcDbEntity
  8
DIBUJOS
 62
     7
370
    18
  0
POLYLINE
  5
1B0
330
52
100
AcDbEntity
  8
DIBUJOS
 62
     7
370
    18
100
AcDb2dPolyline
 66
     1
 10
0.0
 20
0.0
 30
0.0
  0
VERTEX
  5
1B1
330
1B0
100
AcDbEntity
  8
DIBUJOS
 62
     7
370
    18
100
AcDbVertex
100
AcDb2dVertex
 10
62.10350214326326
 20
47.98693137732285
 30
0.0
  0
VERTEX
  5
1B2
330
1B0
100
AcDbEntity
  8
DIBUJOS
 62
     7
370
    18
100
AcDbVertex
100
AcDb2dVertex
 10
62.08666501752132
 20
49.26345018379351
 30
0.0
  0
VERTEX
  5
1B3
330
1B0
100
AcDbEntity
  8
DIBUJOS
 62
     7
370
    18
100
AcDbVertex
100
AcDb2dVertex
 10
62.09227739276853
 20
49.26904982290395
 30
0.0
  0
SEQEND
  5
1B4
330
1B0
100
AcDbEntity
  8
DIBUJOS
 62
     7
370
    18
  0
POLYLINE
  5
1B5
330
52
100
AcDbEntity
  8
DIBUJOS
 62
     7
370
    18
100
AcDb2dPolyline
 66
     1
 10
0.0
 20
0.0
 30
0.0
  0
VERTEX
  5
1B6
330
1B5
100
AcDbEntity
  8
DIBUJOS
 62
     7
370
    18
100
AcDbVertex
100
AcDb2dVertex
 10
62.21574738241686
 20
47.98693137732285
 30
0.0
  0
VERTEX
  5
1B7
330
1B5
100
AcDbEntity
  8
DIBUJOS
 62
     7
370
    18
100
AcDbVertex
100
AcDb2dVertex
 10
62.214063141157
 20
47.99756707507354
 30
0.0
  0
VERTEX
  5
1B8
330
1B5
100
AcDbEntity
  8
DIBUJOS
 62
     7
370
    18
100
AcDbVertex
100
AcDb2dVertex
 10
62.2045226319218
 20
48.0317194488097
 30
0.0
  0
VERTEX
  5
1B9
330
1B5
100
AcDbEntity
  8
DIBUJOS
 62
     7
370
    18
100
AcDbVertex
100
AcDb2dVertex
 10
62.2045226319218
 20
48.16049306555842
 30
0.0
  0
VERTEX
  5
1BA
330
1B5
100
AcDbEntity
  8
DIBUJOS
 62
     7
370
    18
100
AcDbVertex
100
AcDb2dVertex
 10
62.21142953161745
 20
48.1708273833791
 30
0.0
  0
VERTEX
  5
1BB
330
1B5
100
AcDbEntity
  8
DIBUJOS
 62
     7
370
    18
100
AcDbVertex
100
AcDb2dVertex
 10
62.27748199960868
 20
48.25007222233262
 30
0.0
  0
VERTEX
  5
1BC
330
1B5
100
AcDbEntity
  8
DIBUJOS
 62
     7
370
    18
100
AcDbVertex
100
AcDb2dVertex
 10
62.32855378356874
 20
48.27078907876176
 30
0.0
  0
VERTEX
  5
1BD
330
1B5
100
AcDbEntity
  8
DIBUJOS
 62
     7
370
    18
100
AcDbVertex
100
AcDb2dVertex
 10
62.34539015404599
 20
48.27638871787252
 30
0.0
  0
VERTEX
  5
1BE
330
1B5
100
AcDbEntity
  8
DIBUJOS
 62
     7
370
    18
100
AcDbVertex
100
AcDb2dVertex
 10
62.45179870420582
 20
48.29810916947129
 30
0.0
  0
VERTEX
  5
1BF
330
1B5
100
AcDbEntity
  8
DIBUJOS
 62
     7
370
    18
100
AcDbVertex
100
AcDb2dVertex
 10
62.4907477274205
 20
48.30605957204099
 30
0.0
  0
SEQEND
  5
1C0
330
1B5
100
AcDbEntity
  8
DIBUJOS
 62
     7
370
    18
  0
POLYLINE
  5
1C1
330
52
100
AcDbEntity
  8
DIBUJOS
 62
     7
370
    18
100
AcDb2dPolyline
 66
     1
 10
0.0
 20
0.0
 30
0.0
  0
VERTEX
  5
1C2
330
1C1
100
AcDbEntity
  8
DIBUJOS
 62
     7
370
    18
100
AcDbVertex
100
AcDb2dVertex
 10
67.61474512280857
 20
47.98693137732285
 30
0.0
  0
VERTEX
  5
1C3
330
1C1
100
AcDbEntity
  8
DIBUJOS
 62
     7
370
    18
100
AcDbVertex
100
AcDb2dVertex
 10
67.62596987330363
 20
48.03731908792047
 30
0.0
  0
VERTEX
  5
1C4
330
1C1
100
AcDbEntity
  8
DIBUJOS
 62
     7
370
    18
100
AcDbVertex
100
AcDb2dVertex
 10
67.62596987330363
 20
48.16049306555842
 30
0.0
  0
VERTEX
  5
1C5
330
1C1
100
AcDbEntity
  8
DIBUJOS
 62
     7
370
    18
100
AcDbVertex
100
AcDb2dVertex
 10
67.62148057731768
 20
48.16665025754063
 30
0.0
  0
VERTEX
  5
1C6
330
1C1
100
AcDbEntity
  8
DIBUJOS
 62
     7
370
    18
100
AcDbVertex
100
AcDb2dVertex
 10
67.60352037231384
 20
48.19408487262393
 30
0.0
  0
VERTEX
  5
1C7
330
1C1
100
AcDbEntity
  8
DIBUJOS
 62
     7
370
    18
100
AcDbVertex
100
AcDb2dVertex
 10
67.54178651038735
 20
48.25567186144306
 30
0.0
  0
VERTEX
  5
1C8
330
1C1
100
AcDbEntity
  8
DIBUJOS
 62
     7
370
    18
100
AcDbVertex
100
AcDb2dVertex
 10
67.4626528501903
 20
48.28198534318406
 30
0.0
  0
VERTEX
  5
1C9
330
1C1
100
AcDbEntity
  8
DIBUJOS
 62
     7
370
    18
100
AcDbVertex
100
AcDb2dVertex
 10
67.31729603208048
 20
48.30605957204099
 30
0.0
  0
SEQEND
  5
1CA
330
1C1
100
AcDbEntity
  8
DIBUJOS
 62
     7
370
    18
  0
POLYLINE
  5
1CB
330
52
100
AcDbEntity
  8
DIBUJOS
 62
     7
370
    18
100
AcDb2dPolyline
 66
     1
 10
0.0
 20
0.0
 30
0.0
  0
VERTEX
  5
1CC
330
1CB
100
AcDbEntity
  8
DIBUJOS
 62
     7
370
    18
100
AcDbVertex
100
AcDb2dVertex
 10
62.09788976801573
 20
47.98133173821177
 30
0.0
  0
VERTEX
  5
1CD
330
1CB
100
AcDbEntity
  8
DIBUJOS
 62
     7
370
    18
100
AcDbVertex
100
AcDb2dVertex
 10
62.09227739276853
 20
47.98133173821177
 30
0.0
  0
SEQEND
  5
1CE
330
1CB
100
AcDbEntity
  8
DIBUJOS
 62
     7
370
    18
  0
POLYLINE
  5
1CF
330
52
100
AcDbEntity
  8
DIBUJOS
 62
     7
370
    18
100
AcDb2dPolyline
 66
     1
 10
0.0
 20
0.0
 30
0.0
  0
VERTEX
  5
1D0
330
1CF
100
AcDbEntity
  8
DIBUJOS
 62
     7
370
    18
100
AcDbVertex
100
AcDb2dVertex
 10
62.10350214326326
 20
47.98133173821177
 30
0.0
  0
VERTEX
  5
1D1
330
1CF
100
AcDbEntity
  8
DIBUJOS
 62
     7
370
    18
100
AcDbVertex
100
AcDb2dVertex
 10
62.09788976801573
 20
47.98133173821177
 30
0.0
  0
SEQEND
  5
1D2
330
1CF
100
AcDbEntity
  8
DIBUJOS
 62
     7
370
    18
  0
POLYLINE
  5
1D3
330
52
100
AcDbEntity
  8
DIBUJOS
 62
     7
370
    18
100
AcDb2dPolyline
 66
     1
 10
0.0
 20
0.0
 30
0.0
  0
VERTEX
  5
1D4
330
1D3
100
AcDbEntity
  8
DIBUJOS
 62
     7
370
    18
100
AcDbVertex
100
AcDb2dVertex
 10
62.10350214326326
 20
47.98133173821177
 30
0.0
  0
VERTEX
  5
1D5
330
1D3
100
AcDbEntity
  8
DIBUJOS
 62
     7
370
    18
100
AcDbVertex
100
AcDb2dVertex
 10
62.10350214326326
 20
47.98693137732285
 30
0.0
  0
SEQEND
  5
1D6
330
1D3
100
AcDbEntity
  8
DIBUJOS
 62
     7
370
    18
  0
POLYLINE
  5
1D7
330
52
100
AcDbEntity
  8
DIBUJOS
 62
     7
370
    18
100
AcDb2dPolyline
 66
     1
 10
0.0
 20
0.0
 30
0.0
  0
VERTEX
  5
1D8
330
1D7
100
AcDbEntity
  8
DIBUJOS
 62
     7
370
    18
100
AcDbVertex
100
AcDb2dVertex
 10
62.10911376324578
 20
47.98133173821177
 30
0.0
  0
VERTEX
  5
1D9
330
1D7
100
AcDbEntity
  8
DIBUJOS
 62
     7
370
    18
100
AcDbVertex
100
AcDb2dVertex
 10
62.10350214326326
 20
47.98133173821177
 30
0.0
  0
SEQEND
  5
1DA
330
1D7
100
AcDbEntity
  8
DIBUJOS
 62
     7
370
    18
  0
POLYLINE
  5
1DB
330
52
100
AcDbEntity
  8
DIBUJOS
 62
     7
370
    18
100
AcDb2dPolyline
 66
     1
 10
0.0
 20
0.0
 30
0.0
  0
VERTEX
  5
1DC
330
1DB
100
AcDbEntity
  8
DIBUJOS
 62
     7
370
    18
100
AcDbVertex
100
AcDb2dVertex
 10
62.21013500716933
 20
47.98133173821177
 30
0.0
  0
VERTEX
  5
1DD
330
1DB
100
AcDbEntity
  8
DIBUJOS
 62
     7
370
    18
100
AcDbVertex
100
AcDb2dVertex
 10
62.10911376324578
 20
47.98133173821177
 30
0.0
  0
SEQEND
  5
1DE
330
1DB
100
AcDbEntity
  8
DIBUJOS
 62
     7
370
    18
  0
POLYLINE
  5
1DF
330
52
100
AcDbEntity
  8
DIBUJOS
 62
     7
370
    18
100
AcDb2dPolyline
 66
     1
 10
0.0
 20
0.0
 30
0.0
  0
VERTEX
  5
1E0
330
1DF
100
AcDbEntity
  8
DIBUJOS
 62
     7
370
    18
100
AcDbVertex
100
AcDb2dVertex
 10
62.21574738241686
 20
47.98133173821177
 30
0.0
  0
VERTEX
  5
1E1
330
1DF
100
AcDbEntity
  8
DIBUJOS
 62
     7
370
    18
100
AcDbVertex
100
AcDb2dVertex
 10
62.21013500716933
 20
47.98133173821177
 30
0.0
  0
SEQEND
  5
1E2
330
1DF
100
AcDbEntity
  8
DIBUJOS
 62
     7
370
    18
  0
POLYLINE
  5
1E3
330
52
100
AcDbEntity
  8
DIBUJOS
 62
     7
370
    18
100
AcDb2dPolyline
 66
     1
 10
0.0
 20
0.0
 30
0.0
  0
VERTEX
  5
1E4
330
1E3
100
AcDbEntity
  8
DIBUJOS
 62
     7
370
    18
100
AcDbVertex
100
AcDb2dVertex
 10
62.21574738241686
 20
47.98133173821177
 30
0.0
  0
VERTEX
  5
1E5
330
1E3
100
AcDbEntity
  8
DIBUJOS
 62
     7
370
    18
100
AcDbVertex
100
AcDb2dVertex
 10
62.21574738241686
 20
47.98693137732285
 30
0.0
  0
SEQEND
  5
1E6
330
1E3
100
AcDbEntity
  8
DIBUJOS
 62
     7
370
    18
  0
POLYLINE
  5
1E7
330
52
100
AcDbEntity
  8
DIBUJOS
 62
     7
370
    18
100
AcDb2dPolyline
 66
     1
 10
0.0
 20
0.0
 30
0.0
  0
VERTEX
  5
1E8
330
1E7
100
AcDbEntity
  8
DIBUJOS
 62
     7
370
    18
100
AcDbVertex
100
AcDb2dVertex
 10
62.22135900239905
 20
47.98133173821177
 30
0.0
  0
VERTEX
  5
1E9
330
1E7
100
AcDbEntity
  8
DIBUJOS
 62
     7
370
    18
100
AcDbVertex
100
AcDb2dVertex
 10
62.21574738241686
 20
47.98133173821177
 30
0.0
  0
SEQEND
  5
1EA
330
1E7
100
AcDbEntity
  8
DIBUJOS
 62
     7
370
    18
  0
POLYLINE
  5
1EB
330
52
100
AcDbEntity
  8
DIBUJOS
 62
     7
370
    18
100
AcDb2dPolyline
 66
     1
 10
0.0
 20
0.0
 30
0.0
  0
VERTEX
  5
1EC
330
1EB
100
AcDbEntity
  8
DIBUJOS
 62
     7
370
    18
100
AcDbVertex
100
AcDb2dVertex
 10
67.61474512280857
 20
47.98133173821177
 30
0.0
  0
VERTEX
  5
1ED
330
1EB
100
AcDbEntity
  8
DIBUJOS
 62
     7
370
    18
100
AcDbVertex
100
AcDb2dVertex
 10
67.6091335028267
 20
47.98133173821177
 30
0.0
  0
SEQEND
  5
1EE
330
1EB
100
AcDbEntity
  8
DIBUJOS
 62
     7
370
    18
  0
POLYLINE
  5
1EF
330
52
100
AcDbEntity
  8
DIBUJOS
 62
     7
370
    18
100
AcDb2dPolyline
 66
     1
 10
0.0
 20
0.0
 30
0.0
  0
VERTEX
  5
1F0
330
1EF
100
AcDbEntity
  8
DIBUJOS
 62
     7
370
    18
100
AcDbVertex
100
AcDb2dVertex
 10
67.61474512280857
 20
47.98133173821177
 30
0.0
  0
VERTEX
  5
1F1
330
1EF
100
AcDbEntity
  8
DIBUJOS
 62
     7
370
    18
100
AcDbVertex
100
AcDb2dVertex
 10
67.61474512280857
 20
47.98693137732285
 30
0.0
  0
SEQEND
  5
1F2
330
1EF
100
AcDbEntity
  8
DIBUJOS
 62
     7
370
    18
  0
POLYLINE
  5
1F3
330
52
100
AcDbEntity
  8
DIBUJOS
 62
     7
370
    18
100
AcDb2dPolyline
 66
     1
 10
0.0
 20
0.0
 30
0.0
  0
VERTEX
  5
1F4
330
1F3
100
AcDbEntity
  8
DIBUJOS
 62
     7
370
    18
100
AcDbVertex
100
AcDb2dVertex
 10
67.62035825332143
 20
47.98133173821177
 30
0.0
  0
VERTEX
  5
1F5
330
1F3
100
AcDbEntity
  8
DIBUJOS
 62
     7
370
    18
100
AcDbVertex
100
AcDb2dVertex
 10
67.61474512280857
 20
47.98133173821177
 30
0.0
  0
SEQEND
  5
1F6
330
1F3
100
AcDbEntity
  8
DIBUJOS
 62
     7
370
    18
  0
POLYLINE
  5
1F7
330
52
100
AcDbEntity
  8
DIBUJOS
 62
     7
370
    18
100
AcDb2dPolyline
 66
     1
 10
0.0
 20
0.0
 30
0.0
  0
VERTEX
  5
1F8
330
1F7
100
AcDbEntity
  8
DIBUJOS
 62
     7
370
    18
100
AcDbVertex
100
AcDb2dVertex
 10
67.62035825332143
 20
47.98133173821177
 30
0.0
  0
VERTEX
  5
1F9
330
1F7
100
AcDbEntity
  8
DIBUJOS
 62
     7
370
    18
100
AcDbVertex
100
AcDb2dVertex
 10
67.69892999625584
 20
47.98133173821177
 30
0.0
  0
VERTEX
  5
1FA
330
1F7
100
AcDbEntity
  8
DIBUJOS
 62
     7
370
    18
100
AcDbVertex
100
AcDb2dVertex
 10
67.72137798671497
 20
49.25785355848229
 30
0.0
  0
VERTEX
  5
1FB
330
1F7
100
AcDbEntity
  8
DIBUJOS
 62
     7
370
    18
100
AcDbVertex
100
AcDb2dVertex
 10
67.71576636673309
 20
49.26345018379351
 30
0.0
  0
SEQEND
  5
1FC
330
1F7
100
AcDbEntity
  8
DIBUJOS
 62
     7
370
    18
  0
POLYLINE
  5
1FD
330
52
100
AcDbEntity
  8
DIBUJOS
 62
     7
370
    18
100
AcDb2dPolyline
 66
     1
 10
0.0
 20
0.0
 30
0.0
  0
VERTEX
  5
1FE
330
1FD
100
AcDbEntity
  8
DIBUJOS
 62
     7
370
    18
100
AcDbVertex
100
AcDb2dVertex
 10
62.22135900239905
 20
47.98133173821177
 30
0.0
  0
VERTEX
  5
1FF
330
1FD
100
AcDbEntity
  8
DIBUJOS
 62
     7
370
    18
100
AcDbVertex
100
AcDb2dVertex
 10
62.8779706536239
 20
47.97855602905108
 30
0.0
  0
VERTEX
  5
200
330
1FD
100
AcDbEntity
  8
DIBUJOS
 62
     7
370
    18
100
AcDbVertex
100
AcDb2dVertex
 10
63.06303553641244
 20
47.96751949599239
 30
0.0
  0
VERTEX
  5
201
330
1FD
100
AcDbEntity
  8
DIBUJOS
 62
     7
370
    18
100
AcDbVertex
100
AcDb2dVertex
 10
63.78165974239976
 20
47.93364439179251
 30
0.0
  0
VERTEX
  5
202
330
1FD
100
AcDbEntity
  8
DIBUJOS
 62
     7
370
    18
100
AcDbVertex
100
AcDb2dVertex
 10
64.4045299235423
 20
47.9169449298379
 30
0.0
  0
VERTEX
  5
203
330
1FD
100
AcDbEntity
  8
DIBUJOS
 62
     7
370
    18
100
AcDbVertex
100
AcDb2dVertex
 10
64.9657916167709
 20
47.91138145631869
 30
0.0
  0
VERTEX
  5
204
330
1FD
100
AcDbEntity
  8
DIBUJOS
 62
     7
370
    18
100
AcDbVertex
100
AcDb2dVertex
 10
65.88608067803631
 20
47.92805078028017
 30
0.0
  0
VERTEX
  5
205
330
1FD
100
AcDbEntity
  8
DIBUJOS
 62
     7
370
    18
100
AcDbVertex
100
AcDb2dVertex
 10
66.7674569688133
 20
47.96751949599239
 30
0.0
  0
VERTEX
  5
206
330
1FD
100
AcDbEntity
  8
DIBUJOS
 62
     7
370
    18
100
AcDbVertex
100
AcDb2dVertex
 10
66.8513140571893
 20
47.97274843778828
 30
0.0
  0
VERTEX
  5
207
330
1FD
100
AcDbEntity
  8
DIBUJOS
 62
     7
370
    18
100
AcDbVertex
100
AcDb2dVertex
 10
66.95252260686718
 20
47.97855602905108
 30
0.0
  0
VERTEX
  5
208
330
1FD
100
AcDbEntity
  8
DIBUJOS
 62
     7
370
    18
100
AcDbVertex
100
AcDb2dVertex
 10
67.6091335028267
 20
47.98133173821177
 30
0.0
  0
SEQEND
  5
209
330
1FD
100
AcDbEntity
  8
DIBUJOS
 62
     7
370
    18
  0
POLYLINE
  5
20A
330
52
100
AcDbEntity
  8
DIBUJOS
 62
     7
370
    18
100
AcDb2dPolyline
 66
     1
 10
0.0
 20
0.0
 30
0.0
  0
VERTEX
  5
20B
330
20A
100
AcDbEntity
  8
DIBUJOS
 62
     7
370
    18
100
AcDbVertex
100
AcDb2dVertex
 10
62.10350214326326
 20
47.44944739528259
 30
0.0
  0
VERTEX
  5
20C
330
20A
100
AcDbEntity
  8
DIBUJOS
 62
     7
370
    18
100
AcDbVertex
100
AcDb2dVertex
 10
62.08666501752132
 20
47.46064667350444
 30
0.0
  0
SEQEND
  5
20D
330
20A
100
AcDbEntity
  8
DIBUJOS
 62
     7
370
    18
  0
POLYLINE
  5
20E
330
52
100
AcDbEntity
  8
DIBUJOS
 62
     7
370
    18
100
AcDb2dPolyline
 66
     1
 10
0.0
 20
0.0
 30
0.0
  0
VERTEX
  5
20F
330
20E
100
AcDbEntity
  8
DIBUJOS
 62
     7
370
    18
100
AcDbVertex
100
AcDb2dVertex
 10
62.10911376324578
 20
47.44944739528259
 30
0.0
  0
VERTEX
  5
210
330
20E
100
AcDbEntity
  8
DIBUJOS
 62
     7
370
    18
100
AcDbVertex
100
AcDb2dVertex
 10
62.10350214326326
 20
47.44944739528259
 30
0.0
  0
SEQEND
  5
211
330
20E
100
AcDbEntity
  8
DIBUJOS
 62
     7
370
    18
  0
POLYLINE
  5
212
330
52
100
AcDbEntity
  8
DIBUJOS
 62
     7
370
    18
100
AcDb2dPolyline
 66
     1
 10
0.0
 20
0.0
 30
0.0
  0
VERTEX
  5
213
330
212
100
AcDbEntity
  8
DIBUJOS
 62
     7
370
    18
100
AcDbVertex
100
AcDb2dVertex
 10
62.4907477274205
 20
47.44944739528259
 30
0.0
  0
VERTEX
  5
214
330
212
100
AcDbEntity
  8
DIBUJOS
 62
     7
370
    18
100
AcDbVertex
100
AcDb2dVertex
 10
62.48513610743831
 20
47.45504703439303
 30
0.0
  0
VERTEX
  5
215
330
212
100
AcDbEntity
  8
DIBUJOS
 62
     7
370
    18
100
AcDbVertex
100
AcDb2dVertex
 10
62.11472613849298
 20
47.45504703439303
 30
0.0
  0
VERTEX
  5
216
330
212
100
AcDbEntity
  8
DIBUJOS
 62
     7
370
    18
100
AcDbVertex
100
AcDb2dVertex
 10
62.10911376324578
 20
47.44944739528259
 30
0.0
  0
SEQEND
  5
217
330
212
100
AcDbEntity
  8
DIBUJOS
 62
     7
370
    18
  0
POLYLINE
  5
218
330
52
100
AcDbEntity
  8
DIBUJOS
 62
     7
370
    18
100
AcDb2dPolyline
 66
     1
 10
0.0
 20
0.0
 30
0.0
  0
VERTEX
  5
219
330
218
100
AcDbEntity
  8
DIBUJOS
 62
     7
370
    18
100
AcDbVertex
100
AcDb2dVertex
 10
62.49636010266835
 20
47.44944739528259
 30
0.0
  0
VERTEX
  5
21A
330
218
100
AcDbEntity
  8
DIBUJOS
 62
     7
370
    18
100
AcDbVertex
100
AcDb2dVertex
 10
62.4907477274205
 20
47.44944739528259
 30
0.0
  0
SEQEND
  5
21B
330
218
100
AcDbEntity
  8
DIBUJOS
 62
     7
370
    18
  0
POLYLINE
  5
21C
330
52
100
AcDbEntity
  8
DIBUJOS
 62
     7
370
    18
100
AcDb2dPolyline
 66
     1
 10
0.0
 20
0.0
 30
0.0
  0
VERTEX
  5
21D
330
21C
100
AcDbEntity
  8
DIBUJOS
 62
     7
370
    18
100
AcDbVertex
100
AcDb2dVertex
 10
62.50197247791588
 20
47.44944739528259
 30
0.0
  0
VERTEX
  5
21E
330
21C
100
AcDbEntity
  8
DIBUJOS
 62
     7
370
    18
100
AcDbVertex
100
AcDb2dVertex
 10
62.49636010266835
 20
47.44944739528259
 30
0.0
  0
SEQEND
  5
21F
330
21C
100
AcDbEntity
  8
DIBUJOS
 62
     7
370
    18
  0
POLYLINE
  5
220
330
52
100
AcDbEntity
  8
DIBUJOS
 62
     7
370
    18
100
AcDb2dPolyline
 66
     1
 10
0.0
 20
0.0
 30
0.0
  0
VERTEX
  5
221
330
220
100
AcDbEntity
  8
DIBUJOS
 62
     7
370
    18
100
AcDbVertex
100
AcDb2dVertex
 10
62.50197247791588
 20
47.44944739528259
 30
0.0
  0
VERTEX
  5
222
330
220
100
AcDbEntity
  8
DIBUJOS
 62
     7
370
    18
100
AcDbVertex
100
AcDb2dVertex
 10
62.50758485316277
 20
47.45504703439303
 30
0.0
  0
VERTEX
  5
223
330
220
100
AcDbEntity
  8
DIBUJOS
 62
     7
370
    18
100
AcDbVertex
100
AcDb2dVertex
 10
62.60299372183911
 20
47.45504703439303
 30
0.0
  0
SEQEND
  5
224
330
220
100
AcDbEntity
  8
DIBUJOS
 62
     7
370
    18
  0
POLYLINE
  5
225
330
52
100
AcDbEntity
  8
DIBUJOS
 62
     7
370
    18
100
AcDb2dPolyline
 66
     1
 10
0.0
 20
0.0
 30
0.0
  0
VERTEX
  5
226
330
225
100
AcDbEntity
  8
DIBUJOS
 62
     7
370
    18
100
AcDbVertex
100
AcDb2dVertex
 10
62.79380994866146
 20
47.44944739528259
 30
0.0
  0
VERTEX
  5
227
330
225
100
AcDbEntity
  8
DIBUJOS
 62
     7
370
    18
100
AcDbVertex
100
AcDb2dVertex
 10
62.79942232390899
 20
47.45504703439303
 30
0.0
  0
SEQEND
  5
228
330
225
100
AcDbEntity
  8
DIBUJOS
 62
     7
370
    18
  0
POLYLINE
  5
229
330
52
100
AcDbEntity
  8
DIBUJOS
 62
     7
370
    18
100
AcDb2dPolyline
 66
     1
 10
0.0
 20
0.0
 30
0.0
  0
VERTEX
  5
22A
330
229
100
AcDbEntity
  8
DIBUJOS
 62
     7
370
    18
100
AcDbVertex
100
AcDb2dVertex
 10
67.30607128158606
 20
47.44944739528259
 30
0.0
  0
VERTEX
  5
22B
330
229
100
AcDbEntity
  8
DIBUJOS
 62
     7
370
    18
100
AcDbVertex
100
AcDb2dVertex
 10
67.30045815107287
 20
47.45504703439303
 30
0.0
  0
VERTEX
  5
22C
330
229
100
AcDbEntity
  8
DIBUJOS
 62
     7
370
    18
100
AcDbVertex
100
AcDb2dVertex
 10
67.23311115863385
 20
47.45504703439303
 30
0.0
  0
SEQEND
  5
22D
330
229
100
AcDbEntity
  8
DIBUJOS
 62
     7
370
    18
  0
POLYLINE
  5
22E
330
52
100
AcDbEntity
  8
DIBUJOS
 62
     7
370
    18
100
AcDb2dPolyline
 66
     1
 10
0.0
 20
0.0
 30
0.0
  0
VERTEX
  5
22F
330
22E
100
AcDbEntity
  8
DIBUJOS
 62
     7
370
    18
100
AcDbVertex
100
AcDb2dVertex
 10
67.31168290156793
 20
47.44944739528259
 30
0.0
  0
VERTEX
  5
230
330
22E
100
AcDbEntity
  8
DIBUJOS
 62
     7
370
    18
100
AcDbVertex
100
AcDb2dVertex
 10
67.30607128158606
 20
47.44944739528259
 30
0.0
  0
SEQEND
  5
231
330
22E
100
AcDbEntity
  8
DIBUJOS
 62
     7
370
    18
  0
POLYLINE
  5
232
330
52
100
AcDbEntity
  8
DIBUJOS
 62
     7
370
    18
100
AcDb2dPolyline
 66
     1
 10
0.0
 20
0.0
 30
0.0
  0
VERTEX
  5
233
330
232
100
AcDbEntity
  8
DIBUJOS
 62
     7
370
    18
100
AcDbVertex
100
AcDb2dVertex
 10
67.31729603208048
 20
47.44944739528259
 30
0.0
  0
VERTEX
  5
234
330
232
100
AcDbEntity
  8
DIBUJOS
 62
     7
370
    18
100
AcDbVertex
100
AcDb2dVertex
 10
67.31168290156793
 20
47.44944739528259
 30
0.0
  0
SEQEND
  5
235
330
232
100
AcDbEntity
  8
DIBUJOS
 62
     7
370
    18
  0
POLYLINE
  5
236
330
52
100
AcDbEntity
  8
DIBUJOS
 62
     7
370
    18
100
AcDb2dPolyline
 66
     1
 10
0.0
 20
0.0
 30
0.0
  0
VERTEX
  5
237
330
236
100
AcDbEntity
  8
DIBUJOS
 62
     7
370
    18
100
AcDbVertex
100
AcDb2dVertex
 10
67.69892999625584
 20
47.44944739528259
 30
0.0
  0
VERTEX
  5
238
330
236
100
AcDbEntity
  8
DIBUJOS
 62
     7
370
    18
100
AcDbVertex
100
AcDb2dVertex
 10
67.69331686574266
 20
47.45504703439303
 30
0.0
  0
VERTEX
  5
239
330
236
100
AcDbEntity
  8
DIBUJOS
 62
     7
370
    18
100
AcDbVertex
100
AcDb2dVertex
 10
67.32290765206331
 20
47.45504703439303
 30
0.0
  0
VERTEX
  5
23A
330
236
100
AcDbEntity
  8
DIBUJOS
 62
     7
370
    18
100
AcDbVertex
100
AcDb2dVertex
 10
67.31729603208048
 20
47.44944739528259
 30
0.0
  0
SEQEND
  5
23B
330
236
100
AcDbEntity
  8
DIBUJOS
 62
     7
370
    18
  0
POLYLINE
  5
23C
330
52
100
AcDbEntity
  8
DIBUJOS
 62
     7
370
    18
100
AcDb2dPolyline
 66
     1
 10
0.0
 20
0.0
 30
0.0
  0
VERTEX
  5
23D
330
23C
100
AcDbEntity
  8
DIBUJOS
 62
     7
370
    18
100
AcDbVertex
100
AcDb2dVertex
 10
67.70454161623772
 20
47.44944739528259
 30
0.0
  0
VERTEX
  5
23E
330
23C
100
AcDbEntity
  8
DIBUJOS
 62
     7
370
    18
100
AcDbVertex
100
AcDb2dVertex
 10
67.69892999625584
 20
47.44944739528259
 30
0.0
  0
SEQEND
  5
23F
330
23C
100
AcDbEntity
  8
DIBUJOS
 62
     7
370
    18
  0
POLYLINE
  5
240
330
52
100
AcDbEntity
  8
DIBUJOS
 62
     7
370
    18
100
AcDb2dPolyline
 66
     1
 10
0.0
 20
0.0
 30
0.0
  0
VERTEX
  5
241
330
240
100
AcDbEntity
  8
DIBUJOS
 62
     7
370
    18
100
AcDbVertex
100
AcDb2dVertex
 10
67.70454161623772
 20
47.44944739528259
 30
0.0
  0
VERTEX
  5
242
330
240
100
AcDbEntity
  8
DIBUJOS
 62
     7
370
    18
100
AcDbVertex
100
AcDb2dVertex
 10
67.72137798671497
 20
47.46064667350444
 30
0.0
  0
SEQEND
  5
243
330
240
100
AcDbEntity
  8
DIBUJOS
 62
     7
370
    18
  0
POLYLINE
  5
244
330
52
100
AcDbEntity
  8
DIBUJOS
 62
     7
370
    18
100
AcDb2dPolyline
 66
     1
 10
0.0
 20
0.0
 30
0.0
  0
VERTEX
  5
245
330
244
100
AcDbEntity
  8
DIBUJOS
 62
     7
370
    18
100
AcDbVertex
100
AcDb2dVertex
 10
62.10350214326326
 20
47.44385076997104
 30
0.0
  0
VERTEX
  5
246
330
244
100
AcDbEntity
  8
DIBUJOS
 62
     7
370
    18
100
AcDbVertex
100
AcDb2dVertex
 10
62.10350214326326
 20
47.44944739528259
 30
0.0
  0
SEQEND
  5
247
330
244
100
AcDbEntity
  8
DIBUJOS
 62
     7
370
    18
  0
POLYLINE
  5
248
330
52
100
AcDbEntity
  8
DIBUJOS
 62
     7
370
    18
100
AcDb2dPolyline
 66
     1
 10
0.0
 20
0.0
 30
0.0
  0
VERTEX
  5
249
330
248
100
AcDbEntity
  8
DIBUJOS
 62
     7
370
    18
100
AcDbVertex
100
AcDb2dVertex
 10
62.49636010266835
 20
47.44385076997104
 30
0.0
  0
VERTEX
  5
24A
330
248
100
AcDbEntity
  8
DIBUJOS
 62
     7
370
    18
100
AcDbVertex
100
AcDb2dVertex
 10
62.49636010266835
 20
47.44944739528259
 30
0.0
  0
SEQEND
  5
24B
330
248
100
AcDbEntity
  8
DIBUJOS
 62
     7
370
    18
  0
POLYLINE
  5
24C
330
52
100
AcDbEntity
  8
DIBUJOS
 62
     7
370
    18
100
AcDb2dPolyline
 66
     1
 10
0.0
 20
0.0
 30
0.0
  0
VERTEX
  5
24D
330
24C
100
AcDbEntity
  8
DIBUJOS
 62
     7
370
    18
100
AcDbVertex
100
AcDb2dVertex
 10
67.31168290156793
 20
47.44385076997104
 30
0.0
  0
VERTEX
  5
24E
330
24C
100
AcDbEntity
  8
DIBUJOS
 62
     7
370
    18
100
AcDbVertex
100
AcDb2dVertex
 10
67.31168290156793
 20
47.44944739528259
 30
0.0
  0
SEQEND
  5
24F
330
24C
100
AcDbEntity
  8
DIBUJOS
 62
     7
370
    18
  0
POLYLINE
  5
250
330
52
100
AcDbEntity
  8
DIBUJOS
 62
     7
370
    18
100
AcDb2dPolyline
 66
     1
 10
0.0
 20
0.0
 30
0.0
  0
VERTEX
  5
251
330
250
100
AcDbEntity
  8
DIBUJOS
 62
     7
370
    18
100
AcDbVertex
100
AcDb2dVertex
 10
67.70454161623772
 20
47.44385076997104
 30
0.0
  0
VERTEX
  5
252
330
250
100
AcDbEntity
  8
DIBUJOS
 62
     7
370
    18
100
AcDbVertex
100
AcDb2dVertex
 10
67.70454161623772
 20
47.44944739528259
 30
0.0
  0
SEQEND
  5
253
330
250
100
AcDbEntity
  8
DIBUJOS
 62
     7
370
    18
  0
POLYLINE
  5
254
330
52
100
AcDbEntity
  8
DIBUJOS
 62
     7
370
    18
100
AcDb2dPolyline
 66
     1
 10
0.0
 20
0.0
 30
0.0
  0
VERTEX
  5
255
330
254
100
AcDbEntity
  8
DIBUJOS
 62
     7
370
    18
100
AcDbVertex
100
AcDb2dVertex
 10
67.04790655179434
 20
47.3654678776198
 30
0.0
  0
VERTEX
  5
256
330
254
100
AcDbEntity
  8
DIBUJOS
 62
     7
370
    18
100
AcDbVertex
100
AcDb2dVertex
 10
67.04790655179434
 20
47.44385076997104
 30
0.0
  0
VERTEX
  5
257
330
254
100
AcDbEntity
  8
DIBUJOS
 62
     7
370
    18
100
AcDbVertex
100
AcDb2dVertex
 10
67.03668180129895
 20
47.45504703439303
 30
0.0
  0
VERTEX
  5
258
330
254
100
AcDbEntity
  8
DIBUJOS
 62
     7
370
    18
100
AcDbVertex
100
AcDb2dVertex
 10
62.79942232390899
 20
47.45504703439303
 30
0.0
  0
SEQEND
  5
259
330
254
100
AcDbEntity
  8
DIBUJOS
 62
     7
370
    18
  0
POLYLINE
  5
25A
330
52
100
AcDbEntity
  8
DIBUJOS
 62
     7
370
    18
100
AcDb2dPolyline
 66
     1
 10
0.0
 20
0.0
 30
0.0
  0
VERTEX
  5
25B
330
25A
100
AcDbEntity
  8
DIBUJOS
 62
     7
370
    18
100
AcDbVertex
100
AcDb2dVertex
 10
62.86677007161335
 20
47.3430723349766
 30
0.0
  0
VERTEX
  5
25C
330
25A
100
AcDbEntity
  8
DIBUJOS
 62
     7
370
    18
100
AcDbVertex
100
AcDb2dVertex
 10
62.80503469915652
 20
47.3430723349766
 30
0.0
  0
VERTEX
  5
25D
330
25A
100
AcDbEntity
  8
DIBUJOS
 62
     7
370
    18
100
AcDbVertex
100
AcDb2dVertex
 10
62.79380994866146
 20
47.35426859939859
 30
0.0
  0
VERTEX
  5
25E
330
25A
100
AcDbEntity
  8
DIBUJOS
 62
     7
370
    18
100
AcDbVertex
100
AcDb2dVertex
 10
62.79380994866146
 20
47.44944739528259
 30
0.0
  0
SEQEND
  5
25F
330
25A
100
AcDbEntity
  8
DIBUJOS
 62
     7
370
    18
  0
POLYLINE
  5
260
330
52
100
AcDbEntity
  8
DIBUJOS
 62
     7
370
    18
100
AcDb2dPolyline
 66
     1
 10
0.0
 20
0.0
 30
0.0
  0
VERTEX
  5
261
330
260
100
AcDbEntity
  8
DIBUJOS
 62
     7
370
    18
100
AcDbVertex
100
AcDb2dVertex
 10
62.87238169159523
 20
47.3430723349766
 30
0.0
  0
VERTEX
  5
262
330
260
100
AcDbEntity
  8
DIBUJOS
 62
     7
370
    18
100
AcDbVertex
100
AcDb2dVertex
 10
62.86677007161335
 20
47.3430723349766
 30
0.0
  0
SEQEND
  5
263
330
260
100
AcDbEntity
  8
DIBUJOS
 62
     7
370
    18
  0
POLYLINE
  5
264
330
52
100
AcDbEntity
  8
DIBUJOS
 62
     7
370
    18
100
AcDb2dPolyline
 66
     1
 10
0.0
 20
0.0
 30
0.0
  0
VERTEX
  5
265
330
264
100
AcDbEntity
  8
DIBUJOS
 62
     7
370
    18
100
AcDbVertex
100
AcDb2dVertex
 10
62.87799406684308
 20
47.3430723349766
 30
0.0
  0
VERTEX
  5
266
330
264
100
AcDbEntity
  8
DIBUJOS
 62
     7
370
    18
100
AcDbVertex
100
AcDb2dVertex
 10
62.87238169159523
 20
47.3430723349766
 30
0.0
  0
SEQEND
  5
267
330
264
100
AcDbEntity
  8
DIBUJOS
 62
     7
370
    18
  0
POLYLINE
  5
268
330
52
100
AcDbEntity
  8
DIBUJOS
 62
     7
370
    18
100
AcDb2dPolyline
 66
     1
 10
0.0
 20
0.0
 30
0.0
  0
VERTEX
  5
269
330
268
100
AcDbEntity
  8
DIBUJOS
 62
     7
370
    18
100
AcDbVertex
100
AcDb2dVertex
 10
66.92443731741069
 20
47.3430723349766
 30
0.0
  0
VERTEX
  5
26A
330
268
100
AcDbEntity
  8
DIBUJOS
 62
     7
370
    18
100
AcDbVertex
100
AcDb2dVertex
 10
62.87799406684308
 20
47.3430723349766
 30
0.0
  0
SEQEND
  5
26B
330
268
100
AcDbEntity
  8
DIBUJOS
 62
     7
370
    18
  0
POLYLINE
  5
26C
330
52
100
AcDbEntity
  8
DIBUJOS
 62
     7
370
    18
100
AcDb2dPolyline
 66
     1
 10
0.0
 20
0.0
 30
0.0
  0
VERTEX
  5
26D
330
26C
100
AcDbEntity
  8
DIBUJOS
 62
     7
370
    18
100
AcDbVertex
100
AcDb2dVertex
 10
66.93004893739354
 20
47.3430723349766
 30
0.0
  0
VERTEX
  5
26E
330
26C
100
AcDbEntity
  8
DIBUJOS
 62
     7
370
    18
100
AcDbVertex
100
AcDb2dVertex
 10
66.92443731741069
 20
47.3430723349766
 30
0.0
  0
SEQEND
  5
26F
330
26C
100
AcDbEntity
  8
DIBUJOS
 62
     7
370
    18
  0
POLYLINE
  5
270
330
52
100
AcDbEntity
  8
DIBUJOS
 62
     7
370
    18
100
AcDb2dPolyline
 66
     1
 10
0.0
 20
0.0
 30
0.0
  0
VERTEX
  5
271
330
270
100
AcDbEntity
  8
DIBUJOS
 62
     7
370
    18
100
AcDbVertex
100
AcDb2dVertex
 10
66.93566206790543
 20
47.3430723349766
 30
0.0
  0
VERTEX
  5
272
330
270
100
AcDbEntity
  8
DIBUJOS
 62
     7
370
    18
100
AcDbVertex
100
AcDb2dVertex
 10
66.93004893739354
 20
47.3430723349766
 30
0.0
  0
SEQEND
  5
273
330
270
100
AcDbEntity
  8
DIBUJOS
 62
     7
370
    18
  0
POLYLINE
  5
274
330
52
100
AcDbEntity
  8
DIBUJOS
 62
     7
370
    18
100
AcDb2dPolyline
 66
     1
 10
0.0
 20
0.0
 30
0.0
  0
VERTEX
  5
275
330
274
100
AcDbEntity
  8
DIBUJOS
 62
     7
370
    18
100
AcDbVertex
100
AcDb2dVertex
 10
67.04790655179434
 20
47.3430723349766
 30
0.0
  0
VERTEX
  5
276
330
274
100
AcDbEntity
  8
DIBUJOS
 62
     7
370
    18
100
AcDbVertex
100
AcDb2dVertex
 10
66.93566206790543
 20
47.3430723349766
 30
0.0
  0
SEQEND
  5
277
330
274
100
AcDbEntity
  8
DIBUJOS
 62
     7
370
    18
  0
POLYLINE
  5
278
330
52
100
AcDbEntity
  8
DIBUJOS
 62
     7
370
    18
100
AcDb2dPolyline
 66
     1
 10
0.0
 20
0.0
 30
0.0
  0
VERTEX
  5
279
330
278
100
AcDbEntity
  8
DIBUJOS
 62
     7
370
    18
100
AcDbVertex
100
AcDb2dVertex
 10
62.87238169159523
 20
47.33747269586584
 30
0.0
  0
VERTEX
  5
27A
330
278
100
AcDbEntity
  8
DIBUJOS
 62
     7
370
    18
100
AcDbVertex
100
AcDb2dVertex
 10
62.87238169159523
 20
47.3430723349766
 30
0.0
  0
SEQEND
  5
27B
330
278
100
AcDbEntity
  8
DIBUJOS
 62
     7
370
    18
  0
POLYLINE
  5
27C
330
52
100
AcDbEntity
  8
DIBUJOS
 62
     7
370
    18
100
AcDb2dPolyline
 66
     1
 10
0.0
 20
0.0
 30
0.0
  0
VERTEX
  5
27D
330
27C
100
AcDbEntity
  8
DIBUJOS
 62
     7
370
    18
100
AcDbVertex
100
AcDb2dVertex
 10
66.93004893739354
 20
47.33747269586584
 30
0.0
  0
VERTEX
  5
27E
330
27C
100
AcDbEntity
  8
DIBUJOS
 62
     7
370
    18
100
AcDbVertex
100
AcDb2dVertex
 10
66.93004893739354
 20
47.3430723349766
 30
0.0
  0
SEQEND
  5
27F
330
27C
100
AcDbEntity
  8
DIBUJOS
 62
     7
370
    18
  0
POLYLINE
  5
280
330
52
100
AcDbEntity
  8
DIBUJOS
 62
     7
370
    18
100
AcDb2dPolyline
 66
     1
 10
0.0
 20
0.0
 30
0.0
  0
VERTEX
  5
281
330
280
100
AcDbEntity
  8
DIBUJOS
 62
     7
370
    18
100
AcDbVertex
100
AcDb2dVertex
 10
62.61983009231636
 20
47.31507715322297
 30
0.0
  0
VERTEX
  5
282
330
280
100
AcDbEntity
  8
DIBUJOS
 62
     7
370
    18
100
AcDbVertex
100
AcDb2dVertex
 10
62.61421771706884
 20
47.31507715322297
 30
0.0
  0
SEQEND
  5
283
330
280
100
AcDbEntity
  8
DIBUJOS
 62
     7
370
    18
  0
POLYLINE
  5
284
330
52
100
AcDbEntity
  8
DIBUJOS
 62
     7
370
    18
100
AcDb2dPolyline
 66
     1
 10
0.0
 20
0.0
 30
0.0
  0
VERTEX
  5
285
330
284
100
AcDbEntity
  8
DIBUJOS
 62
     7
370
    18
100
AcDbVertex
100
AcDb2dVertex
 10
67.05913130228907
 20
47.31507715322297
 30
0.0
  0
VERTEX
  5
286
330
284
100
AcDbEntity
  8
DIBUJOS
 62
     7
370
    18
100
AcDbVertex
100
AcDb2dVertex
 10
67.05351968230656
 20
47.31507715322297
 30
0.0
  0
SEQEND
  5
287
330
284
100
AcDbEntity
  8
DIBUJOS
 62
     7
370
    18
  0
POLYLINE
  5
288
330
52
100
AcDbEntity
  8
DIBUJOS
 62
     7
370
    18
100
AcDb2dPolyline
 66
     1
 10
0.0
 20
0.0
 30
0.0
  0
VERTEX
  5
289
330
288
100
AcDbEntity
  8
DIBUJOS
 62
     7
370
    18
100
AcDbVertex
100
AcDb2dVertex
 10
67.22188640813847
 20
47.31507715322297
 30
0.0
  0
VERTEX
  5
28A
330
288
100
AcDbEntity
  8
DIBUJOS
 62
     7
370
    18
100
AcDbVertex
100
AcDb2dVertex
 10
67.18821366718461
 20
47.31507715322297
 30
0.0
  0
SEQEND
  5
28B
330
288
100
AcDbEntity
  8
DIBUJOS
 62
     7
370
    18
  0
POLYLINE
  5
28C
330
52
100
AcDbEntity
  8
DIBUJOS
 62
     7
370
    18
100
AcDb2dPolyline
 66
     1
 10
0.0
 20
0.0
 30
0.0
  0
VERTEX
  5
28D
330
28C
100
AcDbEntity
  8
DIBUJOS
 62
     7
370
    18
100
AcDbVertex
100
AcDb2dVertex
 10
62.74891245721223
 20
47.31507715322297
 30
0.0
  0
VERTEX
  5
28E
330
28C
100
AcDbEntity
  8
DIBUJOS
 62
     7
370
    18
100
AcDbVertex
100
AcDb2dVertex
 10
62.78258595343206
 20
47.31507715322297
 30
0.0
  0
SEQEND
  5
28F
330
28C
100
AcDbEntity
  8
DIBUJOS
 62
     7
370
    18
  0
POLYLINE
  5
290
330
52
100
AcDbEntity
  8
DIBUJOS
 62
     7
370
    18
100
AcDb2dPolyline
 66
     1
 10
0.0
 20
0.0
 30
0.0
  0
VERTEX
  5
291
330
290
100
AcDbEntity
  8
DIBUJOS
 62
     7
370
    18
100
AcDbVertex
100
AcDb2dVertex
 10
62.49636010266835
 20
47.44385076997104
 30
0.0
  0
VERTEX
  5
292
330
290
100
AcDbEntity
  8
DIBUJOS
 62
     7
370
    18
100
AcDbVertex
100
AcDb2dVertex
 10
62.49913872311426
 20
46.87840174417124
 30
0.0
  0
VERTEX
  5
293
330
290
100
AcDbEntity
  8
DIBUJOS
 62
     7
370
    18
100
AcDbVertex
100
AcDb2dVertex
 10
62.51596225408409
 20
45.85383655968568
 30
0.0
  0
VERTEX
  5
294
330
290
100
AcDbEntity
  8
DIBUJOS
 62
     7
370
    18
100
AcDbVertex
100
AcDb2dVertex
 10
62.56370709510738
 20
43.54710169503075
 30
0.0
  0
VERTEX
  5
295
330
290
100
AcDbEntity
  8
DIBUJOS
 62
     7
370
    18
100
AcDbVertex
100
AcDb2dVertex
 10
62.59176897134438
 20
43.51910651327711
 30
0.0
  0
VERTEX
  5
296
330
290
100
AcDbEntity
  8
DIBUJOS
 62
     7
370
    18
100
AcDbVertex
100
AcDb2dVertex
 10
62.61421771706884
 20
43.51350988796588
 30
0.0
  0
VERTEX
  5
297
330
290
100
AcDbEntity
  8
DIBUJOS
 62
     7
370
    18
100
AcDbVertex
100
AcDb2dVertex
 10
62.76063190637343
 20
43.51713247473212
 30
0.0
  0
VERTEX
  5
298
330
290
100
AcDbEntity
  8
DIBUJOS
 62
     7
370
    18
100
AcDbVertex
100
AcDb2dVertex
 10
62.77697357818453
 20
43.51910651327711
 30
0.0
  0
VERTEX
  5
299
330
290
100
AcDbEntity
  8
DIBUJOS
 62
     7
370
    18
100
AcDbVertex
100
AcDb2dVertex
 10
62.80503469915652
 20
43.54710169503075
 30
0.0
  0
VERTEX
  5
29A
330
290
100
AcDbEntity
  8
DIBUJOS
 62
     7
370
    18
100
AcDbVertex
100
AcDb2dVertex
 10
62.81351028454588
 20
43.83829197018132
 30
0.0
  0
VERTEX
  5
29B
330
290
100
AcDbEntity
  8
DIBUJOS
 62
     7
370
    18
100
AcDbVertex
100
AcDb2dVertex
 10
62.81900861475727
 20
44.1125235966376
 30
0.0
  0
VERTEX
  5
29C
330
290
100
AcDbEntity
  8
DIBUJOS
 62
     7
370
    18
100
AcDbVertex
100
AcDb2dVertex
 10
62.87799406684308
 20
47.3318730567554
 30
0.0
  0
VERTEX
  5
29D
330
290
100
AcDbEntity
  8
DIBUJOS
 62
     7
370
    18
100
AcDbVertex
100
AcDb2dVertex
 10
62.87238169159523
 20
47.33747269586584
 30
0.0
  0
SEQEND
  5
29E
330
290
100
AcDbEntity
  8
DIBUJOS
 62
     7
370
    18
  0
POLYLINE
  5
29F
330
52
100
AcDbEntity
  8
DIBUJOS
 62
     7
370
    18
100
AcDb2dPolyline
 66
     1
 10
0.0
 20
0.0
 30
0.0
  0
VERTEX
  5
2A0
330
29F
100
AcDbEntity
  8
DIBUJOS
 62
     7
370
    18
100
AcDbVertex
100
AcDb2dVertex
 10
66.93004893739354
 20
47.33747269586584
 30
0.0
  0
VERTEX
  5
2A1
330
29F
100
AcDbEntity
  8
DIBUJOS
 62
     7
370
    18
100
AcDbVertex
100
AcDb2dVertex
 10
66.93004893739354
 20
47.28148534615715
 30
0.0
  0
VERTEX
  5
2A2
330
29F
100
AcDbEntity
  8
DIBUJOS
 62
     7
370
    18
100
AcDbVertex
100
AcDb2dVertex
 10
67.0001435844076
 20
43.57515112517252
 30
0.0
  0
VERTEX
  5
2A3
330
29F
100
AcDbEntity
  8
DIBUJOS
 62
     7
370
    18
100
AcDbVertex
100
AcDb2dVertex
 10
67.00749835633073
 20
43.54094450304854
 30
0.0
  0
VERTEX
  5
2A4
330
29F
100
AcDbEntity
  8
DIBUJOS
 62
     7
370
    18
100
AcDbVertex
100
AcDb2dVertex
 10
67.02489664407128
 20
43.5235880328448
 30
0.0
  0
VERTEX
  5
2A5
330
29F
100
AcDbEntity
  8
DIBUJOS
 62
     7
370
    18
100
AcDbVertex
100
AcDb2dVertex
 10
67.05351968230656
 20
43.51350988796588
 30
0.0
  0
VERTEX
  5
2A6
330
29F
100
AcDbEntity
  8
DIBUJOS
 62
     7
370
    18
100
AcDbVertex
100
AcDb2dVertex
 10
67.18821366718461
 20
43.51350988796588
 30
0.0
  0
VERTEX
  5
2A7
330
29F
100
AcDbEntity
  8
DIBUJOS
 62
     7
370
    18
100
AcDbVertex
100
AcDb2dVertex
 10
67.21016771424357
 20
43.52108356562196
 30
0.0
  0
VERTEX
  5
2A8
330
29F
100
AcDbEntity
  8
DIBUJOS
 62
     7
370
    18
100
AcDbVertex
100
AcDb2dVertex
 10
67.23872428914639
 20
43.5415020559203
 30
0.0
  0
VERTEX
  5
2A9
330
29F
100
AcDbEntity
  8
DIBUJOS
 62
     7
370
    18
100
AcDbVertex
100
AcDb2dVertex
 10
67.29208226068221
 20
45.86503583790689
 30
0.0
  0
VERTEX
  5
2AA
330
29F
100
AcDbEntity
  8
DIBUJOS
 62
     7
370
    18
100
AcDbVertex
100
AcDb2dVertex
 10
67.30890654691706
 20
46.90639692592455
 30
0.0
  0
VERTEX
  5
2AB
330
29F
100
AcDbEntity
  8
DIBUJOS
 62
     7
370
    18
100
AcDbVertex
100
AcDb2dVertex
 10
67.31168290156793
 20
47.44385076997104
 30
0.0
  0
SEQEND
  5
2AC
330
29F
100
AcDbEntity
  8
DIBUJOS
 62
     7
370
    18
  0
POLYLINE
  5
2AD
330
52
100
AcDbEntity
  8
DIBUJOS
 62
     7
370
    18
100
AcDb2dPolyline
 66
     1
 10
0.0
 20
0.0
 30
0.0
  0
VERTEX
  5
2AE
330
2AD
100
AcDbEntity
  8
DIBUJOS
 62
     7
370
    18
100
AcDbVertex
100
AcDb2dVertex
 10
61.74431692481332
 20
49.70575536994882
 30
0.0
  0
VERTEX
  5
2AF
330
2AD
100
AcDbEntity
  8
DIBUJOS
 62
     7
370
    18
100
AcDbVertex
100
AcDb2dVertex
 10
61.72470419968518
 20
48.08214031119966
 30
0.0
  0
VERTEX
  5
2B0
330
2AD
100
AcDbEntity
  8
DIBUJOS
 62
     7
370
    18
100
AcDbVertex
100
AcDb2dVertex
 10
61.72186742382353
 20
47.00154558381606
 30
0.0
  0
VERTEX
  5
2B1
330
2AD
100
AcDbEntity
  8
DIBUJOS
 62
     7
370
    18
100
AcDbVertex
100
AcDb2dVertex
 10
61.74718391128052
 20
45.66897915165077
 30
0.0
  0
VERTEX
  5
2B2
330
2AD
100
AcDbEntity
  8
DIBUJOS
 62
     7
370
    18
100
AcDbVertex
100
AcDb2dVertex
 10
61.79482754677478
 20
43.52470615238787
 30
0.0
  0
VERTEX
  5
2B3
330
2AD
100
AcDbEntity
  8
DIBUJOS
 62
     7
370
    18
100
AcDbVertex
100
AcDb2dVertex
 10
61.80605154200482
 20
43.51350988796588
 30
0.0
  0
VERTEX
  5
2B4
330
2AD
100
AcDbEntity
  8
DIBUJOS
 62
     7
370
    18
100
AcDbVertex
100
AcDb2dVertex
 10
61.85656216396692
 20
43.50791024885512
 30
0.0
  0
VERTEX
  5
2B5
330
2AD
100
AcDbEntity
  8
DIBUJOS
 62
     7
370
    18
100
AcDbVertex
100
AcDb2dVertex
 10
61.98033425967071
 20
43.511098848521
 30
0.0
  0
VERTEX
  5
2B6
330
2AD
100
AcDbEntity
  8
DIBUJOS
 62
     7
370
    18
100
AcDbVertex
100
AcDb2dVertex
 10
62.01931802508197
 20
43.51350988796588
 30
0.0
  0
VERTEX
  5
2B7
330
2AD
100
AcDbEntity
  8
DIBUJOS
 62
     7
370
    18
100
AcDbVertex
100
AcDb2dVertex
 10
62.03615439555922
 20
43.53030579149895
 30
0.0
  0
VERTEX
  5
2B8
330
2AD
100
AcDbEntity
  8
DIBUJOS
 62
     7
370
    18
100
AcDbVertex
100
AcDb2dVertex
 10
62.08390074711285
 20
45.87063547701765
 30
0.0
  0
VERTEX
  5
2B9
330
2AD
100
AcDbEntity
  8
DIBUJOS
 62
     7
370
    18
100
AcDbVertex
100
AcDb2dVertex
 10
62.10350214326326
 20
47.44385076997104
 30
0.0
  0
SEQEND
  5
2BA
330
2AD
100
AcDbEntity
  8
DIBUJOS
 62
     7
370
    18
  0
POLYLINE
  5
2BB
330
52
100
AcDbEntity
  8
DIBUJOS
 62
     7
370
    18
100
AcDb2dPolyline
 66
     1
 10
0.0
 20
0.0
 30
0.0
  0
VERTEX
  5
2BC
330
2BB
100
AcDbEntity
  8
DIBUJOS
 62
     7
370
    18
100
AcDbVertex
100
AcDb2dVertex
 10
67.70454161623772
 20
47.44385076997104
 30
0.0
  0
VERTEX
  5
2BD
330
2BB
100
AcDbEntity
  8
DIBUJOS
 62
     7
370
    18
100
AcDbVertex
100
AcDb2dVertex
 10
67.70731948141862
 20
46.89519764770302
 30
0.0
  0
VERTEX
  5
2BE
330
2BB
100
AcDbEntity
  8
DIBUJOS
 62
     7
370
    18
100
AcDbVertex
100
AcDb2dVertex
 10
67.73535039178506
 20
45.32197029955244
 30
0.0
  0
VERTEX
  5
2BF
330
2BB
100
AcDbEntity
  8
DIBUJOS
 62
     7
370
    18
100
AcDbVertex
100
AcDb2dVertex
 10
67.77188860867675
 20
43.53030579149895
 30
0.0
  0
VERTEX
  5
2C0
330
2BB
100
AcDbEntity
  8
DIBUJOS
 62
     7
370
    18
100
AcDbVertex
100
AcDb2dVertex
 10
67.788724979154
 20
43.51350988796588
 30
0.0
  0
VERTEX
  5
2C1
330
2BB
100
AcDbEntity
  8
DIBUJOS
 62
     7
370
    18
100
AcDbVertex
100
AcDb2dVertex
 10
67.96831796601163
 20
43.5107100684105
 30
0.0
  0
VERTEX
  5
2C2
330
2BB
100
AcDbEntity
  8
DIBUJOS
 62
     7
370
    18
100
AcDbVertex
100
AcDb2dVertex
 10
67.97436159765385
 20
43.5113550214618
 30
0.0
  0
VERTEX
  5
2C3
330
2BB
100
AcDbEntity
  8
DIBUJOS
 62
     7
370
    18
100
AcDbVertex
100
AcDb2dVertex
 10
67.9963790869833
 20
43.51350988796588
 30
0.0
  0
VERTEX
  5
2C4
330
2BB
100
AcDbEntity
  8
DIBUJOS
 62
     7
370
    18
100
AcDbVertex
100
AcDb2dVertex
 10
68.01321696799089
 20
43.53030579149895
 30
0.0
  0
VERTEX
  5
2C5
330
2BB
100
AcDbEntity
  8
DIBUJOS
 62
     7
370
    18
100
AcDbVertex
100
AcDb2dVertex
 10
68.03853496597887
 20
44.62212692129736
 30
0.0
  0
VERTEX
  5
2C6
330
2BB
100
AcDbEntity
  8
DIBUJOS
 62
     7
370
    18
100
AcDbVertex
100
AcDb2dVertex
 10
68.04401970141751
 20
44.86835131080217
 30
0.0
  0
VERTEX
  5
2C7
330
2BB
100
AcDbEntity
  8
DIBUJOS
 62
     7
370
    18
100
AcDbVertex
100
AcDb2dVertex
 10
68.08617558041244
 20
47.01274486203727
 30
0.0
  0
VERTEX
  5
2C8
330
2BB
100
AcDbEntity
  8
DIBUJOS
 62
     7
370
    18
100
AcDbVertex
100
AcDb2dVertex
 10
68.08617558041244
 20
47.99252800263408
 30
0.0
  0
VERTEX
  5
2C9
330
2BB
100
AcDbEntity
  8
DIBUJOS
 62
     7
370
    18
100
AcDbVertex
100
AcDb2dVertex
 10
68.06372607942296
 20
49.70575536994882
 30
0.0
  0
SEQEND
  5
2CA
330
2BB
100
AcDbEntity
  8
DIBUJOS
 62
     7
370
    18
  0
ENDBLK
  5
55
330
52
100
AcDbEntity
  8
0
100
AcDbBlockEnd
  0
BLOCK
  5
2CD
330
2CB
100
AcDbEntity
  8
0
100
AcDbBlockBegin
  2
block 3
 70
     0
 10
0.0
 20
0.0
 30
0.0
  3
block 3
  1

  0
POLYLINE
  5
2CF
330
2CB
100
AcDbEntity
  8
DIBUJOS
 62
     7
370
    18
100
AcDb2dPolyline
 66
     1
 10
0.0
 20
0.0
 30
0.0
  0
VERTEX
  5
2D0
330
2CF
100
AcDbEntity
  8
DIBUJOS
 62
     7
370
    18
100
AcDbVertex
100
AcDb2dVertex
 10
82.95713448416124
 20
50.01928693935541
 30
0.0
  0
VERTEX
  5
2D1
330
2CF
100
AcDbEntity
  8
DIBUJOS
 62
     7
370
    18
100
AcDbVertex
100
AcDb2dVertex
 10
82.95208327091167
 20
50.02040505889816
 30
0.0
  0
VERTEX
  5
2D2
330
2CF
100
AcDbEntity
  8
DIBUJOS
 62
     7
370
    18
100
AcDbVertex
100
AcDb2dVertex
 10
82.92884527311732
 20
50.02796065375829
 30
0.0
  0
VERTEX
  5
2D3
330
2CF
100
AcDbEntity
  8
DIBUJOS
 62
     7
370
    18
100
AcDbVertex
100
AcDb2dVertex
 10
82.87295263177434
 20
50.03048320377739
 30
0.0
  0
SEQEND
  5
2D4
330
2CF
100
AcDbEntity
  8
DIBUJOS
 62
     7
370
    18
  0
POLYLINE
  5
2D5
330
2CB
100
AcDbEntity
  8
DIBUJOS
 62
     7
370
    18
100
AcDb2dPolyline
 66
     1
 10
0.0
 20
0.0
 30
0.0
  0
VERTEX
  5
2D6
330
2D5
100
AcDbEntity
  8
DIBUJOS
 62
     7
370
    18
100
AcDbVertex
100
AcDb2dVertex
 10
82.76631825733793
 20
49.82892633378788
 30
0.0
  0
VERTEX
  5
2D7
330
2D5
100
AcDbEntity
  8
DIBUJOS
 62
     7
370
    18
100
AcDbVertex
100
AcDb2dVertex
 10
82.77585876657312
 20
49.87987762485569
 30
0.0
  0
VERTEX
  5
2D8
330
2D5
100
AcDbEntity
  8
DIBUJOS
 62
     7
370
    18
100
AcDbVertex
100
AcDb2dVertex
 10
82.80690016378375
 20
49.96803426835694
 30
0.0
  0
VERTEX
  5
2D9
330
2D5
100
AcDbEntity
  8
DIBUJOS
 62
     7
370
    18
100
AcDbVertex
100
AcDb2dVertex
 10
82.83366676030826
 20
50.00808766113452
 30
0.0
  0
SEQEND
  5
2DA
330
2D5
100
AcDbEntity
  8
DIBUJOS
 62
     7
370
    18
  0
POLYLINE
  5
2DB
330
2CB
100
AcDbEntity
  8
DIBUJOS
 62
     7
370
    18
100
AcDb2dPolyline
 66
     1
 10
0.0
 20
0.0
 30
0.0
  0
VERTEX
  5
2DC
330
2DB
100
AcDbEntity
  8
DIBUJOS
 62
     7
370
    18
100
AcDbVertex
100
AcDb2dVertex
 10
82.76631825733793
 20
49.82332970847665
 30
0.0
  0
VERTEX
  5
2DD
330
2DB
100
AcDbEntity
  8
DIBUJOS
 62
     7
370
    18
100
AcDbVertex
100
AcDb2dVertex
 10
82.76631825733793
 20
49.82892633378788
 30
0.0
  0
SEQEND
  5
2DE
330
2DB
100
AcDbEntity
  8
DIBUJOS
 62
     7
370
    18
  0
POLYLINE
  5
2DF
330
2CB
100
AcDbEntity
  8
DIBUJOS
 62
     7
370
    18
100
AcDb2dPolyline
 66
     1
 10
0.0
 20
0.0
 30
0.0
  0
VERTEX
  5
2E0
330
2DF
100
AcDbEntity
  8
DIBUJOS
 62
     7
370
    18
100
AcDbVertex
100
AcDb2dVertex
 10
82.77193138785142
 20
49.82332970847665
 30
0.0
  0
VERTEX
  5
2E1
330
2DF
100
AcDbEntity
  8
DIBUJOS
 62
     7
370
    18
100
AcDbVertex
100
AcDb2dVertex
 10
82.76631825733793
 20
49.82332970847665
 30
0.0
  0
SEQEND
  5
2E2
330
2DF
100
AcDbEntity
  8
DIBUJOS
 62
     7
370
    18
  0
POLYLINE
  5
2E3
330
2CB
100
AcDbEntity
  8
DIBUJOS
 62
     7
370
    18
100
AcDb2dPolyline
 66
     1
 10
0.0
 20
0.0
 30
0.0
  0
VERTEX
  5
2E4
330
2E3
100
AcDbEntity
  8
DIBUJOS
 62
     7
370
    18
100
AcDbVertex
100
AcDb2dVertex
 10
82.82244049928255
 20
49.82332970847665
 30
0.0
  0
VERTEX
  5
2E5
330
2E3
100
AcDbEntity
  8
DIBUJOS
 62
     7
370
    18
100
AcDbVertex
100
AcDb2dVertex
 10
82.81121725931816
 20
49.82892633378788
 30
0.0
  0
VERTEX
  5
2E6
330
2E3
100
AcDbEntity
  8
DIBUJOS
 62
     7
370
    18
100
AcDbVertex
100
AcDb2dVertex
 10
82.77698260110036
 20
49.82444782801876
 30
0.0
  0
VERTEX
  5
2E7
330
2E3
100
AcDbEntity
  8
DIBUJOS
 62
     7
370
    18
100
AcDbVertex
100
AcDb2dVertex
 10
82.77193138785142
 20
49.82332970847665
 30
0.0
  0
SEQEND
  5
2E8
330
2E3
100
AcDbEntity
  8
DIBUJOS
 62
     7
370
    18
  0
POLYLINE
  5
2E9
330
2CB
100
AcDbEntity
  8
DIBUJOS
 62
     7
370
    18
100
AcDb2dPolyline
 66
     1
 10
0.0
 20
0.0
 30
0.0
  0
VERTEX
  5
2EA
330
2E9
100
AcDbEntity
  8
DIBUJOS
 62
     7
370
    18
100
AcDbVertex
100
AcDb2dVertex
 10
82.74948188686068
 20
49.73934717701368
 30
0.0
  0
VERTEX
  5
2EB
330
2E9
100
AcDbEntity
  8
DIBUJOS
 62
     7
370
    18
100
AcDbVertex
100
AcDb2dVertex
 10
82.7438687563491
 20
49.74494681612476
 30
0.0
  0
VERTEX
  5
2EC
330
2E9
100
AcDbEntity
  8
DIBUJOS
 62
     7
370
    18
100
AcDbVertex
100
AcDb2dVertex
 10
82.7438687563491
 20
49.79533452672269
 30
0.0
  0
VERTEX
  5
2ED
330
2E9
100
AcDbEntity
  8
DIBUJOS
 62
     7
370
    18
100
AcDbVertex
100
AcDb2dVertex
 10
82.75082927986946
 20
49.80552418217648
 30
0.0
  0
VERTEX
  5
2EE
330
2E9
100
AcDbEntity
  8
DIBUJOS
 62
     7
370
    18
100
AcDbVertex
100
AcDb2dVertex
 10
82.76631825733793
 20
49.82332970847665
 30
0.0
  0
SEQEND
  5
2EF
330
2E9
100
AcDbEntity
  8
DIBUJOS
 62
     7
370
    18
  0
POLYLINE
  5
2F0
330
2CB
100
AcDbEntity
  8
DIBUJOS
 62
     7
370
    18
100
AcDb2dPolyline
 66
     1
 10
0.0
 20
0.0
 30
0.0
  0
VERTEX
  5
2F1
330
2F0
100
AcDbEntity
  8
DIBUJOS
 62
     7
370
    18
100
AcDbVertex
100
AcDb2dVertex
 10
82.74948188686068
 20
49.73374753790323
 30
0.0
  0
VERTEX
  5
2F2
330
2F0
100
AcDbEntity
  8
DIBUJOS
 62
     7
370
    18
100
AcDbVertex
100
AcDb2dVertex
 10
82.74948188686068
 20
49.73934717701368
 30
0.0
  0
SEQEND
  5
2F3
330
2F0
100
AcDbEntity
  8
DIBUJOS
 62
     7
370
    18
  0
POLYLINE
  5
2F4
330
2CB
100
AcDbEntity
  8
DIBUJOS
 62
     7
370
    18
100
AcDb2dPolyline
 66
     1
 10
0.0
 20
0.0
 30
0.0
  0
VERTEX
  5
2F5
330
2F4
100
AcDbEntity
  8
DIBUJOS
 62
     7
370
    18
100
AcDbVertex
100
AcDb2dVertex
 10
82.75509501737353
 20
49.73374753790323
 30
0.0
  0
VERTEX
  5
2F6
330
2F4
100
AcDbEntity
  8
DIBUJOS
 62
     7
370
    18
100
AcDbVertex
100
AcDb2dVertex
 10
82.74948188686068
 20
49.73374753790323
 30
0.0
  0
SEQEND
  5
2F7
330
2F4
100
AcDbEntity
  8
DIBUJOS
 62
     7
370
    18
  0
POLYLINE
  5
2F8
330
2CB
100
AcDbEntity
  8
DIBUJOS
 62
     7
370
    18
100
AcDb2dPolyline
 66
     1
 10
0.0
 20
0.0
 30
0.0
  0
VERTEX
  5
2F9
330
2F8
100
AcDbEntity
  8
DIBUJOS
 62
     7
370
    18
100
AcDbVertex
100
AcDb2dVertex
 10
82.79999099829307
 20
49.71695163437145
 30
0.0
  0
VERTEX
  5
2FA
330
2F8
100
AcDbEntity
  8
DIBUJOS
 62
     7
370
    18
100
AcDbVertex
100
AcDb2dVertex
 10
82.8392768697598
 20
49.73934717701368
 30
0.0
  0
SEQEND
  5
2FB
330
2F8
100
AcDbEntity
  8
DIBUJOS
 62
     7
370
    18
  0
POLYLINE
  5
2FC
330
2CB
100
AcDbEntity
  8
DIBUJOS
 62
     7
370
    18
100
AcDb2dPolyline
 66
     1
 10
0.0
 20
0.0
 30
0.0
  0
VERTEX
  5
2FD
330
2FC
100
AcDbEntity
  8
DIBUJOS
 62
     7
370
    18
100
AcDbVertex
100
AcDb2dVertex
 10
82.78876775832804
 20
49.71135199526005
 30
0.0
  0
VERTEX
  5
2FE
330
2FC
100
AcDbEntity
  8
DIBUJOS
 62
     7
370
    18
100
AcDbVertex
100
AcDb2dVertex
 10
82.75509501737353
 20
49.73374753790323
 30
0.0
  0
SEQEND
  5
2FF
330
2FC
100
AcDbEntity
  8
DIBUJOS
 62
     7
370
    18
  0
POLYLINE
  5
300
330
2CB
100
AcDbEntity
  8
DIBUJOS
 62
     7
370
    18
100
AcDb2dPolyline
 66
     1
 10
0.0
 20
0.0
 30
0.0
  0
VERTEX
  5
301
330
300
100
AcDbEntity
  8
DIBUJOS
 62
     7
370
    18
100
AcDbVertex
100
AcDb2dVertex
 10
86.73418825444176
 20
49.71135199526005
 30
0.0
  0
VERTEX
  5
302
330
300
100
AcDbEntity
  8
DIBUJOS
 62
     7
370
    18
100
AcDbVertex
100
AcDb2dVertex
 10
86.74036330221792
 20
49.71527294815707
 30
0.0
  0
VERTEX
  5
303
330
300
100
AcDbEntity
  8
DIBUJOS
 62
     7
370
    18
100
AcDbVertex
100
AcDb2dVertex
 10
86.76225088594408
 20
49.72255127348125
 30
0.0
  0
VERTEX
  5
304
330
300
100
AcDbEntity
  8
DIBUJOS
 62
     7
370
    18
100
AcDbVertex
100
AcDb2dVertex
 10
86.7847003869342
 20
49.74494681612476
 30
0.0
  0
VERTEX
  5
305
330
300
100
AcDbEntity
  8
DIBUJOS
 62
     7
370
    18
100
AcDbVertex
100
AcDb2dVertex
 10
86.79031351744706
 20
49.76734235876827
 30
0.0
  0
VERTEX
  5
306
330
300
100
AcDbEntity
  8
DIBUJOS
 62
     7
370
    18
100
AcDbVertex
100
AcDb2dVertex
 10
86.7847003869342
 20
49.80093416583281
 30
0.0
  0
VERTEX
  5
307
330
300
100
AcDbEntity
  8
DIBUJOS
 62
     7
370
    18
100
AcDbVertex
100
AcDb2dVertex
 10
86.76225088594408
 20
49.82332970847665
 30
0.0
  0
VERTEX
  5
308
330
300
100
AcDbEntity
  8
DIBUJOS
 62
     7
370
    18
100
AcDbVertex
100
AcDb2dVertex
 10
86.71735188396515
 20
49.82892633378788
 30
0.0
  0
VERTEX
  5
309
330
300
100
AcDbEntity
  8
DIBUJOS
 62
     7
370
    18
100
AcDbVertex
100
AcDb2dVertex
 10
86.7005155134879
 20
49.82332970847665
 30
0.0
  0
VERTEX
  5
30A
330
300
100
AcDbEntity
  8
DIBUJOS
 62
     7
370
    18
100
AcDbVertex
100
AcDb2dVertex
 10
86.6780660124978
 20
49.80093416583281
 30
0.0
  0
VERTEX
  5
30B
330
300
100
AcDbEntity
  8
DIBUJOS
 62
     7
370
    18
100
AcDbVertex
100
AcDb2dVertex
 10
86.67245590304626
 20
49.78413826230071
 30
0.0
  0
VERTEX
  5
30C
330
300
100
AcDbEntity
  8
DIBUJOS
 62
     7
370
    18
100
AcDbVertex
100
AcDb2dVertex
 10
86.6763832817686
 20
49.7555825138764
 30
0.0
  0
VERTEX
  5
30D
330
300
100
AcDbEntity
  8
DIBUJOS
 62
     7
370
    18
100
AcDbVertex
100
AcDb2dVertex
 10
86.6780660124978
 20
49.74494681612476
 30
0.0
  0
VERTEX
  5
30E
330
300
100
AcDbEntity
  8
DIBUJOS
 62
     7
370
    18
100
AcDbVertex
100
AcDb2dVertex
 10
86.70612864400012
 20
49.71695163437145
 30
0.0
  0
VERTEX
  5
30F
330
300
100
AcDbEntity
  8
DIBUJOS
 62
     7
370
    18
100
AcDbVertex
100
AcDb2dVertex
 10
86.7235269317413
 20
49.713033695273
 30
0.0
  0
VERTEX
  5
310
330
300
100
AcDbEntity
  8
DIBUJOS
 62
     7
370
    18
100
AcDbVertex
100
AcDb2dVertex
 10
86.73418825444176
 20
49.71135199526005
 30
0.0
  0
SEQEND
  5
311
330
300
100
AcDbEntity
  8
DIBUJOS
 62
     7
370
    18
  0
POLYLINE
  5
312
330
2CB
100
AcDbEntity
  8
DIBUJOS
 62
     7
370
    18
100
AcDb2dPolyline
 66
     1
 10
0.0
 20
0.0
 30
0.0
  0
VERTEX
  5
313
330
312
100
AcDbEntity
  8
DIBUJOS
 62
     7
370
    18
100
AcDbVertex
100
AcDb2dVertex
 10
86.92500750232448
 20
49.39782042585345
 30
0.0
  0
VERTEX
  5
314
330
312
100
AcDbEntity
  8
DIBUJOS
 62
     7
370
    18
100
AcDbVertex
100
AcDb2dVertex
 10
86.91939437181226
 20
49.39782042585345
 30
0.0
  0
SEQEND
  5
315
330
312
100
AcDbEntity
  8
DIBUJOS
 62
     7
370
    18
  0
POLYLINE
  5
316
330
2CB
100
AcDbEntity
  8
DIBUJOS
 62
     7
370
    18
100
AcDb2dPolyline
 66
     1
 10
0.0
 20
0.0
 30
0.0
  0
VERTEX
  5
317
330
316
100
AcDbEntity
  8
DIBUJOS
 62
     7
370
    18
100
AcDbVertex
100
AcDb2dVertex
 10
86.91939437181226
 20
49.39222380054223
 30
0.0
  0
VERTEX
  5
318
330
316
100
AcDbEntity
  8
DIBUJOS
 62
     7
370
    18
100
AcDbVertex
100
AcDb2dVertex
 10
86.91939437181226
 20
49.39782042585345
 30
0.0
  0
SEQEND
  5
319
330
316
100
AcDbEntity
  8
DIBUJOS
 62
     7
370
    18
  0
POLYLINE
  5
31A
330
2CB
100
AcDbEntity
  8
DIBUJOS
 62
     7
370
    18
100
AcDb2dPolyline
 66
     1
 10
0.0
 20
0.0
 30
0.0
  0
VERTEX
  5
31B
330
31A
100
AcDbEntity
  8
DIBUJOS
 62
     7
370
    18
100
AcDbVertex
100
AcDb2dVertex
 10
86.56020839809699
 20
49.3754278970098
 30
0.0
  0
VERTEX
  5
31C
330
31A
100
AcDbEntity
  8
DIBUJOS
 62
     7
370
    18
100
AcDbVertex
100
AcDb2dVertex
 10
86.5658215286092
 20
49.3810245223207
 30
0.0
  0
VERTEX
  5
31D
330
31A
100
AcDbEntity
  8
DIBUJOS
 62
     7
370
    18
100
AcDbVertex
100
AcDb2dVertex
 10
86.5658215286092
 20
49.76174271965719
 30
0.0
  0
VERTEX
  5
31E
330
31A
100
AcDbEntity
  8
DIBUJOS
 62
     7
370
    18
100
AcDbVertex
100
AcDb2dVertex
 10
86.56020839809699
 20
49.76734235876827
 30
0.0
  0
VERTEX
  5
31F
330
31A
100
AcDbEntity
  8
DIBUJOS
 62
     7
370
    18
100
AcDbVertex
100
AcDb2dVertex
 10
86.5658215286092
 20
49.77853862318962
 30
0.0
  0
VERTEX
  5
320
330
31A
100
AcDbEntity
  8
DIBUJOS
 62
     7
370
    18
100
AcDbVertex
100
AcDb2dVertex
 10
86.56020839809699
 20
49.81773006936557
 30
0.0
  0
VERTEX
  5
321
330
31A
100
AcDbEntity
  8
DIBUJOS
 62
     7
370
    18
100
AcDbVertex
100
AcDb2dVertex
 10
86.58153708562055
 20
49.94146159987561
 30
0.0
  0
VERTEX
  5
322
330
31A
100
AcDbEntity
  8
DIBUJOS
 62
     7
370
    18
100
AcDbVertex
100
AcDb2dVertex
 10
86.58995376032851
 20
49.96273902297605
 30
0.0
  0
VERTEX
  5
323
330
31A
100
AcDbEntity
  8
DIBUJOS
 62
     7
370
    18
100
AcDbVertex
100
AcDb2dVertex
 10
86.61072053058942
 20
49.99129175760145
 30
0.0
  0
VERTEX
  5
324
330
31A
100
AcDbEntity
  8
DIBUJOS
 62
     7
370
    18
100
AcDbVertex
100
AcDb2dVertex
 10
86.63821822376778
 20
50.00920879447617
 30
0.0
  0
VERTEX
  5
325
330
31A
100
AcDbEntity
  8
DIBUJOS
 62
     7
370
    18
100
AcDbVertex
100
AcDb2dVertex
 10
86.68929227352223
 20
50.02488356466695
 30
0.0
  0
VERTEX
  5
326
330
31A
100
AcDbEntity
  8
DIBUJOS
 62
     7
370
    18
100
AcDbVertex
100
AcDb2dVertex
 10
86.77951926808105
 20
50.02143879206027
 30
0.0
  0
VERTEX
  5
327
330
31A
100
AcDbEntity
  8
DIBUJOS
 62
     7
370
    18
100
AcDbVertex
100
AcDb2dVertex
 10
86.82398625840092
 20
50.01368730024497
 30
0.0
  0
VERTEX
  5
328
330
31A
100
AcDbEntity
  8
DIBUJOS
 62
     7
370
    18
100
AcDbVertex
100
AcDb2dVertex
 10
86.86888526038051
 20
49.96889621495826
 30
0.0
  0
VERTEX
  5
329
330
31A
100
AcDbEntity
  8
DIBUJOS
 62
     7
370
    18
100
AcDbVertex
100
AcDb2dVertex
 10
86.87281263910347
 20
49.95713938386529
 30
0.0
  0
VERTEX
  5
32A
330
31A
100
AcDbEntity
  8
DIBUJOS
 62
     7
370
    18
100
AcDbVertex
100
AcDb2dVertex
 10
86.89452802237842
 20
49.88461531736481
 30
0.0
  0
VERTEX
  5
32B
330
31A
100
AcDbEntity
  8
DIBUJOS
 62
     7
370
    18
100
AcDbVertex
100
AcDb2dVertex
 10
86.91939437181226
 20
49.39782042585345
 30
0.0
  0
SEQEND
  5
32C
330
31A
100
AcDbEntity
  8
DIBUJOS
 62
     7
370
    18
  0
POLYLINE
  5
32D
330
2CB
100
AcDbEntity
  8
DIBUJOS
 62
     7
370
    18
100
AcDb2dPolyline
 66
     1
 10
0.0
 20
0.0
 30
0.0
  0
VERTEX
  5
32E
330
32D
100
AcDbEntity
  8
DIBUJOS
 62
     7
370
    18
100
AcDbVertex
100
AcDb2dVertex
 10
86.56020839809699
 20
49.36982825789872
 30
0.0
  0
VERTEX
  5
32F
330
32D
100
AcDbEntity
  8
DIBUJOS
 62
     7
370
    18
100
AcDbVertex
100
AcDb2dVertex
 10
86.55459828864481
 20
49.36982825789872
 30
0.0
  0
SEQEND
  5
330
330
32D
100
AcDbEntity
  8
DIBUJOS
 62
     7
370
    18
  0
POLYLINE
  5
331
330
2CB
100
AcDbEntity
  8
DIBUJOS
 62
     7
370
    18
100
AcDb2dPolyline
 66
     1
 10
0.0
 20
0.0
 30
0.0
  0
VERTEX
  5
332
330
331
100
AcDbEntity
  8
DIBUJOS
 62
     7
370
    18
100
AcDbVertex
100
AcDb2dVertex
 10
86.56020839809699
 20
49.36982825789872
 30
0.0
  0
VERTEX
  5
333
330
331
100
AcDbEntity
  8
DIBUJOS
 62
     7
370
    18
100
AcDbVertex
100
AcDb2dVertex
 10
86.56020839809699
 20
49.3754278970098
 30
0.0
  0
SEQEND
  5
334
330
331
100
AcDbEntity
  8
DIBUJOS
 62
     7
370
    18
  0
POLYLINE
  5
335
330
2CB
100
AcDbEntity
  8
DIBUJOS
 62
     7
370
    18
100
AcDb2dPolyline
 66
     1
 10
0.0
 20
0.0
 30
0.0
  0
VERTEX
  5
336
330
335
100
AcDbEntity
  8
DIBUJOS
 62
     7
370
    18
100
AcDbVertex
100
AcDb2dVertex
 10
86.56020839809699
 20
49.36422861878827
 30
0.0
  0
VERTEX
  5
337
330
335
100
AcDbEntity
  8
DIBUJOS
 62
     7
370
    18
100
AcDbVertex
100
AcDb2dVertex
 10
86.56020839809699
 20
49.36982825789872
 30
0.0
  0
SEQEND
  5
338
330
335
100
AcDbEntity
  8
DIBUJOS
 62
     7
370
    18
  0
POLYLINE
  5
339
330
2CB
100
AcDbEntity
  8
DIBUJOS
 62
     7
370
    18
100
AcDb2dPolyline
 66
     1
 10
0.0
 20
0.0
 30
0.0
  0
VERTEX
  5
33A
330
339
100
AcDbEntity
  8
DIBUJOS
 62
     7
370
    18
100
AcDbVertex
100
AcDb2dVertex
 10
83.01325672610521
 20
49.23545801583877
 30
0.0
  0
VERTEX
  5
33B
330
339
100
AcDbEntity
  8
DIBUJOS
 62
     7
370
    18
100
AcDbVertex
100
AcDb2dVertex
 10
83.01523854182985
 20
49.25175965628491
 30
0.0
  0
VERTEX
  5
33C
330
339
100
AcDbEntity
  8
DIBUJOS
 62
     7
370
    18
100
AcDbVertex
100
AcDb2dVertex
 10
83.03856112931948
 20
49.47625153899409
 30
0.0
  0
VERTEX
  5
33D
330
339
100
AcDbEntity
  8
DIBUJOS
 62
     7
370
    18
100
AcDbVertex
100
AcDb2dVertex
 10
83.04131935760755
 20
49.80093416583281
 30
0.0
  0
SEQEND
  5
33E
330
339
100
AcDbEntity
  8
DIBUJOS
 62
     7
370
    18
  0
POLYLINE
  5
33F
330
2CB
100
AcDbEntity
  8
DIBUJOS
 62
     7
370
    18
100
AcDb2dPolyline
 66
     1
 10
0.0
 20
0.0
 30
0.0
  0
VERTEX
  5
340
330
33F
100
AcDbEntity
  8
DIBUJOS
 62
     7
370
    18
100
AcDbVertex
100
AcDb2dVertex
 10
83.01325672610521
 20
49.22985837672801
 30
0.0
  0
VERTEX
  5
341
330
33F
100
AcDbEntity
  8
DIBUJOS
 62
     7
370
    18
100
AcDbVertex
100
AcDb2dVertex
 10
83.01325672610521
 20
49.23545801583877
 30
0.0
  0
SEQEND
  5
342
330
33F
100
AcDbEntity
  8
DIBUJOS
 62
     7
370
    18
  0
POLYLINE
  5
343
330
2CB
100
AcDbEntity
  8
DIBUJOS
 62
     7
370
    18
100
AcDb2dPolyline
 66
     1
 10
0.0
 20
0.0
 30
0.0
  0
VERTEX
  5
344
330
343
100
AcDbEntity
  8
DIBUJOS
 62
     7
370
    18
100
AcDbVertex
100
AcDb2dVertex
 10
83.01886985661743
 20
49.22985837672801
 30
0.0
  0
VERTEX
  5
345
330
343
100
AcDbEntity
  8
DIBUJOS
 62
     7
370
    18
100
AcDbVertex
100
AcDb2dVertex
 10
83.01325672610521
 20
49.22985837672801
 30
0.0
  0
SEQEND
  5
346
330
343
100
AcDbEntity
  8
DIBUJOS
 62
     7
370
    18
  0
POLYLINE
  5
347
330
2CB
100
AcDbEntity
  8
DIBUJOS
 62
     7
370
    18
100
AcDb2dPolyline
 66
     1
 10
0.0
 20
0.0
 30
0.0
  0
VERTEX
  5
348
330
347
100
AcDbEntity
  8
DIBUJOS
 62
     7
370
    18
100
AcDbVertex
100
AcDb2dVertex
 10
83.01886985661743
 20
49.22985837672801
 30
0.0
  0
VERTEX
  5
349
330
347
100
AcDbEntity
  8
DIBUJOS
 62
     7
370
    18
100
AcDbVertex
100
AcDb2dVertex
 10
84.13000082371971
 20
49.266147534172
 30
0.0
  0
VERTEX
  5
34A
330
347
100
AcDbEntity
  8
DIBUJOS
 62
     7
370
    18
100
AcDbVertex
100
AcDb2dVertex
 10
85.90345400176176
 20
49.33890366321889
 30
0.0
  0
VERTEX
  5
34B
330
347
100
AcDbEntity
  8
DIBUJOS
 62
     7
370
    18
100
AcDbVertex
100
AcDb2dVertex
 10
86.55459828864481
 20
49.36982825789872
 30
0.0
  0
SEQEND
  5
34C
330
347
100
AcDbEntity
  8
DIBUJOS
 62
     7
370
    18
  0
POLYLINE
  5
34D
330
2CB
100
AcDbEntity
  8
DIBUJOS
 62
     7
370
    18
100
AcDb2dPolyline
 66
     1
 10
0.0
 20
0.0
 30
0.0
  0
VERTEX
  5
34E
330
34D
100
AcDbEntity
  8
DIBUJOS
 62
     7
370
    18
100
AcDbVertex
100
AcDb2dVertex
 10
83.01325672610521
 20
49.22425873761725
 30
0.0
  0
VERTEX
  5
34F
330
34D
100
AcDbEntity
  8
DIBUJOS
 62
     7
370
    18
100
AcDbVertex
100
AcDb2dVertex
 10
83.01325672610521
 20
49.22985837672801
 30
0.0
  0
SEQEND
  5
350
330
34D
100
AcDbEntity
  8
DIBUJOS
 62
     7
370
    18
  0
POLYLINE
  5
351
330
2CB
100
AcDbEntity
  8
DIBUJOS
 62
     7
370
    18
100
AcDb2dPolyline
 66
     1
 10
0.0
 20
0.0
 30
0.0
  0
VERTEX
  5
352
330
351
100
AcDbEntity
  8
DIBUJOS
 62
     7
370
    18
100
AcDbVertex
100
AcDb2dVertex
 10
82.64846064293776
 20
49.21866211230634
 30
0.0
  0
VERTEX
  5
353
330
351
100
AcDbEntity
  8
DIBUJOS
 62
     7
370
    18
100
AcDbVertex
100
AcDb2dVertex
 10
82.74948188686068
 20
49.73374753790323
 30
0.0
  0
SEQEND
  5
354
330
351
100
AcDbEntity
  8
DIBUJOS
 62
     7
370
    18
  0
POLYLINE
  5
355
330
2CB
100
AcDbEntity
  8
DIBUJOS
 62
     7
370
    18
100
AcDb2dPolyline
 66
     1
 10
0.0
 20
0.0
 30
0.0
  0
VERTEX
  5
356
330
355
100
AcDbEntity
  8
DIBUJOS
 62
     7
370
    18
100
AcDbVertex
100
AcDb2dVertex
 10
82.64846064293776
 20
49.21306247319558
 30
0.0
  0
VERTEX
  5
357
330
355
100
AcDbEntity
  8
DIBUJOS
 62
     7
370
    18
100
AcDbVertex
100
AcDb2dVertex
 10
82.64284751242491
 20
49.21306247319558
 30
0.0
  0
SEQEND
  5
358
330
355
100
AcDbEntity
  8
DIBUJOS
 62
     7
370
    18
  0
POLYLINE
  5
359
330
2CB
100
AcDbEntity
  8
DIBUJOS
 62
     7
370
    18
100
AcDb2dPolyline
 66
     1
 10
0.0
 20
0.0
 30
0.0
  0
VERTEX
  5
35A
330
359
100
AcDbEntity
  8
DIBUJOS
 62
     7
370
    18
100
AcDbVertex
100
AcDb2dVertex
 10
82.64846064293776
 20
49.21306247319558
 30
0.0
  0
VERTEX
  5
35B
330
359
100
AcDbEntity
  8
DIBUJOS
 62
     7
370
    18
100
AcDbVertex
100
AcDb2dVertex
 10
82.64846064293776
 20
49.21866211230634
 30
0.0
  0
SEQEND
  5
35C
330
359
100
AcDbEntity
  8
DIBUJOS
 62
     7
370
    18
  0
POLYLINE
  5
35D
330
2CB
100
AcDbEntity
  8
DIBUJOS
 62
     7
370
    18
100
AcDb2dPolyline
 66
     1
 10
0.0
 20
0.0
 30
0.0
  0
VERTEX
  5
35E
330
35D
100
AcDbEntity
  8
DIBUJOS
 62
     7
370
    18
100
AcDbVertex
100
AcDb2dVertex
 10
82.64846064293776
 20
49.20746283408546
 30
0.0
  0
VERTEX
  5
35F
330
35D
100
AcDbEntity
  8
DIBUJOS
 62
     7
370
    18
100
AcDbVertex
100
AcDb2dVertex
 10
82.64846064293776
 20
49.21306247319558
 30
0.0
  0
SEQEND
  5
360
330
35D
100
AcDbEntity
  8
DIBUJOS
 62
     7
370
    18
  0
POLYLINE
  5
361
330
2CB
100
AcDbEntity
  8
DIBUJOS
 62
     7
370
    18
100
AcDb2dPolyline
 66
     1
 10
0.0
 20
0.0
 30
0.0
  0
VERTEX
  5
362
330
361
100
AcDbEntity
  8
DIBUJOS
 62
     7
370
    18
100
AcDbVertex
100
AcDb2dVertex
 10
86.92500750232448
 20
49.39782042585345
 30
0.0
  0
VERTEX
  5
363
330
361
100
AcDbEntity
  8
DIBUJOS
 62
     7
370
    18
100
AcDbVertex
100
AcDb2dVertex
 10
87.08177033456327
 20
49.41128909495251
 30
0.0
  0
VERTEX
  5
364
330
361
100
AcDbEntity
  8
DIBUJOS
 62
     7
370
    18
100
AcDbVertex
100
AcDb2dVertex
 10
87.15424557729511
 20
49.44390443104229
 30
0.0
  0
VERTEX
  5
365
330
361
100
AcDbEntity
  8
DIBUJOS
 62
     7
370
    18
100
AcDbVertex
100
AcDb2dVertex
 10
87.16719686389831
 20
49.4525178694586
 30
0.0
  0
VERTEX
  5
366
330
361
100
AcDbEntity
  8
DIBUJOS
 62
     7
370
    18
100
AcDbVertex
100
AcDb2dVertex
 10
87.25613084453742
 20
49.53219368171293
 30
0.0
  0
VERTEX
  5
367
330
361
100
AcDbEntity
  8
DIBUJOS
 62
     7
370
    18
100
AcDbVertex
100
AcDb2dVertex
 10
87.32235551298052
 20
49.63912930869022
 30
0.0
  0
VERTEX
  5
368
330
361
100
AcDbEntity
  8
DIBUJOS
 62
     7
370
    18
100
AcDbVertex
100
AcDb2dVertex
 10
87.33638531820135
 20
49.67160299621298
 30
0.0
  0
VERTEX
  5
369
330
361
100
AcDbEntity
  8
DIBUJOS
 62
     7
370
    18
100
AcDbVertex
100
AcDb2dVertex
 10
87.3601550226541
 20
49.77311378443888
 30
0.0
  0
VERTEX
  5
36A
330
361
100
AcDbEntity
  8
DIBUJOS
 62
     7
370
    18
100
AcDbVertex
100
AcDb2dVertex
 10
87.36536937317413
 20
49.85115008987059
 30
0.0
  0
VERTEX
  5
36B
330
361
100
AcDbEntity
  8
DIBUJOS
 62
     7
370
    18
100
AcDbVertex
100
AcDb2dVertex
 10
87.36536937317413
 20
49.91868029092113
 30
0.0
  0
VERTEX
  5
36C
330
361
100
AcDbEntity
  8
DIBUJOS
 62
     7
370
    18
100
AcDbVertex
100
AcDb2dVertex
 10
87.3601550226541
 20
49.99671659635251
 30
0.0
  0
VERTEX
  5
36D
330
361
100
AcDbEntity
  8
DIBUJOS
 62
     7
370
    18
100
AcDbVertex
100
AcDb2dVertex
 10
87.34199844871421
 20
50.08703112015675
 30
0.0
  0
VERTEX
  5
36E
330
361
100
AcDbEntity
  8
DIBUJOS
 62
     7
370
    18
100
AcDbVertex
100
AcDb2dVertex
 10
87.3307721876885
 20
50.12062292722226
 30
0.0
  0
VERTEX
  5
36F
330
361
100
AcDbEntity
  8
DIBUJOS
 62
     7
370
    18
100
AcDbVertex
100
AcDb2dVertex
 10
87.27992471747436
 20
50.21065114009225
 30
0.0
  0
VERTEX
  5
370
330
361
100
AcDbEntity
  8
DIBUJOS
 62
     7
370
    18
100
AcDbVertex
100
AcDb2dVertex
 10
87.18316921105615
 20
50.31602260522957
 30
0.0
  0
VERTEX
  5
371
330
361
100
AcDbEntity
  8
DIBUJOS
 62
     7
370
    18
100
AcDbVertex
100
AcDb2dVertex
 10
87.08158907092871
 20
50.37648846070674
 30
0.0
  0
VERTEX
  5
372
330
361
100
AcDbEntity
  8
DIBUJOS
 62
     7
370
    18
100
AcDbVertex
100
AcDb2dVertex
 10
87.07036280990427
 20
50.3820880998175
 30
0.0
  0
VERTEX
  5
373
330
361
100
AcDbEntity
  8
DIBUJOS
 62
     7
370
    18
100
AcDbVertex
100
AcDb2dVertex
 10
86.89644941689131
 20
50.42602025230179
 30
0.0
  0
VERTEX
  5
374
330
361
100
AcDbEntity
  8
DIBUJOS
 62
     7
370
    18
100
AcDbVertex
100
AcDb2dVertex
 10
86.88060395427637
 20
50.42997134319162
 30
0.0
  0
VERTEX
  5
375
330
361
100
AcDbEntity
  8
DIBUJOS
 62
     7
370
    18
100
AcDbVertex
100
AcDb2dVertex
 10
86.35293343336703
 20
50.53664175583015
 30
0.0
  0
VERTEX
  5
376
330
361
100
AcDbEntity
  8
DIBUJOS
 62
     7
370
    18
100
AcDbVertex
100
AcDb2dVertex
 10
84.71415309277955
 20
50.85017332523706
 30
0.0
  0
VERTEX
  5
377
330
361
100
AcDbEntity
  8
DIBUJOS
 62
     7
370
    18
100
AcDbVertex
100
AcDb2dVertex
 10
83.5749171993273
 20
51.08520747791832
 30
0.0
  0
VERTEX
  5
378
330
361
100
AcDbEntity
  8
DIBUJOS
 62
     7
370
    18
100
AcDbVertex
100
AcDb2dVertex
 10
83.31120278129514
 20
51.14101701346745
 30
0.0
  0
VERTEX
  5
379
330
361
100
AcDbEntity
  8
DIBUJOS
 62
     7
370
    18
100
AcDbVertex
100
AcDb2dVertex
 10
82.05960458259216
 20
51.39313940821415
 30
0.0
  0
VERTEX
  5
37A
330
361
100
AcDbEntity
  8
DIBUJOS
 62
     7
370
    18
100
AcDbVertex
100
AcDb2dVertex
 10
81.95220285877564
 20
51.41102932089527
 30
0.0
  0
VERTEX
  5
37B
330
361
100
AcDbEntity
  8
DIBUJOS
 62
     7
370
    18
100
AcDbVertex
100
AcDb2dVertex
 10
81.80662097165359
 20
51.4245793625751
 30
0.0
  0
VERTEX
  5
37C
330
361
100
AcDbEntity
  8
DIBUJOS
 62
     7
370
    18
100
AcDbVertex
100
AcDb2dVertex
 10
81.79034651843963
 20
51.41226196481178
 30
0.0
  0
VERTEX
  5
37D
330
361
100
AcDbEntity
  8
DIBUJOS
 62
     7
370
    18
100
AcDbVertex
100
AcDb2dVertex
 10
81.76172196967401
 20
51.3909845417107
 30
0.0
  0
VERTEX
  5
37E
330
361
100
AcDbEntity
  8
DIBUJOS
 62
     7
370
    18
100
AcDbVertex
100
AcDb2dVertex
 10
81.75611186022248
 20
51.30140538493683
 30
0.0
  0
VERTEX
  5
37F
330
361
100
AcDbEntity
  8
DIBUJOS
 62
     7
370
    18
100
AcDbVertex
100
AcDb2dVertex
 10
81.76408141796861
 20
51.26255148428309
 30
0.0
  0
VERTEX
  5
380
330
361
100
AcDbEntity
  8
DIBUJOS
 62
     7
370
    18
100
AcDbVertex
100
AcDb2dVertex
 10
81.8155693530193
 20
50.92031046268735
 30
0.0
  0
VERTEX
  5
381
330
361
100
AcDbEntity
  8
DIBUJOS
 62
     7
370
    18
100
AcDbVertex
100
AcDb2dVertex
 10
82.07255586919472
 20
49.263881157094
 30
0.0
  0
VERTEX
  5
382
330
361
100
AcDbEntity
  8
DIBUJOS
 62
     7
370
    18
100
AcDbVertex
100
AcDb2dVertex
 10
82.10407157291331
 20
49.20746283408546
 30
0.0
  0
VERTEX
  5
383
330
361
100
AcDbEntity
  8
DIBUJOS
 62
     7
370
    18
100
AcDbVertex
100
AcDb2dVertex
 10
82.1269530855612
 20
49.20401806147782
 30
0.0
  0
VERTEX
  5
384
330
361
100
AcDbEntity
  8
DIBUJOS
 62
     7
370
    18
100
AcDbVertex
100
AcDb2dVertex
 10
82.1485385632332
 20
49.19971134226983
 30
0.0
  0
VERTEX
  5
385
330
361
100
AcDbEntity
  8
DIBUJOS
 62
     7
370
    18
100
AcDbVertex
100
AcDb2dVertex
 10
82.64284751242491
 20
49.21306247319558
 30
0.0
  0
SEQEND
  5
386
330
361
100
AcDbEntity
  8
DIBUJOS
 62
     7
370
    18
  0
POLYLINE
  5
387
330
2CB
100
AcDbEntity
  8
DIBUJOS
 62
     7
370
    18
100
AcDb2dPolyline
 66
     1
 10
0.0
 20
0.0
 30
0.0
  0
VERTEX
  5
388
330
387
100
AcDbEntity
  8
DIBUJOS
 62
     7
370
    18
100
AcDbVertex
100
AcDb2dVertex
 10
86.5658215286092
 20
48.32285848937232
 30
0.0
  0
VERTEX
  5
389
330
387
100
AcDbEntity
  8
DIBUJOS
 62
     7
370
    18
100
AcDbVertex
100
AcDb2dVertex
 10
86.5658215286092
 20
49.35863199347705
 30
0.0
  0
VERTEX
  5
38A
330
387
100
AcDbEntity
  8
DIBUJOS
 62
     7
370
    18
100
AcDbVertex
100
AcDb2dVertex
 10
86.56020839809699
 20
49.36422861878827
 30
0.0
  0
SEQEND
  5
38B
330
387
100
AcDbEntity
  8
DIBUJOS
 62
     7
370
    18
  0
POLYLINE
  5
38C
330
2CB
100
AcDbEntity
  8
DIBUJOS
 62
     7
370
    18
100
AcDb2dPolyline
 66
     1
 10
0.0
 20
0.0
 30
0.0
  0
VERTEX
  5
38D
330
38C
100
AcDbEntity
  8
DIBUJOS
 62
     7
370
    18
100
AcDbVertex
100
AcDb2dVertex
 10
86.5658215286092
 20
48.31725885026188
 30
0.0
  0
VERTEX
  5
38E
330
38C
100
AcDbEntity
  8
DIBUJOS
 62
     7
370
    18
100
AcDbVertex
100
AcDb2dVertex
 10
86.56020839809699
 20
48.31725885026188
 30
0.0
  0
SEQEND
  5
38F
330
38C
100
AcDbEntity
  8
DIBUJOS
 62
     7
370
    18
  0
POLYLINE
  5
390
330
2CB
100
AcDbEntity
  8
DIBUJOS
 62
     7
370
    18
100
AcDb2dPolyline
 66
     1
 10
0.0
 20
0.0
 30
0.0
  0
VERTEX
  5
391
330
390
100
AcDbEntity
  8
DIBUJOS
 62
     7
370
    18
100
AcDbVertex
100
AcDb2dVertex
 10
86.5658215286092
 20
48.31725885026188
 30
0.0
  0
VERTEX
  5
392
330
390
100
AcDbEntity
  8
DIBUJOS
 62
     7
370
    18
100
AcDbVertex
100
AcDb2dVertex
 10
86.5658215286092
 20
48.32285848937232
 30
0.0
  0
SEQEND
  5
393
330
390
100
AcDbEntity
  8
DIBUJOS
 62
     7
370
    18
  0
POLYLINE
  5
394
330
2CB
100
AcDbEntity
  8
DIBUJOS
 62
     7
370
    18
100
AcDb2dPolyline
 66
     1
 10
0.0
 20
0.0
 30
0.0
  0
VERTEX
  5
395
330
394
100
AcDbEntity
  8
DIBUJOS
 62
     7
370
    18
100
AcDbVertex
100
AcDb2dVertex
 10
86.5658215286092
 20
48.31165921115112
 30
0.0
  0
VERTEX
  5
396
330
394
100
AcDbEntity
  8
DIBUJOS
 62
     7
370
    18
100
AcDbVertex
100
AcDb2dVertex
 10
86.5658215286092
 20
48.31725885026188
 30
0.0
  0
SEQEND
  5
397
330
394
100
AcDbEntity
  8
DIBUJOS
 62
     7
370
    18
  0
POLYLINE
  5
398
330
2CB
100
AcDbEntity
  8
DIBUJOS
 62
     7
370
    18
100
AcDb2dPolyline
 66
     1
 10
0.0
 20
0.0
 30
0.0
  0
VERTEX
  5
399
330
398
100
AcDbEntity
  8
DIBUJOS
 62
     7
370
    18
100
AcDbVertex
100
AcDb2dVertex
 10
86.95306711276676
 20
48.31165921115112
 30
0.0
  0
VERTEX
  5
39A
330
398
100
AcDbEntity
  8
DIBUJOS
 62
     7
370
    18
100
AcDbVertex
100
AcDb2dVertex
 10
86.95013970508879
 20
48.3173703608361
 30
0.0
  0
VERTEX
  5
39B
330
398
100
AcDbEntity
  8
DIBUJOS
 62
     7
370
    18
100
AcDbVertex
100
AcDb2dVertex
 10
86.91378124130004
 20
49.38662416143146
 30
0.0
  0
VERTEX
  5
39C
330
398
100
AcDbEntity
  8
DIBUJOS
 62
     7
370
    18
100
AcDbVertex
100
AcDb2dVertex
 10
86.91939437181226
 20
49.39222380054223
 30
0.0
  0
SEQEND
  5
39D
330
398
100
AcDbEntity
  8
DIBUJOS
 62
     7
370
    18
  0
POLYLINE
  5
39E
330
2CB
100
AcDbEntity
  8
DIBUJOS
 62
     7
370
    18
100
AcDb2dPolyline
 66
     1
 10
0.0
 20
0.0
 30
0.0
  0
VERTEX
  5
39F
330
39E
100
AcDbEntity
  8
DIBUJOS
 62
     7
370
    18
100
AcDbVertex
100
AcDb2dVertex
 10
86.95868024327898
 20
48.31165921115112
 30
0.0
  0
VERTEX
  5
3A0
330
39E
100
AcDbEntity
  8
DIBUJOS
 62
     7
370
    18
100
AcDbVertex
100
AcDb2dVertex
 10
86.95306711276676
 20
48.31165921115112
 30
0.0
  0
SEQEND
  5
3A1
330
39E
100
AcDbEntity
  8
DIBUJOS
 62
     7
370
    18
  0
POLYLINE
  5
3A2
330
2CB
100
AcDbEntity
  8
DIBUJOS
 62
     7
370
    18
100
AcDb2dPolyline
 66
     1
 10
0.0
 20
0.0
 30
0.0
  0
VERTEX
  5
3A3
330
3A2
100
AcDbEntity
  8
DIBUJOS
 62
     7
370
    18
100
AcDbVertex
100
AcDb2dVertex
 10
86.95306711276676
 20
48.30605957204099
 30
0.0
  0
VERTEX
  5
3A4
330
3A2
100
AcDbEntity
  8
DIBUJOS
 62
     7
370
    18
100
AcDbVertex
100
AcDb2dVertex
 10
86.95306711276676
 20
48.31165921115112
 30
0.0
  0
SEQEND
  5
3A5
330
3A2
100
AcDbEntity
  8
DIBUJOS
 62
     7
370
    18
  0
POLYLINE
  5
3A6
330
2CB
100
AcDbEntity
  8
DIBUJOS
 62
     7
370
    18
100
AcDb2dPolyline
 66
     1
 10
0.0
 20
0.0
 30
0.0
  0
VERTEX
  5
3A7
330
3A6
100
AcDbEntity
  8
DIBUJOS
 62
     7
370
    18
100
AcDbVertex
100
AcDb2dVertex
 10
82.83366676030826
 20
48.13249788380414
 30
0.0
  0
VERTEX
  5
3A8
330
3A6
100
AcDbEntity
  8
DIBUJOS
 62
     7
370
    18
100
AcDbVertex
100
AcDb2dVertex
 10
83.01325672610521
 20
49.22425873761725
 30
0.0
  0
SEQEND
  5
3A9
330
3A6
100
AcDbEntity
  8
DIBUJOS
 62
     7
370
    18
  0
POLYLINE
  5
3AA
330
2CB
100
AcDbEntity
  8
DIBUJOS
 62
     7
370
    18
100
AcDb2dPolyline
 66
     1
 10
0.0
 20
0.0
 30
0.0
  0
VERTEX
  5
3AB
330
3AA
100
AcDbEntity
  8
DIBUJOS
 62
     7
370
    18
100
AcDbVertex
100
AcDb2dVertex
 10
82.83366676030826
 20
48.12690125849324
 30
0.0
  0
VERTEX
  5
3AC
330
3AA
100
AcDbEntity
  8
DIBUJOS
 62
     7
370
    18
100
AcDbVertex
100
AcDb2dVertex
 10
82.83366676030826
 20
48.13249788380414
 30
0.0
  0
SEQEND
  5
3AD
330
3AA
100
AcDbEntity
  8
DIBUJOS
 62
     7
370
    18
  0
POLYLINE
  5
3AE
330
2CB
100
AcDbEntity
  8
DIBUJOS
 62
     7
370
    18
100
AcDb2dPolyline
 66
     1
 10
0.0
 20
0.0
 30
0.0
  0
VERTEX
  5
3AF
330
3AE
100
AcDbEntity
  8
DIBUJOS
 62
     7
370
    18
100
AcDbVertex
100
AcDb2dVertex
 10
82.8392768697598
 20
48.12690125849324
 30
0.0
  0
VERTEX
  5
3B0
330
3AE
100
AcDbEntity
  8
DIBUJOS
 62
     7
370
    18
100
AcDbVertex
100
AcDb2dVertex
 10
82.83366676030826
 20
48.12690125849324
 30
0.0
  0
SEQEND
  5
3B1
330
3AE
100
AcDbEntity
  8
DIBUJOS
 62
     7
370
    18
  0
POLYLINE
  5
3B2
330
2CB
100
AcDbEntity
  8
DIBUJOS
 62
     7
370
    18
100
AcDb2dPolyline
 66
     1
 10
0.0
 20
0.0
 30
0.0
  0
VERTEX
  5
3B3
330
3B2
100
AcDbEntity
  8
DIBUJOS
 62
     7
370
    18
100
AcDbVertex
100
AcDb2dVertex
 10
82.8392768697598
 20
48.12690125849324
 30
0.0
  0
VERTEX
  5
3B4
330
3B2
100
AcDbEntity
  8
DIBUJOS
 62
     7
370
    18
100
AcDbVertex
100
AcDb2dVertex
 10
82.87818510865719
 20
48.13476727468199
 30
0.0
  0
VERTEX
  5
3B5
330
3B2
100
AcDbEntity
  8
DIBUJOS
 62
     7
370
    18
100
AcDbVertex
100
AcDb2dVertex
 10
83.37264208981658
 20
48.19711675472573
 30
0.0
  0
VERTEX
  5
3B6
330
3B2
100
AcDbEntity
  8
DIBUJOS
 62
     7
370
    18
100
AcDbVertex
100
AcDb2dVertex
 10
83.51817563996897
 20
48.20786999064971
 30
0.0
  0
VERTEX
  5
3B7
330
3B2
100
AcDbEntity
  8
DIBUJOS
 62
     7
370
    18
100
AcDbVertex
100
AcDb2dVertex
 10
84.08529516961615
 20
48.24177523284273
 30
0.0
  0
VERTEX
  5
3B8
330
3B2
100
AcDbEntity
  8
DIBUJOS
 62
     7
370
    18
100
AcDbVertex
100
AcDb2dVertex
 10
86.19545460977781
 20
48.31450122389681
 30
0.0
  0
VERTEX
  5
3B9
330
3B2
100
AcDbEntity
  8
DIBUJOS
 62
     7
370
    18
100
AcDbVertex
100
AcDb2dVertex
 10
86.56020839809699
 20
48.31725885026188
 30
0.0
  0
SEQEND
  5
3BA
330
3B2
100
AcDbEntity
  8
DIBUJOS
 62
     7
370
    18
  0
POLYLINE
  5
3BB
330
2CB
100
AcDbEntity
  8
DIBUJOS
 62
     7
370
    18
100
AcDb2dPolyline
 66
     1
 10
0.0
 20
0.0
 30
0.0
  0
VERTEX
  5
3BC
330
3BB
100
AcDbEntity
  8
DIBUJOS
 62
     7
370
    18
100
AcDbVertex
100
AcDb2dVertex
 10
82.83366676030826
 20
48.1213016193828
 30
0.0
  0
VERTEX
  5
3BD
330
3BB
100
AcDbEntity
  8
DIBUJOS
 62
     7
370
    18
100
AcDbVertex
100
AcDb2dVertex
 10
82.83366676030826
 20
48.12690125849324
 30
0.0
  0
SEQEND
  5
3BE
330
3BB
100
AcDbEntity
  8
DIBUJOS
 62
     7
370
    18
  0
POLYLINE
  5
3BF
330
2CB
100
AcDbEntity
  8
DIBUJOS
 62
     7
370
    18
100
AcDb2dPolyline
 66
     1
 10
0.0
 20
0.0
 30
0.0
  0
VERTEX
  5
3C0
330
3BF
100
AcDbEntity
  8
DIBUJOS
 62
     7
370
    18
100
AcDbVertex
100
AcDb2dVertex
 10
86.57143465912206
 20
47.97573209910133
 30
0.0
  0
VERTEX
  5
3C1
330
3BF
100
AcDbEntity
  8
DIBUJOS
 62
     7
370
    18
100
AcDbVertex
100
AcDb2dVertex
 10
86.5658215286092
 20
48.31165921115112
 30
0.0
  0
SEQEND
  5
3C2
330
3BF
100
AcDbEntity
  8
DIBUJOS
 62
     7
370
    18
  0
POLYLINE
  5
3C3
330
2CB
100
AcDbEntity
  8
DIBUJOS
 62
     7
370
    18
100
AcDb2dPolyline
 66
     1
 10
0.0
 20
0.0
 30
0.0
  0
VERTEX
  5
3C4
330
3C3
100
AcDbEntity
  8
DIBUJOS
 62
     7
370
    18
100
AcDbVertex
100
AcDb2dVertex
 10
86.57143465912206
 20
47.97013547379043
 30
0.0
  0
VERTEX
  5
3C5
330
3C3
100
AcDbEntity
  8
DIBUJOS
 62
     7
370
    18
100
AcDbVertex
100
AcDb2dVertex
 10
86.5658215286092
 20
47.97013547379043
 30
0.0
  0
SEQEND
  5
3C6
330
3C3
100
AcDbEntity
  8
DIBUJOS
 62
     7
370
    18
  0
POLYLINE
  5
3C7
330
2CB
100
AcDbEntity
  8
DIBUJOS
 62
     7
370
    18
100
AcDb2dPolyline
 66
     1
 10
0.0
 20
0.0
 30
0.0
  0
VERTEX
  5
3C8
330
3C7
100
AcDbEntity
  8
DIBUJOS
 62
     7
370
    18
100
AcDbVertex
100
AcDb2dVertex
 10
86.57143465912206
 20
47.97013547379043
 30
0.0
  0
VERTEX
  5
3C9
330
3C7
100
AcDbEntity
  8
DIBUJOS
 62
     7
370
    18
100
AcDbVertex
100
AcDb2dVertex
 10
86.57143465912206
 20
47.97573209910133
 30
0.0
  0
SEQEND
  5
3CA
330
3C7
100
AcDbEntity
  8
DIBUJOS
 62
     7
370
    18
  0
POLYLINE
  5
3CB
330
2CB
100
AcDbEntity
  8
DIBUJOS
 62
     7
370
    18
100
AcDb2dPolyline
 66
     1
 10
0.0
 20
0.0
 30
0.0
  0
VERTEX
  5
3CC
330
3CB
100
AcDbEntity
  8
DIBUJOS
 62
     7
370
    18
100
AcDbVertex
100
AcDb2dVertex
 10
86.57143465912206
 20
47.96453583467999
 30
0.0
  0
VERTEX
  5
3CD
330
3CB
100
AcDbEntity
  8
DIBUJOS
 62
     7
370
    18
100
AcDbVertex
100
AcDb2dVertex
 10
86.57143465912206
 20
47.97013547379043
 30
0.0
  0
SEQEND
  5
3CE
330
3CB
100
AcDbEntity
  8
DIBUJOS
 62
     7
370
    18
  0
POLYLINE
  5
3CF
330
2CB
100
AcDbEntity
  8
DIBUJOS
 62
     7
370
    18
100
AcDb2dPolyline
 66
     1
 10
0.0
 20
0.0
 30
0.0
  0
VERTEX
  5
3D0
330
3CF
100
AcDbEntity
  8
DIBUJOS
 62
     7
370
    18
100
AcDbVertex
100
AcDb2dVertex
 10
86.95868024327898
 20
47.91974474939263
 30
0.0
  0
VERTEX
  5
3D1
330
3CF
100
AcDbEntity
  8
DIBUJOS
 62
     7
370
    18
100
AcDbVertex
100
AcDb2dVertex
 10
86.9474539822539
 20
48.30046294672913
 30
0.0
  0
VERTEX
  5
3D2
330
3CF
100
AcDbEntity
  8
DIBUJOS
 62
     7
370
    18
100
AcDbVertex
100
AcDb2dVertex
 10
86.95306711276676
 20
48.30605957204099
 30
0.0
  0
SEQEND
  5
3D3
330
3CF
100
AcDbEntity
  8
DIBUJOS
 62
     7
370
    18
  0
POLYLINE
  5
3D4
330
2CB
100
AcDbEntity
  8
DIBUJOS
 62
     7
370
    18
100
AcDb2dPolyline
 66
     1
 10
0.0
 20
0.0
 30
0.0
  0
VERTEX
  5
3D5
330
3D4
100
AcDbEntity
  8
DIBUJOS
 62
     7
370
    18
100
AcDbVertex
100
AcDb2dVertex
 10
86.95868024327898
 20
47.91414511028251
 30
0.0
  0
VERTEX
  5
3D6
330
3D4
100
AcDbEntity
  8
DIBUJOS
 62
     7
370
    18
100
AcDbVertex
100
AcDb2dVertex
 10
86.95868024327898
 20
47.91974474939263
 30
0.0
  0
SEQEND
  5
3D7
330
3D4
100
AcDbEntity
  8
DIBUJOS
 62
     7
370
    18
  0
POLYLINE
  5
3D8
330
2CB
100
AcDbEntity
  8
DIBUJOS
 62
     7
370
    18
100
AcDb2dPolyline
 66
     1
 10
0.0
 20
0.0
 30
0.0
  0
VERTEX
  5
3D9
330
3D8
100
AcDbEntity
  8
DIBUJOS
 62
     7
370
    18
100
AcDbVertex
100
AcDb2dVertex
 10
86.96429337379183
 20
47.91414511028251
 30
0.0
  0
VERTEX
  5
3DA
330
3D8
100
AcDbEntity
  8
DIBUJOS
 62
     7
370
    18
100
AcDbVertex
100
AcDb2dVertex
 10
86.95868024327898
 20
47.91414511028251
 30
0.0
  0
SEQEND
  5
3DB
330
3D8
100
AcDbEntity
  8
DIBUJOS
 62
     7
370
    18
  0
POLYLINE
  5
3DC
330
2CB
100
AcDbEntity
  8
DIBUJOS
 62
     7
370
    18
100
AcDb2dPolyline
 66
     1
 10
0.0
 20
0.0
 30
0.0
  0
VERTEX
  5
3DD
330
3DC
100
AcDbEntity
  8
DIBUJOS
 62
     7
370
    18
100
AcDbVertex
100
AcDb2dVertex
 10
86.96429337379183
 20
47.91414511028251
 30
0.0
  0
VERTEX
  5
3DE
330
3DC
100
AcDbEntity
  8
DIBUJOS
 62
     7
370
    18
100
AcDbVertex
100
AcDb2dVertex
 10
87.00891745926081
 20
47.91660437051615
 30
0.0
  0
VERTEX
  5
3DF
330
3DC
100
AcDbEntity
  8
DIBUJOS
 62
     7
370
    18
100
AcDbVertex
100
AcDb2dVertex
 10
87.21172729648995
 20
47.92896697526931
 30
0.0
  0
VERTEX
  5
3E0
330
3DC
100
AcDbEntity
  8
DIBUJOS
 62
     7
370
    18
100
AcDbVertex
100
AcDb2dVertex
 10
87.2342432608119
 20
47.93486196671229
 30
0.0
  0
VERTEX
  5
3E1
330
3DC
100
AcDbEntity
  8
DIBUJOS
 62
     7
370
    18
100
AcDbVertex
100
AcDb2dVertex
 10
87.28980358549192
 20
47.94773993114691
 30
0.0
  0
VERTEX
  5
3E2
330
3DC
100
AcDbEntity
  8
DIBUJOS
 62
     7
370
    18
100
AcDbVertex
100
AcDb2dVertex
 10
87.33470258747151
 20
47.99252800263408
 30
0.0
  0
VERTEX
  5
3E3
330
3DC
100
AcDbEntity
  8
DIBUJOS
 62
     7
370
    18
100
AcDbVertex
100
AcDb2dVertex
 10
87.3383339022591
 20
48.0098211830517
 30
0.0
  0
VERTEX
  5
3E4
330
3DC
100
AcDbEntity
  8
DIBUJOS
 62
     7
370
    18
100
AcDbVertex
100
AcDb2dVertex
 10
87.34229451264831
 20
48.02562856041219
 30
0.0
  0
VERTEX
  5
3E5
330
3DC
100
AcDbEntity
  8
DIBUJOS
 62
     7
370
    18
100
AcDbVertex
100
AcDb2dVertex
 10
87.34592582743655
 20
48.10450571585005
 30
0.0
  0
VERTEX
  5
3E6
330
3DC
100
AcDbEntity
  8
DIBUJOS
 62
     7
370
    18
100
AcDbVertex
100
AcDb2dVertex
 10
87.31915923091267
 20
48.13895946951654
 30
0.0
  0
VERTEX
  5
3E7
330
3DC
100
AcDbEntity
  8
DIBUJOS
 62
     7
370
    18
100
AcDbVertex
100
AcDb2dVertex
 10
87.23454536686671
 20
48.24576550312398
 30
0.0
  0
VERTEX
  5
3E8
330
3DC
100
AcDbEntity
  8
DIBUJOS
 62
     7
370
    18
100
AcDbVertex
100
AcDb2dVertex
 10
87.17699718434069
 20
48.27134964543306
 30
0.0
  0
VERTEX
  5
3E9
330
3DC
100
AcDbEntity
  8
DIBUJOS
 62
     7
370
    18
100
AcDbVertex
100
AcDb2dVertex
 10
87.0929965955877
 20
48.29259391674115
 30
0.0
  0
VERTEX
  5
3EA
330
3DC
100
AcDbEntity
  8
DIBUJOS
 62
     7
370
    18
100
AcDbVertex
100
AcDb2dVertex
 10
86.95868024327898
 20
48.31165921115112
 30
0.0
  0
SEQEND
  5
3EB
330
3DC
100
AcDbEntity
  8
DIBUJOS
 62
     7
370
    18
  0
POLYLINE
  5
3EC
330
2CB
100
AcDbEntity
  8
DIBUJOS
 62
     7
370
    18
100
AcDb2dPolyline
 66
     1
 10
0.0
 20
0.0
 30
0.0
  0
VERTEX
  5
3ED
330
3EC
100
AcDbEntity
  8
DIBUJOS
 62
     7
370
    18
100
AcDbVertex
100
AcDb2dVertex
 10
86.95868024327898
 20
47.90854848497129
 30
0.0
  0
VERTEX
  5
3EE
330
3EC
100
AcDbEntity
  8
DIBUJOS
 62
     7
370
    18
100
AcDbVertex
100
AcDb2dVertex
 10
86.95868024327898
 20
47.91414511028251
 30
0.0
  0
SEQEND
  5
3EF
330
3EC
100
AcDbEntity
  8
DIBUJOS
 62
     7
370
    18
  0
POLYLINE
  5
3F0
330
2CB
100
AcDbEntity
  8
DIBUJOS
 62
     7
370
    18
100
AcDb2dPolyline
 66
     1
 10
0.0
 20
0.0
 30
0.0
  0
VERTEX
  5
3F1
330
3F0
100
AcDbEntity
  8
DIBUJOS
 62
     7
370
    18
100
AcDbVertex
100
AcDb2dVertex
 10
82.78876775832804
 20
47.84696149615215
 30
0.0
  0
VERTEX
  5
3F2
330
3F0
100
AcDbEntity
  8
DIBUJOS
 62
     7
370
    18
100
AcDbVertex
100
AcDb2dVertex
 10
82.83366676030826
 20
48.1213016193828
 30
0.0
  0
SEQEND
  5
3F3
330
3F0
100
AcDbEntity
  8
DIBUJOS
 62
     7
370
    18
  0
POLYLINE
  5
3F4
330
2CB
100
AcDbEntity
  8
DIBUJOS
 62
     7
370
    18
100
AcDb2dPolyline
 66
     1
 10
0.0
 20
0.0
 30
0.0
  0
VERTEX
  5
3F5
330
3F4
100
AcDbEntity
  8
DIBUJOS
 62
     7
370
    18
100
AcDbVertex
100
AcDb2dVertex
 10
82.78315462781518
 20
47.84136185704107
 30
0.0
  0
VERTEX
  5
3F6
330
3F4
100
AcDbEntity
  8
DIBUJOS
 62
     7
370
    18
100
AcDbVertex
100
AcDb2dVertex
 10
82.7775414973036
 20
47.84136185704107
 30
0.0
  0
SEQEND
  5
3F7
330
3F4
100
AcDbEntity
  8
DIBUJOS
 62
     7
370
    18
  0
POLYLINE
  5
3F8
330
2CB
100
AcDbEntity
  8
DIBUJOS
 62
     7
370
    18
100
AcDb2dPolyline
 66
     1
 10
0.0
 20
0.0
 30
0.0
  0
VERTEX
  5
3F9
330
3F8
100
AcDbEntity
  8
DIBUJOS
 62
     7
370
    18
100
AcDbVertex
100
AcDb2dVertex
 10
82.78876775832804
 20
47.84136185704107
 30
0.0
  0
VERTEX
  5
3FA
330
3F8
100
AcDbEntity
  8
DIBUJOS
 62
     7
370
    18
100
AcDbVertex
100
AcDb2dVertex
 10
82.78315462781518
 20
47.84136185704107
 30
0.0
  0
SEQEND
  5
3FB
330
3F8
100
AcDbEntity
  8
DIBUJOS
 62
     7
370
    18
  0
POLYLINE
  5
3FC
330
2CB
100
AcDbEntity
  8
DIBUJOS
 62
     7
370
    18
100
AcDb2dPolyline
 66
     1
 10
0.0
 20
0.0
 30
0.0
  0
VERTEX
  5
3FD
330
3FC
100
AcDbEntity
  8
DIBUJOS
 62
     7
370
    18
100
AcDbVertex
100
AcDb2dVertex
 10
82.78876775832804
 20
47.84136185704107
 30
0.0
  0
VERTEX
  5
3FE
330
3FC
100
AcDbEntity
  8
DIBUJOS
 62
     7
370
    18
100
AcDbVertex
100
AcDb2dVertex
 10
82.78876775832804
 20
47.84696149615215
 30
0.0
  0
SEQEND
  5
3FF
330
3FC
100
AcDbEntity
  8
DIBUJOS
 62
     7
370
    18
  0
POLYLINE
  5
400
330
2CB
100
AcDbEntity
  8
DIBUJOS
 62
     7
370
    18
100
AcDb2dPolyline
 66
     1
 10
0.0
 20
0.0
 30
0.0
  0
VERTEX
  5
401
330
400
100
AcDbEntity
  8
DIBUJOS
 62
     7
370
    18
100
AcDbVertex
100
AcDb2dVertex
 10
82.7943808888409
 20
47.84136185704107
 30
0.0
  0
VERTEX
  5
402
330
400
100
AcDbEntity
  8
DIBUJOS
 62
     7
370
    18
100
AcDbVertex
100
AcDb2dVertex
 10
82.78876775832804
 20
47.84136185704107
 30
0.0
  0
SEQEND
  5
403
330
400
100
AcDbEntity
  8
DIBUJOS
 62
     7
370
    18
  0
POLYLINE
  5
404
330
2CB
100
AcDbEntity
  8
DIBUJOS
 62
     7
370
    18
100
AcDb2dPolyline
 66
     1
 10
0.0
 20
0.0
 30
0.0
  0
VERTEX
  5
405
330
404
100
AcDbEntity
  8
DIBUJOS
 62
     7
370
    18
100
AcDbVertex
100
AcDb2dVertex
 10
82.7943808888409
 20
47.84136185704107
 30
0.0
  0
VERTEX
  5
406
330
404
100
AcDbEntity
  8
DIBUJOS
 62
     7
370
    18
100
AcDbVertex
100
AcDb2dVertex
 10
83.0412317468516
 20
47.84966788792861
 30
0.0
  0
VERTEX
  5
407
330
404
100
AcDbEntity
  8
DIBUJOS
 62
     7
370
    18
100
AcDbVertex
100
AcDb2dVertex
 10
83.2828591911602
 20
47.85001146104958
 30
0.0
  0
VERTEX
  5
408
330
404
100
AcDbEntity
  8
DIBUJOS
 62
     7
370
    18
100
AcDbVertex
100
AcDb2dVertex
 10
83.42276752655765
 20
47.86074360037808
 30
0.0
  0
VERTEX
  5
409
330
404
100
AcDbEntity
  8
DIBUJOS
 62
     7
370
    18
100
AcDbVertex
100
AcDb2dVertex
 10
85.76879022748861
 20
47.94484367001339
 30
0.0
  0
VERTEX
  5
40A
330
404
100
AcDbEntity
  8
DIBUJOS
 62
     7
370
    18
100
AcDbVertex
100
AcDb2dVertex
 10
86.5658215286092
 20
47.97013547379043
 30
0.0
  0
SEQEND
  5
40B
330
404
100
AcDbEntity
  8
DIBUJOS
 62
     7
370
    18
  0
POLYLINE
  5
40C
330
2CB
100
AcDbEntity
  8
DIBUJOS
 62
     7
370
    18
100
AcDb2dPolyline
 66
     1
 10
0.0
 20
0.0
 30
0.0
  0
VERTEX
  5
40D
330
40C
100
AcDbEntity
  8
DIBUJOS
 62
     7
370
    18
100
AcDbVertex
100
AcDb2dVertex
 10
86.57704476857488
 20
47.45504703439303
 30
0.0
  0
VERTEX
  5
40E
330
40C
100
AcDbEntity
  8
DIBUJOS
 62
     7
370
    18
100
AcDbVertex
100
AcDb2dVertex
 10
86.57143465912206
 20
47.96453583467999
 30
0.0
  0
SEQEND
  5
40F
330
40C
100
AcDbEntity
  8
DIBUJOS
 62
     7
370
    18
  0
POLYLINE
  5
410
330
2CB
100
AcDbEntity
  8
DIBUJOS
 62
     7
370
    18
100
AcDb2dPolyline
 66
     1
 10
0.0
 20
0.0
 30
0.0
  0
VERTEX
  5
411
330
410
100
AcDbEntity
  8
DIBUJOS
 62
     7
370
    18
100
AcDbVertex
100
AcDb2dVertex
 10
86.57704476857488
 20
47.44944739528259
 30
0.0
  0
VERTEX
  5
412
330
410
100
AcDbEntity
  8
DIBUJOS
 62
     7
370
    18
100
AcDbVertex
100
AcDb2dVertex
 10
86.57143465912206
 20
47.44944739528259
 30
0.0
  0
SEQEND
  5
413
330
410
100
AcDbEntity
  8
DIBUJOS
 62
     7
370
    18
  0
POLYLINE
  5
414
330
2CB
100
AcDbEntity
  8
DIBUJOS
 62
     7
370
    18
100
AcDb2dPolyline
 66
     1
 10
0.0
 20
0.0
 30
0.0
  0
VERTEX
  5
415
330
414
100
AcDbEntity
  8
DIBUJOS
 62
     7
370
    18
100
AcDbVertex
100
AcDb2dVertex
 10
86.57704476857488
 20
47.44944739528259
 30
0.0
  0
VERTEX
  5
416
330
414
100
AcDbEntity
  8
DIBUJOS
 62
     7
370
    18
100
AcDbVertex
100
AcDb2dVertex
 10
86.57704476857488
 20
47.45504703439303
 30
0.0
  0
SEQEND
  5
417
330
414
100
AcDbEntity
  8
DIBUJOS
 62
     7
370
    18
  0
POLYLINE
  5
418
330
2CB
100
AcDbEntity
  8
DIBUJOS
 62
     7
370
    18
100
AcDb2dPolyline
 66
     1
 10
0.0
 20
0.0
 30
0.0
  0
VERTEX
  5
419
330
418
100
AcDbEntity
  8
DIBUJOS
 62
     7
370
    18
100
AcDbVertex
100
AcDb2dVertex
 10
86.57704476857488
 20
47.44385076997104
 30
0.0
  0
VERTEX
  5
41A
330
418
100
AcDbEntity
  8
DIBUJOS
 62
     7
370
    18
100
AcDbVertex
100
AcDb2dVertex
 10
86.57704476857488
 20
47.44944739528259
 30
0.0
  0
SEQEND
  5
41B
330
418
100
AcDbEntity
  8
DIBUJOS
 62
     7
370
    18
  0
POLYLINE
  5
41C
330
2CB
100
AcDbEntity
  8
DIBUJOS
 62
     7
370
    18
100
AcDb2dPolyline
 66
     1
 10
0.0
 20
0.0
 30
0.0
  0
VERTEX
  5
41D
330
41C
100
AcDbEntity
  8
DIBUJOS
 62
     7
370
    18
100
AcDbVertex
100
AcDb2dVertex
 10
82.64846064293776
 20
49.20746283408546
 30
0.0
  0
VERTEX
  5
41E
330
41C
100
AcDbEntity
  8
DIBUJOS
 62
     7
370
    18
100
AcDbVertex
100
AcDb2dVertex
 10
82.54398632679793
 20
48.66395125343315
 30
0.0
  0
VERTEX
  5
41F
330
41C
100
AcDbEntity
  8
DIBUJOS
 62
     7
370
    18
100
AcDbVertex
100
AcDb2dVertex
 10
82.42958178461276
 20
48.04291872703123
 30
0.0
  0
VERTEX
  5
420
330
41C
100
AcDbEntity
  8
DIBUJOS
 62
     7
370
    18
100
AcDbVertex
100
AcDb2dVertex
 10
82.37259551934939
 20
48.00502020075741
 30
0.0
  0
VERTEX
  5
421
330
41C
100
AcDbEntity
  8
DIBUJOS
 62
     7
370
    18
100
AcDbVertex
100
AcDb2dVertex
 10
82.35532713721244
 20
47.98779332392385
 30
0.0
  0
VERTEX
  5
422
330
41C
100
AcDbEntity
  8
DIBUJOS
 62
     7
370
    18
100
AcDbVertex
100
AcDb2dVertex
 10
82.34410389724805
 20
47.97099440659252
 30
0.0
  0
VERTEX
  5
423
330
41C
100
AcDbEntity
  8
DIBUJOS
 62
     7
370
    18
100
AcDbVertex
100
AcDb2dVertex
 10
82.32856054068921
 20
47.94773993114691
 30
0.0
  0
VERTEX
  5
424
330
41C
100
AcDbEntity
  8
DIBUJOS
 62
     7
370
    18
100
AcDbVertex
100
AcDb2dVertex
 10
82.33219185547681
 20
47.86886277570873
 30
0.0
  0
VERTEX
  5
425
330
41C
100
AcDbEntity
  8
DIBUJOS
 62
     7
370
    18
100
AcDbVertex
100
AcDb2dVertex
 10
82.34252388257822
 20
47.8379472224272
 30
0.0
  0
VERTEX
  5
426
330
41C
100
AcDbEntity
  8
DIBUJOS
 62
     7
370
    18
100
AcDbVertex
100
AcDb2dVertex
 10
82.38468580369387
 20
47.79097414644313
 30
0.0
  0
VERTEX
  5
427
330
41C
100
AcDbEntity
  8
DIBUJOS
 62
     7
370
    18
100
AcDbVertex
100
AcDb2dVertex
 10
82.34206166031232
 20
47.54984910536436
 30
0.0
  0
VERTEX
  5
428
330
41C
100
AcDbEntity
  8
DIBUJOS
 62
     7
370
    18
100
AcDbVertex
100
AcDb2dVertex
 10
82.3375119431156
 20
47.52261038723625
 30
0.0
  0
VERTEX
  5
429
330
41C
100
AcDbEntity
  8
DIBUJOS
 62
     7
370
    18
100
AcDbVertex
100
AcDb2dVertex
 10
82.08397849915583
 20
45.96543754798834
 30
0.0
  0
VERTEX
  5
42A
330
41C
100
AcDbEntity
  8
DIBUJOS
 62
     7
370
    18
100
AcDbVertex
100
AcDb2dVertex
 10
81.75285515694289
 20
43.81550764742828
 30
0.0
  0
VERTEX
  5
42B
330
41C
100
AcDbEntity
  8
DIBUJOS
 62
     7
370
    18
100
AcDbVertex
100
AcDb2dVertex
 10
81.71682598875512
 20
43.56389759856349
 30
0.0
  0
VERTEX
  5
42C
330
41C
100
AcDbEntity
  8
DIBUJOS
 62
     7
370
    18
100
AcDbVertex
100
AcDb2dVertex
 10
81.73366235923237
 20
43.54710169503075
 30
0.0
  0
VERTEX
  5
42D
330
41C
100
AcDbEntity
  8
DIBUJOS
 62
     7
370
    18
100
AcDbVertex
100
AcDb2dVertex
 10
81.94131495653166
 20
43.51350988796588
 30
0.0
  0
VERTEX
  5
42E
330
41C
100
AcDbEntity
  8
DIBUJOS
 62
     7
370
    18
100
AcDbVertex
100
AcDb2dVertex
 10
81.95815132700955
 20
43.53030579149895
 30
0.0
  0
VERTEX
  5
42F
330
41C
100
AcDbEntity
  8
DIBUJOS
 62
     7
370
    18
100
AcDbVertex
100
AcDb2dVertex
 10
82.05140240318306
 20
44.00103411890917
 30
0.0
  0
VERTEX
  5
430
330
41C
100
AcDbEntity
  8
DIBUJOS
 62
     7
370
    18
100
AcDbVertex
100
AcDb2dVertex
 10
82.09500537018482
 20
44.22412157114136
 30
0.0
  0
VERTEX
  5
431
330
41C
100
AcDbEntity
  8
DIBUJOS
 62
     7
370
    18
100
AcDbVertex
100
AcDb2dVertex
 10
82.65062070123498
 20
47.07949750286713
 30
0.0
  0
VERTEX
  5
432
330
41C
100
AcDbEntity
  8
DIBUJOS
 62
     7
370
    18
100
AcDbVertex
100
AcDb2dVertex
 10
82.65179891485194
 20
47.0859048401917
 30
0.0
  0
VERTEX
  5
433
330
41C
100
AcDbEntity
  8
DIBUJOS
 62
     7
370
    18
100
AcDbVertex
100
AcDb2dVertex
 10
82.68774651440448
 20
47.30388088880066
 30
0.0
  0
VERTEX
  5
434
330
41C
100
AcDbEntity
  8
DIBUJOS
 62
     7
370
    18
100
AcDbVertex
100
AcDb2dVertex
 10
82.69896975436887
 20
47.31507715322297
 30
0.0
  0
VERTEX
  5
435
330
41C
100
AcDbEntity
  8
DIBUJOS
 62
     7
370
    18
100
AcDbVertex
100
AcDb2dVertex
 10
85.37611277645274
 20
47.40755257112973
 30
0.0
  0
VERTEX
  5
436
330
41C
100
AcDbEntity
  8
DIBUJOS
 62
     7
370
    18
100
AcDbVertex
100
AcDb2dVertex
 10
86.57143465912206
 20
47.44944739528259
 30
0.0
  0
SEQEND
  5
437
330
41C
100
AcDbEntity
  8
DIBUJOS
 62
     7
370
    18
  0
POLYLINE
  5
438
330
2CB
100
AcDbEntity
  8
DIBUJOS
 62
     7
370
    18
100
AcDb2dPolyline
 66
     1
 10
0.0
 20
0.0
 30
0.0
  0
VERTEX
  5
439
330
438
100
AcDbEntity
  8
DIBUJOS
 62
     7
370
    18
100
AcDbVertex
100
AcDb2dVertex
 10
86.57704476857488
 20
47.44385076997104
 30
0.0
  0
VERTEX
  5
43A
330
438
100
AcDbEntity
  8
DIBUJOS
 62
     7
370
    18
100
AcDbVertex
100
AcDb2dVertex
 10
86.65291870443198
 20
45.19304297903918
 30
0.0
  0
VERTEX
  5
43B
330
438
100
AcDbEntity
  8
DIBUJOS
 62
     7
370
    18
100
AcDbVertex
100
AcDb2dVertex
 10
86.71990770119451
 20
43.5305167574499
 30
0.0
  0
VERTEX
  5
43C
330
438
100
AcDbEntity
  8
DIBUJOS
 62
     7
370
    18
100
AcDbVertex
100
AcDb2dVertex
 10
86.72857814498958
 20
43.51350988796588
 30
0.0
  0
VERTEX
  5
43D
330
438
100
AcDbEntity
  8
DIBUJOS
 62
     7
370
    18
100
AcDbVertex
100
AcDb2dVertex
 10
86.74541451546683
 20
43.50791024885512
 30
0.0
  0
VERTEX
  5
43E
330
438
100
AcDbEntity
  8
DIBUJOS
 62
     7
370
    18
100
AcDbVertex
100
AcDb2dVertex
 10
86.75110317249356
 20
43.5107914409916
 30
0.0
  0
VERTEX
  5
43F
330
438
100
AcDbEntity
  8
DIBUJOS
 62
     7
370
    18
100
AcDbVertex
100
AcDb2dVertex
 10
86.94184387280173
 20
43.51350988796588
 30
0.0
  0
VERTEX
  5
440
330
438
100
AcDbEntity
  8
DIBUJOS
 62
     7
370
    18
100
AcDbVertex
100
AcDb2dVertex
 10
86.96429337379183
 20
43.53590543060876
 30
0.0
  0
VERTEX
  5
441
330
438
100
AcDbEntity
  8
DIBUJOS
 62
     7
370
    18
100
AcDbVertex
100
AcDb2dVertex
 10
86.96429337379183
 20
44.51009194589435
 30
0.0
  0
VERTEX
  5
442
330
438
100
AcDbEntity
  8
DIBUJOS
 62
     7
370
    18
100
AcDbVertex
100
AcDb2dVertex
 10
86.97269796425836
 20
45.81459387892177
 30
0.0
  0
VERTEX
  5
443
330
438
100
AcDbEntity
  8
DIBUJOS
 62
     7
370
    18
100
AcDbVertex
100
AcDb2dVertex
 10
86.96141128202154
 20
47.69586466794305
 30
0.0
  0
VERTEX
  5
444
330
438
100
AcDbEntity
  8
DIBUJOS
 62
     7
370
    18
100
AcDbVertex
100
AcDb2dVertex
 10
86.95868024327898
 20
47.90854848497129
 30
0.0
  0
SEQEND
  5
445
330
438
100
AcDbEntity
  8
DIBUJOS
 62
     7
370
    18
  0
ENDBLK
  5
2CE
330
2CB
100
AcDbEntity
  8
0
100
AcDbBlockEnd
  0
BLOCK
  5
448
330
446
100
AcDbEntity
  8
0
100
AcDbBlockBegin
  2
block 4
 70
     0
 10
0.0
 20
0.0
 30
0.0
  3
block 4
  1

  0
POLYLINE
  5
44A
330
446
100
AcDbEntity
  8
DIBUJOS
 62
     7
370
    18
100
AcDb2dPolyline
 66
     1
 10
0.0
 20
0.0
 30
0.0
  0
VERTEX
  5
44B
330
44A
100
AcDbEntity
  8
DIBUJOS
 62
     7
370
    18
100
AcDbVertex
100
AcDb2dVertex
 10
66.93566206790543
 20
33.42468112426245
 30
0.0
  0
VERTEX
  5
44C
330
44A
100
AcDbEntity
  8
DIBUJOS
 62
     7
370
    18
100
AcDbVertex
100
AcDb2dVertex
 10
66.93004893739354
 20
33.42468112426245
 30
0.0
  0
SEQEND
  5
44D
330
44A
100
AcDbEntity
  8
DIBUJOS
 62
     7
370
    18
  0
POLYLINE
  5
44E
330
446
100
AcDbEntity
  8
DIBUJOS
 62
     7
370
    18
100
AcDb2dPolyline
 66
     1
 10
0.0
 20
0.0
 30
0.0
  0
VERTEX
  5
44F
330
44E
100
AcDbEntity
  8
DIBUJOS
 62
     7
370
    18
100
AcDbVertex
100
AcDb2dVertex
 10
66.93566206790543
 20
33.42468112426245
 30
0.0
  0
VERTEX
  5
450
330
44E
100
AcDbEntity
  8
DIBUJOS
 62
     7
370
    18
100
AcDbVertex
100
AcDb2dVertex
 10
66.93566206790543
 20
33.43027925647392
 30
0.0
  0
SEQEND
  5
451
330
44E
100
AcDbEntity
  8
DIBUJOS
 62
     7
370
    18
  0
POLYLINE
  5
452
330
446
100
AcDbEntity
  8
DIBUJOS
 62
     7
370
    18
100
AcDb2dPolyline
 66
     1
 10
0.0
 20
0.0
 30
0.0
  0
VERTEX
  5
453
330
452
100
AcDbEntity
  8
DIBUJOS
 62
     7
370
    18
100
AcDbVertex
100
AcDb2dVertex
 10
66.93566206790543
 20
33.41908148515233
 30
0.0
  0
VERTEX
  5
454
330
452
100
AcDbEntity
  8
DIBUJOS
 62
     7
370
    18
100
AcDbVertex
100
AcDb2dVertex
 10
66.93566206790543
 20
33.42468112426245
 30
0.0
  0
SEQEND
  5
455
330
452
100
AcDbEntity
  8
DIBUJOS
 62
     7
370
    18
  0
POLYLINE
  5
456
330
446
100
AcDbEntity
  8
DIBUJOS
 62
     7
370
    18
100
AcDb2dPolyline
 66
     1
 10
0.0
 20
0.0
 30
0.0
  0
VERTEX
  5
457
330
456
100
AcDbEntity
  8
DIBUJOS
 62
     7
370
    18
100
AcDbVertex
100
AcDb2dVertex
 10
62.88360644209028
 20
33.39668744940842
 30
0.0
  0
VERTEX
  5
458
330
456
100
AcDbEntity
  8
DIBUJOS
 62
     7
370
    18
100
AcDbVertex
100
AcDb2dVertex
 10
62.87799406684308
 20
33.39668744940842
 30
0.0
  0
SEQEND
  5
459
330
456
100
AcDbEntity
  8
DIBUJOS
 62
     7
370
    18
  0
POLYLINE
  5
45A
330
446
100
AcDbEntity
  8
DIBUJOS
 62
     7
370
    18
100
AcDb2dPolyline
 66
     1
 10
0.0
 20
0.0
 30
0.0
  0
VERTEX
  5
45B
330
45A
100
AcDbEntity
  8
DIBUJOS
 62
     7
370
    18
100
AcDbVertex
100
AcDb2dVertex
 10
62.88360644209028
 20
33.39668744940842
 30
0.0
  0
VERTEX
  5
45C
330
45A
100
AcDbEntity
  8
DIBUJOS
 62
     7
370
    18
100
AcDbVertex
100
AcDb2dVertex
 10
63.06429380813429
 20
33.53529057259426
 30
0.0
  0
VERTEX
  5
45D
330
45A
100
AcDbEntity
  8
DIBUJOS
 62
     7
370
    18
100
AcDbVertex
100
AcDb2dVertex
 10
63.3780475626819
 20
33.71469752458412
 30
0.0
  0
VERTEX
  5
45E
330
45A
100
AcDbEntity
  8
DIBUJOS
 62
     7
370
    18
100
AcDbVertex
100
AcDb2dVertex
 10
63.46080649554647
 20
33.76189964931572
 30
0.0
  0
VERTEX
  5
45F
330
45A
100
AcDbEntity
  8
DIBUJOS
 62
     7
370
    18
100
AcDbVertex
100
AcDb2dVertex
 10
63.76417082284257
 20
33.88545939326463
 30
0.0
  0
VERTEX
  5
460
330
45A
100
AcDbEntity
  8
DIBUJOS
 62
     7
370
    18
100
AcDbVertex
100
AcDb2dVertex
 10
63.91121188221194
 20
33.94368750275733
 30
0.0
  0
VERTEX
  5
461
330
45A
100
AcDbEntity
  8
DIBUJOS
 62
     7
370
    18
100
AcDbVertex
100
AcDb2dVertex
 10
64.28710432080055
 20
34.03279349303975
 30
0.0
  0
VERTEX
  5
462
330
45A
100
AcDbEntity
  8
DIBUJOS
 62
     7
370
    18
100
AcDbVertex
100
AcDb2dVertex
 10
64.38164992142315
 20
34.05389762268106
 30
0.0
  0
VERTEX
  5
463
330
45A
100
AcDbEntity
  8
DIBUJOS
 62
     7
370
    18
100
AcDbVertex
100
AcDb2dVertex
 10
64.53942329841709
 20
34.07157054181121
 30
0.0
  0
VERTEX
  5
464
330
45A
100
AcDbEntity
  8
DIBUJOS
 62
     7
370
    18
100
AcDbVertex
100
AcDb2dVertex
 10
64.83086349970019
 20
34.09350346626085
 30
0.0
  0
VERTEX
  5
465
330
45A
100
AcDbEntity
  8
DIBUJOS
 62
     7
370
    18
100
AcDbVertex
100
AcDb2dVertex
 10
64.93788003829663
 20
34.09911968126763
 30
0.0
  0
VERTEX
  5
466
330
45A
100
AcDbEntity
  8
DIBUJOS
 62
     7
370
    18
100
AcDbVertex
100
AcDb2dVertex
 10
65.4376193438379
 20
34.05949575489126
 30
0.0
  0
VERTEX
  5
467
330
45A
100
AcDbEntity
  8
DIBUJOS
 62
     7
370
    18
100
AcDbVertex
100
AcDb2dVertex
 10
65.93611699349076
 20
33.94368750275733
 30
0.0
  0
VERTEX
  5
468
330
45A
100
AcDbEntity
  8
DIBUJOS
 62
     7
370
    18
100
AcDbVertex
100
AcDb2dVertex
 10
66.0315251069021
 20
33.90505511635212
 30
0.0
  0
VERTEX
  5
469
330
45A
100
AcDbEntity
  8
DIBUJOS
 62
     7
370
    18
100
AcDbVertex
100
AcDb2dVertex
 10
66.39744502459612
 20
33.75612822364447
 30
0.0
  0
VERTEX
  5
46A
330
45A
100
AcDbEntity
  8
DIBUJOS
 62
     7
370
    18
100
AcDbVertex
100
AcDb2dVertex
 10
66.46928282355113
 20
33.71469752458412
 30
0.0
  0
VERTEX
  5
46B
330
45A
100
AcDbEntity
  8
DIBUJOS
 62
     7
370
    18
100
AcDbVertex
100
AcDb2dVertex
 10
66.79434440775937
 20
33.52411540476711
 30
0.0
  0
VERTEX
  5
46C
330
45A
100
AcDbEntity
  8
DIBUJOS
 62
     7
370
    18
100
AcDbVertex
100
AcDb2dVertex
 10
66.93004893739354
 20
33.42468112426245
 30
0.0
  0
SEQEND
  5
46D
330
45A
100
AcDbEntity
  8
DIBUJOS
 62
     7
370
    18
  0
POLYLINE
  5
46E
330
446
100
AcDbEntity
  8
DIBUJOS
 62
     7
370
    18
100
AcDb2dPolyline
 66
     1
 10
0.0
 20
0.0
 30
0.0
  0
VERTEX
  5
46F
330
46E
100
AcDbEntity
  8
DIBUJOS
 62
     7
370
    18
100
AcDbVertex
100
AcDb2dVertex
 10
62.87799406684308
 20
33.39108781029766
 30
0.0
  0
VERTEX
  5
470
330
46E
100
AcDbEntity
  8
DIBUJOS
 62
     7
370
    18
100
AcDbVertex
100
AcDb2dVertex
 10
62.87799406684308
 20
33.39668744940842
 30
0.0
  0
SEQEND
  5
471
330
46E
100
AcDbEntity
  8
DIBUJOS
 62
     7
370
    18
  0
POLYLINE
  5
472
330
446
100
AcDbEntity
  8
DIBUJOS
 62
     7
370
    18
100
AcDb2dPolyline
 66
     1
 10
0.0
 20
0.0
 30
0.0
  0
VERTEX
  5
473
330
472
100
AcDbEntity
  8
DIBUJOS
 62
     7
370
    18
100
AcDbVertex
100
AcDb2dVertex
 10
67.00862068032697
 20
33.3574960032328
 30
0.0
  0
VERTEX
  5
474
330
472
100
AcDbEntity
  8
DIBUJOS
 62
     7
370
    18
100
AcDbVertex
100
AcDb2dVertex
 10
66.93566206790543
 20
33.41348335294149
 30
0.0
  0
VERTEX
  5
475
330
472
100
AcDbEntity
  8
DIBUJOS
 62
     7
370
    18
100
AcDbVertex
100
AcDb2dVertex
 10
66.93566206790543
 20
33.41908148515233
 30
0.0
  0
SEQEND
  5
476
330
472
100
AcDbEntity
  8
DIBUJOS
 62
     7
370
    18
  0
POLYLINE
  5
477
330
446
100
AcDbEntity
  8
DIBUJOS
 62
     7
370
    18
100
AcDb2dPolyline
 66
     1
 10
0.0
 20
0.0
 30
0.0
  0
VERTEX
  5
478
330
477
100
AcDbEntity
  8
DIBUJOS
 62
     7
370
    18
100
AcDbVertex
100
AcDb2dVertex
 10
62.79942232390899
 20
33.32950232837813
 30
0.0
  0
VERTEX
  5
479
330
477
100
AcDbEntity
  8
DIBUJOS
 62
     7
370
    18
100
AcDbVertex
100
AcDb2dVertex
 10
62.87799406684308
 20
33.39108781029766
 30
0.0
  0
SEQEND
  5
47A
330
477
100
AcDbEntity
  8
DIBUJOS
 62
     7
370
    18
  0
POLYLINE
  5
47B
330
446
100
AcDbEntity
  8
DIBUJOS
 62
     7
370
    18
100
AcDb2dPolyline
 66
     1
 10
0.0
 20
0.0
 30
0.0
  0
VERTEX
  5
47C
330
47B
100
AcDbEntity
  8
DIBUJOS
 62
     7
370
    18
100
AcDbVertex
100
AcDb2dVertex
 10
62.5412583493826
 20
33.07195810868055
 30
0.0
  0
VERTEX
  5
47D
330
47B
100
AcDbEntity
  8
DIBUJOS
 62
     7
370
    18
100
AcDbVertex
100
AcDb2dVertex
 10
62.53564597413507
 20
33.07755624089075
 30
0.0
  0
SEQEND
  5
47E
330
47B
100
AcDbEntity
  8
DIBUJOS
 62
     7
370
    18
  0
POLYLINE
  5
47F
330
446
100
AcDbEntity
  8
DIBUJOS
 62
     7
370
    18
100
AcDb2dPolyline
 66
     1
 10
0.0
 20
0.0
 30
0.0
  0
VERTEX
  5
480
330
47F
100
AcDbEntity
  8
DIBUJOS
 62
     7
370
    18
100
AcDbVertex
100
AcDb2dVertex
 10
62.5412583493826
 20
33.07195810868055
 30
0.0
  0
VERTEX
  5
481
330
47F
100
AcDbEntity
  8
DIBUJOS
 62
     7
370
    18
100
AcDbVertex
100
AcDb2dVertex
 10
62.56931947035459
 20
33.11114955485618
 30
0.0
  0
SEQEND
  5
482
330
47F
100
AcDbEntity
  8
DIBUJOS
 62
     7
370
    18
  0
POLYLINE
  5
483
330
446
100
AcDbEntity
  8
DIBUJOS
 62
     7
370
    18
100
AcDb2dPolyline
 66
     1
 10
0.0
 20
0.0
 30
0.0
  0
VERTEX
  5
484
330
483
100
AcDbEntity
  8
DIBUJOS
 62
     7
370
    18
100
AcDbVertex
100
AcDb2dVertex
 10
62.53003359888722
 20
33.06076033735896
 30
0.0
  0
VERTEX
  5
485
330
483
100
AcDbEntity
  8
DIBUJOS
 62
     7
370
    18
100
AcDbVertex
100
AcDb2dVertex
 10
62.5412583493826
 20
33.07195810868055
 30
0.0
  0
SEQEND
  5
486
330
483
100
AcDbEntity
  8
DIBUJOS
 62
     7
370
    18
  0
POLYLINE
  5
487
330
446
100
AcDbEntity
  8
DIBUJOS
 62
     7
370
    18
100
AcDb2dPolyline
 66
     1
 10
0.0
 20
0.0
 30
0.0
  0
VERTEX
  5
488
330
487
100
AcDbEntity
  8
DIBUJOS
 62
     7
370
    18
100
AcDbVertex
100
AcDb2dVertex
 10
61.89023566018611
 20
29.30398189703837
 30
0.0
  0
VERTEX
  5
489
330
487
100
AcDbEntity
  8
DIBUJOS
 62
     7
370
    18
100
AcDbVertex
100
AcDb2dVertex
 10
61.86217453921444
 20
30.93882411165292
 30
0.0
  0
VERTEX
  5
48A
330
487
100
AcDbEntity
  8
DIBUJOS
 62
     7
370
    18
100
AcDbVertex
100
AcDb2dVertex
 10
61.87645660299107
 20
31.50451273449752
 30
0.0
  0
VERTEX
  5
48B
330
487
100
AcDbEntity
  8
DIBUJOS
 62
     7
370
    18
100
AcDbVertex
100
AcDb2dVertex
 10
61.89273634306106
 20
31.68881108276105
 30
0.0
  0
VERTEX
  5
48C
330
487
100
AcDbEntity
  8
DIBUJOS
 62
     7
370
    18
100
AcDbVertex
100
AcDb2dVertex
 10
61.91631647596414
 20
31.82392573325061
 30
0.0
  0
VERTEX
  5
48D
330
487
100
AcDbEntity
  8
DIBUJOS
 62
     7
370
    18
100
AcDbVertex
100
AcDb2dVertex
 10
61.93168007942035
 20
31.89578525700455
 30
0.0
  0
VERTEX
  5
48E
330
487
100
AcDbEntity
  8
DIBUJOS
 62
     7
370
    18
100
AcDbVertex
100
AcDb2dVertex
 10
61.98396028760324
 20
32.10393029227743
 30
0.0
  0
VERTEX
  5
48F
330
487
100
AcDbEntity
  8
DIBUJOS
 62
     7
370
    18
100
AcDbVertex
100
AcDb2dVertex
 10
62.00416438533456
 20
32.15879801554344
 30
0.0
  0
VERTEX
  5
490
330
487
100
AcDbEntity
  8
DIBUJOS
 62
     7
370
    18
100
AcDbVertex
100
AcDb2dVertex
 10
62.10220686355046
 20
32.41216360250358
 30
0.0
  0
VERTEX
  5
491
330
487
100
AcDbEntity
  8
DIBUJOS
 62
     7
370
    18
100
AcDbVertex
100
AcDb2dVertex
 10
62.12146083773708
 20
32.44993404230652
 30
0.0
  0
VERTEX
  5
492
330
487
100
AcDbEntity
  8
DIBUJOS
 62
     7
370
    18
100
AcDbVertex
100
AcDb2dVertex
 10
62.27618671989491
 20
32.73129481102125
 30
0.0
  0
VERTEX
  5
493
330
487
100
AcDbEntity
  8
DIBUJOS
 62
     7
370
    18
100
AcDbVertex
100
AcDb2dVertex
 10
62.44158449846687
 20
32.95897529339599
 30
0.0
  0
VERTEX
  5
494
330
487
100
AcDbEntity
  8
DIBUJOS
 62
     7
370
    18
100
AcDbVertex
100
AcDb2dVertex
 10
62.50758485316277
 20
33.03836479471512
 30
0.0
  0
VERTEX
  5
495
330
487
100
AcDbEntity
  8
DIBUJOS
 62
     7
370
    18
100
AcDbVertex
100
AcDb2dVertex
 10
62.50758485316277
 20
33.09995178353459
 30
0.0
  0
VERTEX
  5
496
330
487
100
AcDbEntity
  8
DIBUJOS
 62
     7
370
    18
100
AcDbVertex
100
AcDb2dVertex
 10
62.49636010266835
 20
33.17833467588583
 30
0.0
  0
VERTEX
  5
497
330
487
100
AcDbEntity
  8
DIBUJOS
 62
     7
370
    18
100
AcDbVertex
100
AcDb2dVertex
 10
62.49636010266835
 20
33.43027925647392
 30
0.0
  0
VERTEX
  5
498
330
487
100
AcDbEntity
  8
DIBUJOS
 62
     7
370
    18
100
AcDbVertex
100
AcDb2dVertex
 10
62.53806357784477
 20
33.79949679565824
 30
0.0
  0
VERTEX
  5
499
330
487
100
AcDbEntity
  8
DIBUJOS
 62
     7
370
    18
100
AcDbVertex
100
AcDb2dVertex
 10
62.54928832833951
 20
33.89467709844249
 30
0.0
  0
VERTEX
  5
49A
330
487
100
AcDbEntity
  8
DIBUJOS
 62
     7
370
    18
100
AcDbVertex
100
AcDb2dVertex
 10
62.57380952160555
 20
34.06350109416892
 30
0.0
  0
VERTEX
  5
49B
330
487
100
AcDbEntity
  8
DIBUJOS
 62
     7
370
    18
100
AcDbVertex
100
AcDb2dVertex
 10
62.59608606687878
 20
34.09739578806436
 30
0.0
  0
VERTEX
  5
49C
330
487
100
AcDbEntity
  8
DIBUJOS
 62
     7
370
    18
100
AcDbVertex
100
AcDb2dVertex
 10
62.62069336037044
 20
34.11763646420411
 30
0.0
  0
VERTEX
  5
49D
330
487
100
AcDbEntity
  8
DIBUJOS
 62
     7
370
    18
100
AcDbVertex
100
AcDb2dVertex
 10
62.65300813460505
 20
34.1321027008734
 30
0.0
  0
VERTEX
  5
49E
330
487
100
AcDbEntity
  8
DIBUJOS
 62
     7
370
    18
100
AcDbVertex
100
AcDb2dVertex
 10
62.70962658574518
 20
34.13572528763899
 30
0.0
  0
VERTEX
  5
49F
330
487
100
AcDbEntity
  8
DIBUJOS
 62
     7
370
    18
100
AcDbVertex
100
AcDb2dVertex
 10
62.74416335001813
 20
34.12022079710908
 30
0.0
  0
VERTEX
  5
4A0
330
487
100
AcDbEntity
  8
DIBUJOS
 62
     7
370
    18
100
AcDbVertex
100
AcDb2dVertex
 10
62.78258595343206
 20
34.09093570925253
 30
0.0
  0
VERTEX
  5
4A1
330
487
100
AcDbEntity
  8
DIBUJOS
 62
     7
370
    18
100
AcDbVertex
100
AcDb2dVertex
 10
62.7894928531277
 20
34.07500024542117
 30
0.0
  0
VERTEX
  5
4A2
330
487
100
AcDbEntity
  8
DIBUJOS
 62
     7
370
    18
100
AcDbVertex
100
AcDb2dVertex
 10
62.8081833995207
 20
34.01227856116358
 30
0.0
  0
VERTEX
  5
4A3
330
487
100
AcDbEntity
  8
DIBUJOS
 62
     7
370
    18
100
AcDbVertex
100
AcDb2dVertex
 10
62.87799406684308
 20
33.39668744940842
 30
0.0
  0
SEQEND
  5
4A4
330
487
100
AcDbEntity
  8
DIBUJOS
 62
     7
370
    18
  0
POLYLINE
  5
4A5
330
446
100
AcDbEntity
  8
DIBUJOS
 62
     7
370
    18
100
AcDb2dPolyline
 66
     1
 10
0.0
 20
0.0
 30
0.0
  0
VERTEX
  5
4A6
330
4A5
100
AcDbEntity
  8
DIBUJOS
 62
     7
370
    18
100
AcDbVertex
100
AcDb2dVertex
 10
61.89023566018611
 20
29.29838376482817
 30
0.0
  0
VERTEX
  5
4A7
330
4A5
100
AcDbEntity
  8
DIBUJOS
 62
     7
370
    18
100
AcDbVertex
100
AcDb2dVertex
 10
61.8846232849389
 20
29.29838376482817
 30
0.0
  0
SEQEND
  5
4A8
330
4A5
100
AcDbEntity
  8
DIBUJOS
 62
     7
370
    18
  0
POLYLINE
  5
4A9
330
446
100
AcDbEntity
  8
DIBUJOS
 62
     7
370
    18
100
AcDb2dPolyline
 66
     1
 10
0.0
 20
0.0
 30
0.0
  0
VERTEX
  5
4AA
330
4A9
100
AcDbEntity
  8
DIBUJOS
 62
     7
370
    18
100
AcDbVertex
100
AcDb2dVertex
 10
61.89023566018611
 20
29.29838376482817
 30
0.0
  0
VERTEX
  5
4AB
330
4A9
100
AcDbEntity
  8
DIBUJOS
 62
     7
370
    18
100
AcDbVertex
100
AcDb2dVertex
 10
61.89023566018611
 20
29.30398189703837
 30
0.0
  0
SEQEND
  5
4AC
330
4A9
100
AcDbEntity
  8
DIBUJOS
 62
     7
370
    18
  0
POLYLINE
  5
4AD
330
446
100
AcDbEntity
  8
DIBUJOS
 62
     7
370
    18
100
AcDb2dPolyline
 66
     1
 10
0.0
 20
0.0
 30
0.0
  0
VERTEX
  5
4AE
330
4AD
100
AcDbEntity
  8
DIBUJOS
 62
     7
370
    18
100
AcDbVertex
100
AcDb2dVertex
 10
61.89023566018611
 20
29.29278487916641
 30
0.0
  0
VERTEX
  5
4AF
330
4AD
100
AcDbEntity
  8
DIBUJOS
 62
     7
370
    18
100
AcDbVertex
100
AcDb2dVertex
 10
61.89023566018611
 20
29.29838376482817
 30
0.0
  0
SEQEND
  5
4B0
330
4AD
100
AcDbEntity
  8
DIBUJOS
 62
     7
370
    18
  0
POLYLINE
  5
4B1
330
446
100
AcDbEntity
  8
DIBUJOS
 62
     7
370
    18
100
AcDb2dPolyline
 66
     1
 10
0.0
 20
0.0
 30
0.0
  0
VERTEX
  5
4B2
330
4B1
100
AcDbEntity
  8
DIBUJOS
 62
     7
370
    18
100
AcDbVertex
100
AcDb2dVertex
 10
67.97954271650605
 20
29.27598822218434
 30
0.0
  0
VERTEX
  5
4B3
330
4B1
100
AcDbEntity
  8
DIBUJOS
 62
     7
370
    18
100
AcDbVertex
100
AcDb2dVertex
 10
67.97393109652417
 20
29.28158710784546
 30
0.0
  0
VERTEX
  5
4B4
330
4B1
100
AcDbEntity
  8
DIBUJOS
 62
     7
370
    18
100
AcDbVertex
100
AcDb2dVertex
 10
67.99353173740957
 20
30.49088236734405
 30
0.0
  0
VERTEX
  5
4B5
330
4B1
100
AcDbEntity
  8
DIBUJOS
 62
     7
370
    18
100
AcDbVertex
100
AcDb2dVertex
 10
67.9963790869833
 20
30.49652118584655
 30
0.0
  0
VERTEX
  5
4B6
330
4B1
100
AcDbEntity
  8
DIBUJOS
 62
     7
370
    18
100
AcDbVertex
100
AcDb2dVertex
 10
67.99350454786503
 20
31.17963722450347
 30
0.0
  0
VERTEX
  5
4B7
330
4B1
100
AcDbEntity
  8
DIBUJOS
 62
     7
370
    18
100
AcDbVertex
100
AcDb2dVertex
 10
67.9880288756078
 20
31.40905666907756
 30
0.0
  0
VERTEX
  5
4B8
330
4B1
100
AcDbEntity
  8
DIBUJOS
 62
     7
370
    18
100
AcDbVertex
100
AcDb2dVertex
 10
67.94388815982788
 20
31.77254798958016
 30
0.0
  0
VERTEX
  5
4B9
330
4B1
100
AcDbEntity
  8
DIBUJOS
 62
     7
370
    18
100
AcDbVertex
100
AcDb2dVertex
 10
67.94241539280652
 20
31.77907135817875
 30
0.0
  0
VERTEX
  5
4BA
330
4B1
100
AcDbEntity
  8
DIBUJOS
 62
     7
370
    18
100
AcDbVertex
100
AcDb2dVertex
 10
67.86561399135823
 20
32.09721102672462
 30
0.0
  0
VERTEX
  5
4BB
330
4B1
100
AcDbEntity
  8
DIBUJOS
 62
     7
370
    18
100
AcDbVertex
100
AcDb2dVertex
 10
67.75056294221386
 20
32.40066445125133
 30
0.0
  0
VERTEX
  5
4BC
330
4B1
100
AcDbEntity
  8
DIBUJOS
 62
     7
370
    18
100
AcDbVertex
100
AcDb2dVertex
 10
67.57972498884656
 20
32.71822697723021
 30
0.0
  0
VERTEX
  5
4BD
330
4B1
100
AcDbEntity
  8
DIBUJOS
 62
     7
370
    18
100
AcDbVertex
100
AcDb2dVertex
 10
67.4364481709294
 20
32.91605427057841
 30
0.0
  0
VERTEX
  5
4BE
330
4B1
100
AcDbEntity
  8
DIBUJOS
 62
     7
370
    18
100
AcDbVertex
100
AcDb2dVertex
 10
67.36640790300474
 20
33.00908422755836
 30
0.0
  0
VERTEX
  5
4BF
330
4B1
100
AcDbEntity
  8
DIBUJOS
 62
     7
370
    18
100
AcDbVertex
100
AcDb2dVertex
 10
67.30045815107287
 20
33.07755624089075
 30
0.0
  0
VERTEX
  5
4C0
330
4B1
100
AcDbEntity
  8
DIBUJOS
 62
     7
370
    18
100
AcDbVertex
100
AcDb2dVertex
 10
67.31168290156793
 20
33.17833467588583
 30
0.0
  0
VERTEX
  5
4C1
330
4B1
100
AcDbEntity
  8
DIBUJOS
 62
     7
370
    18
100
AcDbVertex
100
AcDb2dVertex
 10
67.31168290156793
 20
33.43027925647392
 30
0.0
  0
VERTEX
  5
4C2
330
4B1
100
AcDbEntity
  8
DIBUJOS
 62
     7
370
    18
100
AcDbVertex
100
AcDb2dVertex
 10
67.28681655213346
 20
33.65952842138746
 30
0.0
  0
VERTEX
  5
4C3
330
4B1
100
AcDbEntity
  8
DIBUJOS
 62
     7
370
    18
100
AcDbVertex
100
AcDb2dVertex
 10
67.26998018165621
 20
33.79949679565824
 30
0.0
  0
VERTEX
  5
4C4
330
4B1
100
AcDbEntity
  8
DIBUJOS
 62
     7
370
    18
100
AcDbVertex
100
AcDb2dVertex
 10
67.23423348263074
 20
34.06350109416892
 30
0.0
  0
VERTEX
  5
4C5
330
4B1
100
AcDbEntity
  8
DIBUJOS
 62
     7
370
    18
100
AcDbVertex
100
AcDb2dVertex
 10
67.22188640813847
 20
34.08533607014113
 30
0.0
  0
VERTEX
  5
4C6
330
4B1
100
AcDbEntity
  8
DIBUJOS
 62
     7
370
    18
100
AcDbVertex
100
AcDb2dVertex
 10
67.17642699942658
 20
34.12340788987535
 30
0.0
  0
VERTEX
  5
4C7
330
4B1
100
AcDbEntity
  8
DIBUJOS
 62
     7
370
    18
100
AcDbVertex
100
AcDb2dVertex
 10
67.14892779571724
 20
34.13572528763899
 30
0.0
  0
VERTEX
  5
4C8
330
4B1
100
AcDbEntity
  8
DIBUJOS
 62
     7
370
    18
100
AcDbVertex
100
AcDb2dVertex
 10
67.0866320165281
 20
34.13180584164189
 30
0.0
  0
VERTEX
  5
4C9
330
4B1
100
AcDbEntity
  8
DIBUJOS
 62
     7
370
    18
100
AcDbVertex
100
AcDb2dVertex
 10
67.06560694559003
 20
34.12323610331487
 30
0.0
  0
VERTEX
  5
4CA
330
4B1
100
AcDbEntity
  8
DIBUJOS
 62
     7
370
    18
100
AcDbVertex
100
AcDb2dVertex
 10
67.02545705080422
 20
34.09093570925253
 30
0.0
  0
VERTEX
  5
4CB
330
4B1
100
AcDbEntity
  8
DIBUJOS
 62
     7
370
    18
100
AcDbVertex
100
AcDb2dVertex
 10
67.01030492158684
 20
34.06238146772688
 30
0.0
  0
VERTEX
  5
4CC
330
4B1
100
AcDbEntity
  8
DIBUJOS
 62
     7
370
    18
100
AcDbVertex
100
AcDb2dVertex
 10
66.99420115829473
 20
33.96186221947213
 30
0.0
  0
VERTEX
  5
4CD
330
4B1
100
AcDbEntity
  8
DIBUJOS
 62
     7
370
    18
100
AcDbVertex
100
AcDb2dVertex
 10
66.93566206790543
 20
33.43027925647392
 30
0.0
  0
SEQEND
  5
4CE
330
4B1
100
AcDbEntity
  8
DIBUJOS
 62
     7
370
    18
  0
POLYLINE
  5
4CF
330
446
100
AcDbEntity
  8
DIBUJOS
 62
     7
370
    18
100
AcDb2dPolyline
 66
     1
 10
0.0
 20
0.0
 30
0.0
  0
VERTEX
  5
4D0
330
4CF
100
AcDbEntity
  8
DIBUJOS
 62
     7
370
    18
100
AcDbVertex
100
AcDb2dVertex
 10
61.74992930006085
 20
29.10802541960925
 30
0.0
  0
VERTEX
  5
4D1
330
4CF
100
AcDbEntity
  8
DIBUJOS
 62
     7
370
    18
100
AcDbVertex
100
AcDb2dVertex
 10
61.74992930006085
 20
29.16401276931795
 30
0.0
  0
SEQEND
  5
4D2
330
4CF
100
AcDbEntity
  8
DIBUJOS
 62
     7
370
    18
  0
POLYLINE
  5
4D3
330
446
100
AcDbEntity
  8
DIBUJOS
 62
     7
370
    18
100
AcDb2dPolyline
 66
     1
 10
0.0
 20
0.0
 30
0.0
  0
VERTEX
  5
4D4
330
4D3
100
AcDbEntity
  8
DIBUJOS
 62
     7
370
    18
100
AcDbVertex
100
AcDb2dVertex
 10
68.05811445944013
 20
29.10242653394877
 30
0.0
  0
VERTEX
  5
4D5
330
4D3
100
AcDbEntity
  8
DIBUJOS
 62
     7
370
    18
100
AcDbVertex
100
AcDb2dVertex
 10
68.05811445944013
 20
29.15841388365747
 30
0.0
  0
VERTEX
  5
4D6
330
4D3
100
AcDbEntity
  8
DIBUJOS
 62
     7
370
    18
100
AcDbVertex
100
AcDb2dVertex
 10
68.05250283945826
 20
29.16401276931795
 30
0.0
  0
SEQEND
  5
4D7
330
4D3
100
AcDbEntity
  8
DIBUJOS
 62
     7
370
    18
  0
POLYLINE
  5
4D8
330
446
100
AcDbEntity
  8
DIBUJOS
 62
     7
370
    18
100
AcDb2dPolyline
 66
     1
 10
0.0
 20
0.0
 30
0.0
  0
VERTEX
  5
4D9
330
4D8
100
AcDbEntity
  8
DIBUJOS
 62
     7
370
    18
100
AcDbVertex
100
AcDb2dVertex
 10
67.96831796601163
 20
29.00164809895433
 30
0.0
  0
VERTEX
  5
4DA
330
4D8
100
AcDbEntity
  8
DIBUJOS
 62
     7
370
    18
100
AcDbVertex
100
AcDb2dVertex
 10
67.97105655740526
 20
29.23113309366283
 30
0.0
  0
VERTEX
  5
4DB
330
4D8
100
AcDbEntity
  8
DIBUJOS
 62
     7
370
    18
100
AcDbVertex
100
AcDb2dVertex
 10
67.97628752375776
 20
29.2700540513509
 30
0.0
  0
VERTEX
  5
4DC
330
4D8
100
AcDbEntity
  8
DIBUJOS
 62
     7
370
    18
100
AcDbVertex
100
AcDb2dVertex
 10
67.97954271650605
 20
29.27598822218434
 30
0.0
  0
SEQEND
  5
4DD
330
4D8
100
AcDbEntity
  8
DIBUJOS
 62
     7
370
    18
  0
POLYLINE
  5
4DE
330
446
100
AcDbEntity
  8
DIBUJOS
 62
     7
370
    18
100
AcDb2dPolyline
 66
     1
 10
0.0
 20
0.0
 30
0.0
  0
VERTEX
  5
4DF
330
4DE
100
AcDbEntity
  8
DIBUJOS
 62
     7
370
    18
100
AcDbVertex
100
AcDb2dVertex
 10
61.90146041068085
 20
28.9792533097595
 30
0.0
  0
VERTEX
  5
4E0
330
4DE
100
AcDbEntity
  8
DIBUJOS
 62
     7
370
    18
100
AcDbVertex
100
AcDb2dVertex
 10
61.89023566018611
 20
29.29278487916641
 30
0.0
  0
SEQEND
  5
4E1
330
4DE
100
AcDbEntity
  8
DIBUJOS
 62
     7
370
    18
  0
POLYLINE
  5
4E2
330
446
100
AcDbEntity
  8
DIBUJOS
 62
     7
370
    18
100
AcDb2dPolyline
 66
     1
 10
0.0
 20
0.0
 30
0.0
  0
VERTEX
  5
4E3
330
4E2
100
AcDbEntity
  8
DIBUJOS
 62
     7
370
    18
100
AcDbVertex
100
AcDb2dVertex
 10
61.89584803543364
 20
28.90646930306938
 30
0.0
  0
VERTEX
  5
4E4
330
4E2
100
AcDbEntity
  8
DIBUJOS
 62
     7
370
    18
100
AcDbVertex
100
AcDb2dVertex
 10
61.90146041068085
 20
28.91206818873049
 30
0.0
  0
VERTEX
  5
4E5
330
4E2
100
AcDbEntity
  8
DIBUJOS
 62
     7
370
    18
100
AcDbVertex
100
AcDb2dVertex
 10
61.90146041068085
 20
28.95685852056724
 30
0.0
  0
SEQEND
  5
4E6
330
4E2
100
AcDbEntity
  8
DIBUJOS
 62
     7
370
    18
  0
POLYLINE
  5
4E7
330
446
100
AcDbEntity
  8
DIBUJOS
 62
     7
370
    18
100
AcDb2dPolyline
 66
     1
 10
0.0
 20
0.0
 30
0.0
  0
VERTEX
  5
4E8
330
4E7
100
AcDbEntity
  8
DIBUJOS
 62
     7
370
    18
100
AcDbVertex
100
AcDb2dVertex
 10
61.89023566018611
 20
28.90087041740826
 30
0.0
  0
VERTEX
  5
4E9
330
4E7
100
AcDbEntity
  8
DIBUJOS
 62
     7
370
    18
100
AcDbVertex
100
AcDb2dVertex
 10
61.84583286740302
 20
28.90844484851397
 30
0.0
  0
VERTEX
  5
4EA
330
4E7
100
AcDbEntity
  8
DIBUJOS
 62
     7
370
    18
100
AcDbVertex
100
AcDb2dVertex
 10
61.81813956055394
 20
28.92455737305461
 30
0.0
  0
VERTEX
  5
4EB
330
4E7
100
AcDbEntity
  8
DIBUJOS
 62
     7
370
    18
100
AcDbVertex
100
AcDb2dVertex
 10
61.7667656705381
 20
28.96805553843855
 30
0.0
  0
VERTEX
  5
4EC
330
4E7
100
AcDbEntity
  8
DIBUJOS
 62
     7
370
    18
100
AcDbVertex
100
AcDb2dVertex
 10
61.74561220452645
 20
29.00250929210504
 30
0.0
  0
VERTEX
  5
4ED
330
4E7
100
AcDbEntity
  8
DIBUJOS
 62
     7
370
    18
100
AcDbVertex
100
AcDb2dVertex
 10
61.74038803556064
 20
29.01340568349663
 30
0.0
  0
VERTEX
  5
4EE
330
4E7
100
AcDbEntity
  8
DIBUJOS
 62
     7
370
    18
100
AcDbVertex
100
AcDb2dVertex
 10
61.72369667599008
 20
29.07207380768716
 30
0.0
  0
VERTEX
  5
4EF
330
4E7
100
AcDbEntity
  8
DIBUJOS
 62
     7
370
    18
100
AcDbVertex
100
AcDb2dVertex
 10
61.69743761763946
 20
29.1187289278452
 30
0.0
  0
VERTEX
  5
4F0
330
4E7
100
AcDbEntity
  8
DIBUJOS
 62
     7
370
    18
100
AcDbVertex
100
AcDb2dVertex
 10
61.69380630285122
 20
29.1416179801244
 30
0.0
  0
VERTEX
  5
4F1
330
4E7
100
AcDbEntity
  8
DIBUJOS
 62
     7
370
    18
100
AcDbVertex
100
AcDb2dVertex
 10
61.69726013033187
 20
29.14764708563541
 30
0.0
  0
VERTEX
  5
4F2
330
4E7
100
AcDbEntity
  8
DIBUJOS
 62
     7
370
    18
100
AcDbVertex
100
AcDb2dVertex
 10
61.69941867809875
 20
29.16961165497843
 30
0.0
  0
VERTEX
  5
4F3
330
4E7
100
AcDbEntity
  8
DIBUJOS
 62
     7
370
    18
100
AcDbVertex
100
AcDb2dVertex
 10
61.72186742382353
 20
29.19200644417133
 30
0.0
  0
VERTEX
  5
4F4
330
4E7
100
AcDbEntity
  8
DIBUJOS
 62
     7
370
    18
100
AcDbVertex
100
AcDb2dVertex
 10
61.74431692481332
 20
29.19200644417133
 30
0.0
  0
VERTEX
  5
4F5
330
4E7
100
AcDbEntity
  8
DIBUJOS
 62
     7
370
    18
100
AcDbVertex
100
AcDb2dVertex
 10
61.75683619975617
 20
29.2079419080027
 30
0.0
  0
VERTEX
  5
4F6
330
4E7
100
AcDbEntity
  8
DIBUJOS
 62
     7
370
    18
100
AcDbVertex
100
AcDb2dVertex
 10
61.77669514131938
 20
29.23765872260971
 30
0.0
  0
VERTEX
  5
4F7
330
4E7
100
AcDbEntity
  8
DIBUJOS
 62
     7
370
    18
100
AcDbVertex
100
AcDb2dVertex
 10
61.80130319007637
 20
29.25790015219974
 30
0.0
  0
VERTEX
  5
4F8
330
4E7
100
AcDbEntity
  8
DIBUJOS
 62
     7
370
    18
100
AcDbVertex
100
AcDb2dVertex
 10
61.82202539969365
 20
29.27168150297603
 30
0.0
  0
VERTEX
  5
4F9
330
4E7
100
AcDbEntity
  8
DIBUJOS
 62
     7
370
    18
100
AcDbVertex
100
AcDb2dVertex
 10
61.85207211271596
 20
29.28942524639065
 30
0.0
  0
VERTEX
  5
4FA
330
4E7
100
AcDbEntity
  8
DIBUJOS
 62
     7
370
    18
100
AcDbVertex
100
AcDb2dVertex
 10
61.8846232849389
 20
29.29838376482817
 30
0.0
  0
SEQEND
  5
4FB
330
4E7
100
AcDbEntity
  8
DIBUJOS
 62
     7
370
    18
  0
POLYLINE
  5
4FC
330
446
100
AcDbEntity
  8
DIBUJOS
 62
     7
370
    18
100
AcDb2dPolyline
 66
     1
 10
0.0
 20
0.0
 30
0.0
  0
VERTEX
  5
4FD
330
4FC
100
AcDbEntity
  8
DIBUJOS
 62
     7
370
    18
100
AcDbVertex
100
AcDb2dVertex
 10
61.89584803543364
 20
28.90087041740826
 30
0.0
  0
VERTEX
  5
4FE
330
4FC
100
AcDbEntity
  8
DIBUJOS
 62
     7
370
    18
100
AcDbVertex
100
AcDb2dVertex
 10
61.89023566018611
 20
28.90087041740826
 30
0.0
  0
SEQEND
  5
4FF
330
4FC
100
AcDbEntity
  8
DIBUJOS
 62
     7
370
    18
  0
POLYLINE
  5
500
330
446
100
AcDbEntity
  8
DIBUJOS
 62
     7
370
    18
100
AcDb2dPolyline
 66
     1
 10
0.0
 20
0.0
 30
0.0
  0
VERTEX
  5
501
330
500
100
AcDbEntity
  8
DIBUJOS
 62
     7
370
    18
100
AcDbVertex
100
AcDb2dVertex
 10
61.89584803543364
 20
28.90087041740826
 30
0.0
  0
VERTEX
  5
502
330
500
100
AcDbEntity
  8
DIBUJOS
 62
     7
370
    18
100
AcDbVertex
100
AcDb2dVertex
 10
61.89584803543364
 20
28.90646930306938
 30
0.0
  0
SEQEND
  5
503
330
500
100
AcDbEntity
  8
DIBUJOS
 62
     7
370
    18
  0
POLYLINE
  5
504
330
446
100
AcDbEntity
  8
DIBUJOS
 62
     7
370
    18
100
AcDb2dPolyline
 66
     1
 10
0.0
 20
0.0
 30
0.0
  0
VERTEX
  5
505
330
504
100
AcDbEntity
  8
DIBUJOS
 62
     7
370
    18
100
AcDbVertex
100
AcDb2dVertex
 10
61.89584803543364
 20
28.89527153174778
 30
0.0
  0
VERTEX
  5
506
330
504
100
AcDbEntity
  8
DIBUJOS
 62
     7
370
    18
100
AcDbVertex
100
AcDb2dVertex
 10
61.89584803543364
 20
28.90087041740826
 30
0.0
  0
SEQEND
  5
507
330
504
100
AcDbEntity
  8
DIBUJOS
 62
     7
370
    18
  0
POLYLINE
  5
508
330
446
100
AcDbEntity
  8
DIBUJOS
 62
     7
370
    18
100
AcDb2dPolyline
 66
     1
 10
0.0
 20
0.0
 30
0.0
  0
VERTEX
  5
509
330
508
100
AcDbEntity
  8
DIBUJOS
 62
     7
370
    18
100
AcDbVertex
100
AcDb2dVertex
 10
67.54739813036954
 20
28.73290686138353
 30
0.0
  0
VERTEX
  5
50A
330
508
100
AcDbEntity
  8
DIBUJOS
 62
     7
370
    18
100
AcDbVertex
100
AcDb2dVertex
 10
67.54178651038735
 20
28.73290686138353
 30
0.0
  0
SEQEND
  5
50B
330
508
100
AcDbEntity
  8
DIBUJOS
 62
     7
370
    18
  0
POLYLINE
  5
50C
330
446
100
AcDbEntity
  8
DIBUJOS
 62
     7
370
    18
100
AcDb2dPolyline
 66
     1
 10
0.0
 20
0.0
 30
0.0
  0
VERTEX
  5
50D
330
50C
100
AcDbEntity
  8
DIBUJOS
 62
     7
370
    18
100
AcDbVertex
100
AcDb2dVertex
 10
67.54739813036954
 20
28.73290686138353
 30
0.0
  0
VERTEX
  5
50E
330
50C
100
AcDbEntity
  8
DIBUJOS
 62
     7
370
    18
100
AcDbVertex
100
AcDb2dVertex
 10
67.54739813036954
 20
28.73850574704464
 30
0.0
  0
SEQEND
  5
50F
330
50C
100
AcDbEntity
  8
DIBUJOS
 62
     7
370
    18
  0
POLYLINE
  5
510
330
446
100
AcDbEntity
  8
DIBUJOS
 62
     7
370
    18
100
AcDb2dPolyline
 66
     1
 10
0.0
 20
0.0
 30
0.0
  0
VERTEX
  5
511
330
510
100
AcDbEntity
  8
DIBUJOS
 62
     7
370
    18
100
AcDbVertex
100
AcDb2dVertex
 10
67.54739813036954
 20
28.72730872917269
 30
0.0
  0
VERTEX
  5
512
330
510
100
AcDbEntity
  8
DIBUJOS
 62
     7
370
    18
100
AcDbVertex
100
AcDb2dVertex
 10
67.54739813036954
 20
28.73290686138353
 30
0.0
  0
SEQEND
  5
513
330
510
100
AcDbEntity
  8
DIBUJOS
 62
     7
370
    18
  0
POLYLINE
  5
514
330
446
100
AcDbEntity
  8
DIBUJOS
 62
     7
370
    18
100
AcDb2dPolyline
 66
     1
 10
0.0
 20
0.0
 30
0.0
  0
VERTEX
  5
515
330
514
100
AcDbEntity
  8
DIBUJOS
 62
     7
370
    18
100
AcDbVertex
100
AcDb2dVertex
 10
62.31115549582788
 20
28.69931430086902
 30
0.0
  0
VERTEX
  5
516
330
514
100
AcDbEntity
  8
DIBUJOS
 62
     7
370
    18
100
AcDbVertex
100
AcDb2dVertex
 10
62.31951174932507
 20
28.98479267288465
 30
0.0
  0
VERTEX
  5
517
330
514
100
AcDbEntity
  8
DIBUJOS
 62
     7
370
    18
100
AcDbVertex
100
AcDb2dVertex
 10
62.31958803110459
 20
29.79108947022792
 30
0.0
  0
VERTEX
  5
518
330
514
100
AcDbEntity
  8
DIBUJOS
 62
     7
370
    18
100
AcDbVertex
100
AcDb2dVertex
 10
62.3251724615416
 20
30.93881054955613
 30
0.0
  0
VERTEX
  5
519
330
514
100
AcDbEntity
  8
DIBUJOS
 62
     7
370
    18
100
AcDbVertex
100
AcDb2dVertex
 10
62.3307463182675
 20
31.24670782115904
 30
0.0
  0
VERTEX
  5
51A
330
514
100
AcDbEntity
  8
DIBUJOS
 62
     7
370
    18
100
AcDbVertex
100
AcDb2dVertex
 10
62.35851741742579
 20
31.53202118766418
 30
0.0
  0
VERTEX
  5
51B
330
514
100
AcDbEntity
  8
DIBUJOS
 62
     7
370
    18
100
AcDbVertex
100
AcDb2dVertex
 10
62.41580805453935
 20
31.77353651575339
 30
0.0
  0
VERTEX
  5
51C
330
514
100
AcDbEntity
  8
DIBUJOS
 62
     7
370
    18
100
AcDbVertex
100
AcDb2dVertex
 10
62.49187080668208
 20
31.97963668819647
 30
0.0
  0
VERTEX
  5
51D
330
514
100
AcDbEntity
  8
DIBUJOS
 62
     7
370
    18
100
AcDbVertex
100
AcDb2dVertex
 10
62.50590136716855
 20
32.0143496286033
 30
0.0
  0
VERTEX
  5
51E
330
514
100
AcDbEntity
  8
DIBUJOS
 62
     7
370
    18
100
AcDbVertex
100
AcDb2dVertex
 10
62.53694125384852
 20
32.08571187547173
 30
0.0
  0
VERTEX
  5
51F
330
514
100
AcDbEntity
  8
DIBUJOS
 62
     7
370
    18
100
AcDbVertex
100
AcDb2dVertex
 10
62.5569731511283
 20
32.12072619580921
 30
0.0
  0
VERTEX
  5
520
330
514
100
AcDbEntity
  8
DIBUJOS
 62
     7
370
    18
100
AcDbVertex
100
AcDb2dVertex
 10
62.68291210251569
 20
32.33751028679301
 30
0.0
  0
VERTEX
  5
521
330
514
100
AcDbEntity
  8
DIBUJOS
 62
     7
370
    18
100
AcDbVertex
100
AcDb2dVertex
 10
62.71389156798489
 20
32.37871796470426
 30
0.0
  0
VERTEX
  5
522
330
514
100
AcDbEntity
  8
DIBUJOS
 62
     7
370
    18
100
AcDbVertex
100
AcDb2dVertex
 10
62.84010770167824
 20
32.54436993666179
 30
0.0
  0
VERTEX
  5
523
330
514
100
AcDbEntity
  8
DIBUJOS
 62
     7
370
    18
100
AcDbVertex
100
AcDb2dVertex
 10
63.0856481746727
 20
32.79761798544991
 30
0.0
  0
VERTEX
  5
524
330
514
100
AcDbEntity
  8
DIBUJOS
 62
     7
370
    18
100
AcDbVertex
100
AcDb2dVertex
 10
63.13155621087805
 20
32.82986714492428
 30
0.0
  0
VERTEX
  5
525
330
514
100
AcDbEntity
  8
DIBUJOS
 62
     7
370
    18
100
AcDbVertex
100
AcDb2dVertex
 10
63.3657004881906
 20
33.0058926140923
 30
0.0
  0
VERTEX
  5
526
330
514
100
AcDbEntity
  8
DIBUJOS
 62
     7
370
    18
100
AcDbVertex
100
AcDb2dVertex
 10
63.73162040588496
 20
33.20464815762747
 30
0.0
  0
VERTEX
  5
527
330
514
100
AcDbEntity
  8
DIBUJOS
 62
     7
370
    18
100
AcDbVertex
100
AcDb2dVertex
 10
64.06274374809759
 20
33.33342026747594
 30
0.0
  0
VERTEX
  5
528
330
514
100
AcDbEntity
  8
DIBUJOS
 62
     7
370
    18
100
AcDbVertex
100
AcDb2dVertex
 10
64.50015102172247
 20
33.43333072827095
 30
0.0
  0
VERTEX
  5
529
330
514
100
AcDbEntity
  8
DIBUJOS
 62
     7
370
    18
100
AcDbVertex
100
AcDb2dVertex
 10
64.86453775118471
 20
33.4608421952362
 30
0.0
  0
VERTEX
  5
52A
330
514
100
AcDbEntity
  8
DIBUJOS
 62
     7
370
    18
100
AcDbVertex
100
AcDb2dVertex
 10
64.98279112451863
 20
33.4608421952362
 30
0.0
  0
VERTEX
  5
52B
330
514
100
AcDbEntity
  8
DIBUJOS
 62
     7
370
    18
100
AcDbVertex
100
AcDb2dVertex
 10
65.34717785398021
 20
33.43333072827095
 30
0.0
  0
VERTEX
  5
52C
330
514
100
AcDbEntity
  8
DIBUJOS
 62
     7
370
    18
100
AcDbVertex
100
AcDb2dVertex
 10
65.49849069297598
 20
33.40013222201574
 30
0.0
  0
VERTEX
  5
52D
330
514
100
AcDbEntity
  8
DIBUJOS
 62
     7
370
    18
100
AcDbVertex
100
AcDb2dVertex
 10
65.75104229225451
 20
33.34414487230705
 30
0.0
  0
VERTEX
  5
52E
330
514
100
AcDbEntity
  8
DIBUJOS
 62
     7
370
    18
100
AcDbVertex
100
AcDb2dVertex
 10
66.13815948133818
 20
33.19401095297686
 30
0.0
  0
VERTEX
  5
52F
330
514
100
AcDbEntity
  8
DIBUJOS
 62
     7
370
    18
100
AcDbVertex
100
AcDb2dVertex
 10
66.4636696930386
 20
33.01485113252982
 30
0.0
  0
VERTEX
  5
530
330
514
100
AcDbEntity
  8
DIBUJOS
 62
     7
370
    18
100
AcDbVertex
100
AcDb2dVertex
 10
66.60352818093637
 20
32.91384816948636
 30
0.0
  0
VERTEX
  5
531
330
514
100
AcDbEntity
  8
DIBUJOS
 62
     7
370
    18
100
AcDbVertex
100
AcDb2dVertex
 10
66.7626912457861
 20
32.79336250082892
 30
0.0
  0
VERTEX
  5
532
330
514
100
AcDbEntity
  8
DIBUJOS
 62
     7
370
    18
100
AcDbVertex
100
AcDb2dVertex
 10
67.00721890822942
 20
32.54433075727069
 30
0.0
  0
VERTEX
  5
533
330
514
100
AcDbEntity
  8
DIBUJOS
 62
     7
370
    18
100
AcDbVertex
100
AcDb2dVertex
 10
67.1138850038014
 20
32.40461102144331
 30
0.0
  0
VERTEX
  5
534
330
514
100
AcDbEntity
  8
DIBUJOS
 62
     7
370
    18
100
AcDbVertex
100
AcDb2dVertex
 10
67.19270296317056
 20
32.29316825760338
 30
0.0
  0
VERTEX
  5
535
330
514
100
AcDbEntity
  8
DIBUJOS
 62
     7
370
    18
100
AcDbVertex
100
AcDb2dVertex
 10
67.29596885508693
 20
32.10952842448761
 30
0.0
  0
VERTEX
  5
536
330
514
100
AcDbEntity
  8
DIBUJOS
 62
     7
370
    18
100
AcDbVertex
100
AcDb2dVertex
 10
67.34928604230545
 20
31.99643259172826
 30
0.0
  0
VERTEX
  5
537
330
514
100
AcDbEntity
  8
DIBUJOS
 62
     7
370
    18
100
AcDbVertex
100
AcDb2dVertex
 10
67.414388386752
 20
31.8295901690455
 30
0.0
  0
VERTEX
  5
538
330
514
100
AcDbEntity
  8
DIBUJOS
 62
     7
370
    18
100
AcDbVertex
100
AcDb2dVertex
 10
67.48764457363765
 20
31.54958561001932
 30
0.0
  0
VERTEX
  5
539
330
514
100
AcDbEntity
  8
DIBUJOS
 62
     7
370
    18
100
AcDbVertex
100
AcDb2dVertex
 10
67.50496431380365
 20
31.42619162503182
 30
0.0
  0
VERTEX
  5
53A
330
514
100
AcDbEntity
  8
DIBUJOS
 62
     7
370
    18
100
AcDbVertex
100
AcDb2dVertex
 10
67.52784280539247
 20
31.22428063362311
 30
0.0
  0
VERTEX
  5
53B
330
514
100
AcDbEntity
  8
DIBUJOS
 62
     7
370
    18
100
AcDbVertex
100
AcDb2dVertex
 10
67.53328071439245
 20
31.0452835583389
 30
0.0
  0
VERTEX
  5
53C
330
514
100
AcDbEntity
  8
DIBUJOS
 62
     7
370
    18
100
AcDbVertex
100
AcDb2dVertex
 10
67.54460364935585
 20
30.12699096498436
 30
0.0
  0
VERTEX
  5
53D
330
514
100
AcDbEntity
  8
DIBUJOS
 62
     7
370
    18
100
AcDbVertex
100
AcDb2dVertex
 10
67.54739813036954
 20
28.73850574704464
 30
0.0
  0
SEQEND
  5
53E
330
514
100
AcDbEntity
  8
DIBUJOS
 62
     7
370
    18
  0
POLYLINE
  5
53F
330
446
100
AcDbEntity
  8
DIBUJOS
 62
     7
370
    18
100
AcDb2dPolyline
 66
     1
 10
0.0
 20
0.0
 30
0.0
  0
VERTEX
  5
540
330
53F
100
AcDbEntity
  8
DIBUJOS
 62
     7
370
    18
100
AcDbVertex
100
AcDb2dVertex
 10
62.31115549582788
 20
28.6937154152079
 30
0.0
  0
VERTEX
  5
541
330
53F
100
AcDbEntity
  8
DIBUJOS
 62
     7
370
    18
100
AcDbVertex
100
AcDb2dVertex
 10
62.31115549582788
 20
28.69931430086902
 30
0.0
  0
SEQEND
  5
542
330
53F
100
AcDbEntity
  8
DIBUJOS
 62
     7
370
    18
  0
POLYLINE
  5
543
330
446
100
AcDbEntity
  8
DIBUJOS
 62
     7
370
    18
100
AcDb2dPolyline
 66
     1
 10
0.0
 20
0.0
 30
0.0
  0
VERTEX
  5
544
330
543
100
AcDbEntity
  8
DIBUJOS
 62
     7
370
    18
100
AcDbVertex
100
AcDb2dVertex
 10
62.31676787107541
 20
28.6937154152079
 30
0.0
  0
VERTEX
  5
545
330
543
100
AcDbEntity
  8
DIBUJOS
 62
     7
370
    18
100
AcDbVertex
100
AcDb2dVertex
 10
62.31115549582788
 20
28.6937154152079
 30
0.0
  0
SEQEND
  5
546
330
543
100
AcDbEntity
  8
DIBUJOS
 62
     7
370
    18
  0
POLYLINE
  5
547
330
446
100
AcDbEntity
  8
DIBUJOS
 62
     7
370
    18
100
AcDb2dPolyline
 66
     1
 10
0.0
 20
0.0
 30
0.0
  0
VERTEX
  5
548
330
547
100
AcDbEntity
  8
DIBUJOS
 62
     7
370
    18
100
AcDbVertex
100
AcDb2dVertex
 10
62.31115549582788
 20
28.68811728299643
 30
0.0
  0
VERTEX
  5
549
330
547
100
AcDbEntity
  8
DIBUJOS
 62
     7
370
    18
100
AcDbVertex
100
AcDb2dVertex
 10
62.31115549582788
 20
28.6937154152079
 30
0.0
  0
SEQEND
  5
54A
330
547
100
AcDbEntity
  8
DIBUJOS
 62
     7
370
    18
  0
POLYLINE
  5
54B
330
446
100
AcDbEntity
  8
DIBUJOS
 62
     7
370
    18
100
AcDb2dPolyline
 66
     1
 10
0.0
 20
0.0
 30
0.0
  0
VERTEX
  5
54C
330
54B
100
AcDbEntity
  8
DIBUJOS
 62
     7
370
    18
100
AcDbVertex
100
AcDb2dVertex
 10
62.31676787107541
 20
28.6937154152079
 30
0.0
  0
VERTEX
  5
54D
330
54B
100
AcDbEntity
  8
DIBUJOS
 62
     7
370
    18
100
AcDbVertex
100
AcDb2dVertex
 10
62.35130463534867
 20
28.66701390680604
 30
0.0
  0
VERTEX
  5
54E
330
54B
100
AcDbEntity
  8
DIBUJOS
 62
     7
370
    18
100
AcDbVertex
100
AcDb2dVertex
 10
62.45195730988494
 20
28.6173088217509
 30
0.0
  0
VERTEX
  5
54F
330
54B
100
AcDbEntity
  8
DIBUJOS
 62
     7
370
    18
100
AcDbVertex
100
AcDb2dVertex
 10
62.490253028755
 20
28.60775809174966
 30
0.0
  0
VERTEX
  5
550
330
54B
100
AcDbEntity
  8
DIBUJOS
 62
     7
370
    18
100
AcDbVertex
100
AcDb2dVertex
 10
62.603166677556
 20
28.58993975680233
 30
0.0
  0
VERTEX
  5
551
330
54B
100
AcDbEntity
  8
DIBUJOS
 62
     7
370
    18
100
AcDbVertex
100
AcDb2dVertex
 10
62.87785434279211
 20
28.57349646778852
 30
0.0
  0
VERTEX
  5
552
330
54B
100
AcDbEntity
  8
DIBUJOS
 62
     7
370
    18
100
AcDbVertex
100
AcDb2dVertex
 10
63.74796434349142
 20
28.5396778723257
 30
0.0
  0
VERTEX
  5
553
330
54B
100
AcDbEntity
  8
DIBUJOS
 62
     7
370
    18
100
AcDbVertex
100
AcDb2dVertex
 10
63.96670574356079
 20
28.53422214213283
 30
0.0
  0
VERTEX
  5
554
330
54B
100
AcDbEntity
  8
DIBUJOS
 62
     7
370
    18
100
AcDbVertex
100
AcDb2dVertex
 10
64.76368719718269
 20
28.52298067072099
 30
0.0
  0
VERTEX
  5
555
330
54B
100
AcDbEntity
  8
DIBUJOS
 62
     7
370
    18
100
AcDbVertex
100
AcDb2dVertex
 10
65.8581766522131
 20
28.53422440248176
 30
0.0
  0
VERTEX
  5
556
330
54B
100
AcDbEntity
  8
DIBUJOS
 62
     7
370
    18
100
AcDbVertex
100
AcDb2dVertex
 10
66.27333834643565
 20
28.54526847003882
 30
0.0
  0
VERTEX
  5
557
330
54B
100
AcDbEntity
  8
DIBUJOS
 62
     7
370
    18
100
AcDbVertex
100
AcDb2dVertex
 10
67.14910150669978
 20
28.58473793920036
 30
0.0
  0
VERTEX
  5
558
330
54B
100
AcDbEntity
  8
DIBUJOS
 62
     7
370
    18
100
AcDbVertex
100
AcDb2dVertex
 10
67.28900379997586
 20
28.59546179058182
 30
0.0
  0
VERTEX
  5
559
330
54B
100
AcDbEntity
  8
DIBUJOS
 62
     7
370
    18
100
AcDbVertex
100
AcDb2dVertex
 10
67.39537232108373
 20
28.62290770741201
 30
0.0
  0
VERTEX
  5
55A
330
54B
100
AcDbEntity
  8
DIBUJOS
 62
     7
370
    18
100
AcDbVertex
100
AcDb2dVertex
 10
67.41745325268526
 20
28.63342134629089
 30
0.0
  0
VERTEX
  5
55B
330
54B
100
AcDbEntity
  8
DIBUJOS
 62
     7
370
    18
100
AcDbVertex
100
AcDb2dVertex
 10
67.50811225890283
 20
28.68811728299643
 30
0.0
  0
VERTEX
  5
55C
330
54B
100
AcDbEntity
  8
DIBUJOS
 62
     7
370
    18
100
AcDbVertex
100
AcDb2dVertex
 10
67.54178651038735
 20
28.73290686138353
 30
0.0
  0
SEQEND
  5
55D
330
54B
100
AcDbEntity
  8
DIBUJOS
 62
     7
370
    18
  0
POLYLINE
  5
55E
330
446
100
AcDbEntity
  8
DIBUJOS
 62
     7
370
    18
100
AcDb2dPolyline
 66
     1
 10
0.0
 20
0.0
 30
0.0
  0
VERTEX
  5
55F
330
55E
100
AcDbEntity
  8
DIBUJOS
 62
     7
370
    18
100
AcDbVertex
100
AcDb2dVertex
 10
61.89584803543364
 20
28.89527153174778
 30
0.0
  0
VERTEX
  5
560
330
55E
100
AcDbEntity
  8
DIBUJOS
 62
     7
370
    18
100
AcDbVertex
100
AcDb2dVertex
 10
61.92163429780727
 20
28.61495429104309
 30
0.0
  0
VERTEX
  5
561
330
55E
100
AcDbEntity
  8
DIBUJOS
 62
     7
370
    18
100
AcDbVertex
100
AcDb2dVertex
 10
61.94635865739573
 20
28.53135149829329
 30
0.0
  0
VERTEX
  5
562
330
55E
100
AcDbEntity
  8
DIBUJOS
 62
     7
370
    18
100
AcDbVertex
100
AcDb2dVertex
 10
61.96319502787298
 20
28.51455484131122
 30
0.0
  0
VERTEX
  5
563
330
55E
100
AcDbEntity
  8
DIBUJOS
 62
     7
370
    18
100
AcDbVertex
100
AcDb2dVertex
 10
61.98052685228107
 20
28.51093225454498
 30
0.0
  0
VERTEX
  5
564
330
55E
100
AcDbEntity
  8
DIBUJOS
 62
     7
370
    18
100
AcDbVertex
100
AcDb2dVertex
 10
61.99637382542635
 20
28.50698041020486
 30
0.0
  0
VERTEX
  5
565
330
55E
100
AcDbEntity
  8
DIBUJOS
 62
     7
370
    18
100
AcDbVertex
100
AcDb2dVertex
 10
62.04176677080675
 20
28.50335706998962
 30
0.0
  0
VERTEX
  5
566
330
55E
100
AcDbEntity
  8
DIBUJOS
 62
     7
370
    18
100
AcDbVertex
100
AcDb2dVertex
 10
62.07587227868596
 20
28.51240148170642
 30
0.0
  0
VERTEX
  5
567
330
55E
100
AcDbEntity
  8
DIBUJOS
 62
     7
370
    18
100
AcDbVertex
100
AcDb2dVertex
 10
62.13661447748481
 20
28.53247112473533
 30
0.0
  0
VERTEX
  5
568
330
55E
100
AcDbEntity
  8
DIBUJOS
 62
     7
370
    18
100
AcDbVertex
100
AcDb2dVertex
 10
62.19804698862085
 20
28.56063733960013
 30
0.0
  0
VERTEX
  5
569
330
55E
100
AcDbEntity
  8
DIBUJOS
 62
     7
370
    18
100
AcDbVertex
100
AcDb2dVertex
 10
62.28309437485653
 20
28.62653029417697
 30
0.0
  0
VERTEX
  5
56A
330
55E
100
AcDbEntity
  8
DIBUJOS
 62
     7
370
    18
100
AcDbVertex
100
AcDb2dVertex
 10
62.31115549582788
 20
28.68811728299643
 30
0.0
  0
SEQEND
  5
56B
330
55E
100
AcDbEntity
  8
DIBUJOS
 62
     7
370
    18
  0
POLYLINE
  5
56C
330
446
100
AcDbEntity
  8
DIBUJOS
 62
     7
370
    18
100
AcDb2dPolyline
 66
     1
 10
0.0
 20
0.0
 30
0.0
  0
VERTEX
  5
56D
330
56C
100
AcDbEntity
  8
DIBUJOS
 62
     7
370
    18
100
AcDbVertex
100
AcDb2dVertex
 10
67.54739813036954
 20
28.72730872917269
 30
0.0
  0
VERTEX
  5
56E
330
56C
100
AcDbEntity
  8
DIBUJOS
 62
     7
370
    18
100
AcDbVertex
100
AcDb2dVertex
 10
67.5625517701176
 20
28.67635969845349
 30
0.0
  0
VERTEX
  5
56F
330
56C
100
AcDbEntity
  8
DIBUJOS
 62
     7
370
    18
100
AcDbVertex
100
AcDb2dVertex
 10
67.5810723818544
 20
28.62653029417697
 30
0.0
  0
VERTEX
  5
570
330
56C
100
AcDbEntity
  8
DIBUJOS
 62
     7
370
    18
100
AcDbVertex
100
AcDb2dVertex
 10
67.64942991904952
 20
28.57188634550969
 30
0.0
  0
VERTEX
  5
571
330
56C
100
AcDbEntity
  8
DIBUJOS
 62
     7
370
    18
100
AcDbVertex
100
AcDb2dVertex
 10
67.72755152396046
 20
28.53247112473533
 30
0.0
  0
VERTEX
  5
572
330
56C
100
AcDbEntity
  8
DIBUJOS
 62
     7
370
    18
100
AcDbVertex
100
AcDb2dVertex
 10
67.78829447802495
 20
28.51240148170642
 30
0.0
  0
VERTEX
  5
573
330
56C
100
AcDbEntity
  8
DIBUJOS
 62
     7
370
    18
100
AcDbVertex
100
AcDb2dVertex
 10
67.86168510210524
 20
28.50335706998962
 30
0.0
  0
VERTEX
  5
574
330
56C
100
AcDbEntity
  8
DIBUJOS
 62
     7
370
    18
100
AcDbVertex
100
AcDb2dVertex
 10
67.86779217601891
 20
28.50698041020486
 30
0.0
  0
VERTEX
  5
575
330
56C
100
AcDbEntity
  8
DIBUJOS
 62
     7
370
    18
100
AcDbVertex
100
AcDb2dVertex
 10
67.9009709735726
 20
28.51455484131122
 30
0.0
  0
VERTEX
  5
576
330
56C
100
AcDbEntity
  8
DIBUJOS
 62
     7
370
    18
100
AcDbVertex
100
AcDb2dVertex
 10
67.9189296680461
 20
28.53638981728343
 30
0.0
  0
VERTEX
  5
577
330
56C
100
AcDbEntity
  8
DIBUJOS
 62
     7
370
    18
100
AcDbVertex
100
AcDb2dVertex
 10
67.94345161657715
 20
28.61003577057519
 30
0.0
  0
VERTEX
  5
578
330
56C
100
AcDbEntity
  8
DIBUJOS
 62
     7
370
    18
100
AcDbVertex
100
AcDb2dVertex
 10
67.94828682399687
 20
28.64862370344051
 30
0.0
  0
VERTEX
  5
579
330
56C
100
AcDbEntity
  8
DIBUJOS
 62
     7
370
    18
100
AcDbVertex
100
AcDb2dVertex
 10
67.9600327074376
 20
28.78901626996402
 30
0.0
  0
VERTEX
  5
57A
330
56C
100
AcDbEntity
  8
DIBUJOS
 62
     7
370
    18
100
AcDbVertex
100
AcDb2dVertex
 10
67.96270634602911
 20
28.90646930306938
 30
0.0
  0
VERTEX
  5
57B
330
56C
100
AcDbEntity
  8
DIBUJOS
 62
     7
370
    18
100
AcDbVertex
100
AcDb2dVertex
 10
67.97867869318729
 20
28.91895848739414
 30
0.0
  0
VERTEX
  5
57C
330
56C
100
AcDbEntity
  8
DIBUJOS
 62
     7
370
    18
100
AcDbVertex
100
AcDb2dVertex
 10
67.9916314903205
 20
28.92757192580947
 30
0.0
  0
VERTEX
  5
57D
330
56C
100
AcDbEntity
  8
DIBUJOS
 62
     7
370
    18
100
AcDbVertex
100
AcDb2dVertex
 10
68.0412780889632
 20
28.96805553843855
 30
0.0
  0
VERTEX
  5
57E
330
56C
100
AcDbEntity
  8
DIBUJOS
 62
     7
370
    18
100
AcDbVertex
100
AcDb2dVertex
 10
68.04240041295945
 20
28.97309461087768
 30
0.0
  0
VERTEX
  5
57F
330
56C
100
AcDbEntity
  8
DIBUJOS
 62
     7
370
    18
100
AcDbVertex
100
AcDb2dVertex
 10
68.11423670138474
 20
29.12482132314232
 30
0.0
  0
VERTEX
  5
580
330
56C
100
AcDbEntity
  8
DIBUJOS
 62
     7
370
    18
100
AcDbVertex
100
AcDb2dVertex
 10
68.11030781213206
 20
29.15337481121705
 30
0.0
  0
VERTEX
  5
581
330
56C
100
AcDbEntity
  8
DIBUJOS
 62
     7
370
    18
100
AcDbVertex
100
AcDb2dVertex
 10
68.1030119508897
 20
29.17521054063954
 30
0.0
  0
VERTEX
  5
582
330
56C
100
AcDbEntity
  8
DIBUJOS
 62
     7
370
    18
100
AcDbVertex
100
AcDb2dVertex
 10
68.08617558041244
 20
29.19200644417133
 30
0.0
  0
VERTEX
  5
583
330
56C
100
AcDbEntity
  8
DIBUJOS
 62
     7
370
    18
100
AcDbVertex
100
AcDb2dVertex
 10
68.06372607942296
 20
29.19200644417133
 30
0.0
  0
VERTEX
  5
584
330
56C
100
AcDbEntity
  8
DIBUJOS
 62
     7
370
    18
100
AcDbVertex
100
AcDb2dVertex
 10
68.0455951844976
 20
29.21354079366382
 30
0.0
  0
VERTEX
  5
585
330
56C
100
AcDbEntity
  8
DIBUJOS
 62
     7
370
    18
100
AcDbVertex
100
AcDb2dVertex
 10
68.03566495845067
 20
29.2311978903476
 30
0.0
  0
VERTEX
  5
586
330
56C
100
AcDbEntity
  8
DIBUJOS
 62
     7
370
    18
100
AcDbVertex
100
AcDb2dVertex
 10
67.9916314903205
 20
29.26608261731555
 30
0.0
  0
VERTEX
  5
587
330
56C
100
AcDbEntity
  8
DIBUJOS
 62
     7
370
    18
100
AcDbVertex
100
AcDb2dVertex
 10
67.97954271650605
 20
29.27598822218434
 30
0.0
  0
SEQEND
  5
588
330
56C
100
AcDbEntity
  8
DIBUJOS
 62
     7
370
    18
  0
ENDBLK
  5
449
330
446
100
AcDbEntity
  8
0
100
AcDbBlockEnd
  0
ENDSEC
  0
SECTION
  2
ENTITIES
  0
MTEXT
  5
41
330
1F
100
AcDbEntity
  8
REFERENCIAS
 62
   255
100
AcDbMText
 10
61.49112712594395
 20
54.85563098807646
 30
0.0
 40
1.49859999962535
 41
0.0
 46
0.0
 71
     7
 72
     1
  1
\fMyriad Pro|b0|i0|c0|p34;\W1;ZAR_9422__ARMCHAIR
 73
     1
 44
1.0
  0
MTEXT
  5
43
330
1F
100
AcDbEntity
  8
M_U+00C1RGENES
 62
   255
100
AcDbMText
 10
90.14127864703391
 20
23.7555119243149
 30
0.0
 40
1.748366666229575
 41
0.0
 46
0.0
 71
     7
 72
     1
  1
\fMyriad Pro|b0|i0|c0|p34;\W1;400
 73
     1
 44
1.0
  0
MTEXT
  5
44
330
1F
100
AcDbEntity
  8
M_U+00C1RGENES
 62
   255
100
AcDbMText
 10
84.21176331851954
 20
20.50332059082737
 30
0.0
 40
1.748366666229575
 41
0.0
 46
0.0
 71
     7
 72
     1
  1
\fMyriad Pro|b0|i0|c0|p34;\W1;400
 73
     1
 44
1.0
  0
POLYLINE
  5
45
330
1F
100
AcDbEntity
  8
M_U+00C1RGENES
 62
   255
370
    18
100
AcDb2dPolyline
 66
     1
 10
0.0
 20
0.0
 30
0.0
  0
VERTEX
  5
46
330
45
100
AcDbEntity
  8
M_U+00C1RGENES
 62
   255
370
    18
100
AcDbVertex
100
AcDb2dVertex
 10
84.41666477502157
 20
24.76314475783758
 30
0.0
  0
VERTEX
  5
47
330
45
100
AcDbEntity
  8
M_U+00C1RGENES
 62
   255
370
    18
100
AcDbVertex
100
AcDb2dVertex
 10
94.99999810570907
 20
19.74726776251925
 30
0.0
  0
SEQEND
  5
48
330
45
100
AcDbEntity
  8
M_U+00C1RGENES
 62
   255
370
    18
  0
POLYLINE
  5
49
330
1F
100
AcDbEntity
  8
M_U+00C1RGENES
 62
   254
370
    35
100
AcDb2dPolyline
 66
     1
 10
0.0
 20
0.0
 30
0.0
  0
VERTEX
  5
4A
330
49
100
AcDbEntity
  8
M_U+00C1RGENES
 62
   254
370
    35
100
AcDbVertex
100
AcDb2dVertex
 10
54.99999767595828
 20
20.88258920325216
 30
0.0
  0
VERTEX
  5
4B
330
49
100
AcDbEntity
  8
M_U+00C1RGENES
 62
   254
370
    35
100
AcDbVertex
100
AcDb2dVertex
 10
54.99999767595828
 20
19.74726776251925
 30
0.0
  0
SEQEND
  5
4C
330
49
100
AcDbEntity
  8
M_U+00C1RGENES
 62
   254
370
    35
  0
POLYLINE
  5
4D
330
1F
100
AcDbEntity
  8
M_U+00C1RGENES
 62
   255
370
    35
100
AcDb2dPolyline
 66
     1
 10
0.0
 20
0.0
 30
0.0
  0
VERTEX
  5
4E
330
4D
100
AcDbEntity
  8
M_U+00C1RGENES
 62
   255
370
    35
100
AcDbVertex
100
AcDb2dVertex
 10
94.99999797321169
 20
59.74726768656564
 30
0.0
  0
VERTEX
  5
4F
330
4D
100
AcDbEntity
  8
M_U+00C1RGENES
 62
   255
370
    35
100
AcDbVertex
100
AcDb2dVertex
 10
93.86467653247878
 20
59.74726768651462
 30
0.0
  0
SEQEND
  5
50
330
4D
100
AcDbEntity
  8
M_U+00C1RGENES
 62
   255
370
    35
  0
INSERT
  5
53
330
1F
100
AcDbEntity
  8
DIBUJOS
100
AcDbBlockReference
  2
block 2
 10
0.0
 20
0.0
 30
0.0
  0
INSERT
  5
2CC
330
1F
100
AcDbEntity
  8
DIBUJOS
100
AcDbBlockReference
  2
block 3
 10
0.0
 20
0.0
 30
0.0
  0
INSERT
  5
447
330
1F
100
AcDbEntity
  8
DIBUJOS
100
AcDbBlockReference
  2
block 4
 10
0.0
 20
0.0
 30
0.0
  0
POLYLINE
  5
58A
330
1F
100
AcDbEntity
  8
COTAS LINEA
 62
     7
370
    18
100
AcDb2dPolyline
 66
     1
 10
0.0
 20
0.0
 30
0.0
  0
VERTEX
  5
58B
330
58A
100
AcDbEntity
  8
COTAS LINEA
 62
     7
370
    18
100
AcDbVertex
100
AcDb2dVertex
 10
74.7002181810918
 20
51.42168850791609
 30
0.0
  0
VERTEX
  5
58C
330
58A
100
AcDbEntity
  8
COTAS LINEA
 62
     7
370
    18
100
AcDbVertex
100
AcDb2dVertex
 10
74.70021818195521
 20
43.74254793733368
 30
0.0
  0
SEQEND
  5
58D
330
58A
100
AcDbEntity
  8
COTAS LINEA
 62
     7
370
    18
  0
POLYLINE
  5
58E
330
1F
100
AcDbEntity
  8
COTAS LINEA
 62
     7
370
    18
100
AcDb2dPolyline
 66
     1
 10
0.0
 20
0.0
 30
0.0
  0
VERTEX
  5
58F
330
58E
100
AcDbEntity
  8
COTAS LINEA
 62
     7
370
    18
100
AcDbVertex
100
AcDb2dVertex
 10
70.11410510037162
 20
50.5060170160046
 30
0.0
  0
VERTEX
  5
590
330
58E
100
AcDbEntity
  8
COTAS LINEA
 62
     7
370
    18
100
AcDbVertex
100
AcDb2dVertex
 10
70.11410510123501
 20
43.74254453844252
 30
0.0
  0
SEQEND
  5
591
330
58E
100
AcDbEntity
  8
COTAS LINEA
 62
     7
370
    18
  0
POLYLINE
  5
592
330
1F
100
AcDbEntity
  8
COTAS LINEA
 62
     7
370
    18
100
AcDb2dPolyline
 66
     1
 10
0.0
 20
0.0
 30
0.0
  0
VERTEX
  5
593
330
592
100
AcDbEntity
  8
COTAS LINEA
 62
     7
370
    18
100
AcDbVertex
100
AcDb2dVertex
 10
88.58244671279539
 20
47.4701151266208
 30
0.0
  0
VERTEX
  5
594
330
592
100
AcDbEntity
  8
COTAS LINEA
 62
     7
370
    18
100
AcDbVertex
100
AcDb2dVertex
 10
88.58244671410188
 20
43.74254394882057
 30
0.0
  0
SEQEND
  5
595
330
592
100
AcDbEntity
  8
COTAS LINEA
 62
     7
370
    18
  0
POLYLINE
  5
596
330
1F
100
AcDbEntity
  8
COTAS LINEA
 62
     7
370
    18
100
AcDb2dPolyline
 66
     1
 10
0.0
 20
0.0
 30
0.0
  0
VERTEX
  5
597
330
596
100
AcDbEntity
  8
COTAS LINEA
 62
     7
370
    18
100
AcDbVertex
100
AcDb2dVertex
 10
82.54003239624483
 20
40.07230686707011
 30
0.0
  0
VERTEX
  5
598
330
596
100
AcDbEntity
  8
COTAS LINEA
 62
     7
370
    18
100
AcDbVertex
100
AcDb2dVertex
 10
86.83868428645226
 20
40.07230686707011
 30
0.0
  0
SEQEND
  5
599
330
596
100
AcDbEntity
  8
COTAS LINEA
 62
     7
370
    18
  0
POLYLINE
  5
59A
330
1F
100
AcDbEntity
  8
COTAS LINEA
 62
     7
370
    18
100
AcDb2dPolyline
 66
     1
 10
0.0
 20
0.0
 30
0.0
  0
VERTEX
  5
59B
330
59A
100
AcDbEntity
  8
COTAS LINEA
 62
     7
370
    18
100
AcDbVertex
100
AcDb2dVertex
 10
62.57395831768984
 20
40.07230686707011
 30
0.0
  0
VERTEX
  5
59C
330
59A
100
AcDbEntity
  8
COTAS LINEA
 62
     7
370
    18
100
AcDbVertex
100
AcDb2dVertex
 10
67.53968340518229
 20
40.07230686707011
 30
0.0
  0
SEQEND
  5
59D
330
59A
100
AcDbEntity
  8
COTAS LINEA
 62
     7
370
    18
  0
MTEXT
  5
59F
330
1F
100
AcDbEntity
  8
COTAS N_U+00DAMERO
 62
     7
100
AcDbMText
 10
75.47552869817214
 20
46.15579595471539
 30
0.0
 40
1.998533025814148
 41
0.0
 46
0.0
 71
     7
 72
     1
  1
\fMyriad Pro|b0|i0|c0|p34;\W1;81
 73
     1
 44
1.0
  0
MTEXT
  5
5A0
330
1F
100
AcDbEntity
  8
COTAS N_U+00DAMERO
 62
     7
100
AcDbMText
 10
70.88941758820755
 20
46.15579595471539
 30
0.0
 40
1.998533025814148
 41
0.0
 46
0.0
 71
     7
 72
     1
  1
\fMyriad Pro|b0|i0|c0|p34;\W1;72
 73
     1
 44
1.0
  0
MTEXT
  5
5A1
330
1F
100
AcDbEntity
  8
COTAS N_U+00DAMERO
 62
     7
100
AcDbMText
 10
89.34100449765715
 20
44.76742247415971
 30
0.0
 40
1.998533025814148
 41
0.0
 46
0.0
 71
     7
 72
     1
  1
\fMyriad Pro|b0|i0|c0|p34;\W1;48
 73
     1
 44
1.0
  0
MTEXT
  5
5A2
330
1F
100
AcDbEntity
  8
COTAS N_U+00DAMERO
 62
     7
100
AcDbMText
 10
83.11261636987398
 20
40.62745122953498
 30
0.0
 40
1.998533025814148
 41
0.0
 46
0.0
 71
     7
 72
     1
  1
\fMyriad Pro|b0|i0|c0|p34;\W1;57
 73
     1
 44
1.0
  0
MTEXT
  5
5A3
330
1F
100
AcDbEntity
  8
COTAS N_U+00DAMERO
 62
     7
100
AcDbMText
 10
63.55119194985114
 20
40.62727897476071
 30
0.0
 40
1.998533025814148
 41
0.0
 46
0.0
 71
     7
 72
     1
  1
\fMyriad Pro|b0|i0|c0|p34;\W1;62
 73
     1
 44
1.0
  0
ENDSEC
  0
SECTION
  2
OBJECTS
  0
DICTIONARY
  5
C
330
0
100
AcDbDictionary
281
     1
  3
ACAD_GROUP
350
D
  3
ACAD_LAYOUT
350
1A
  3
ACAD_MATERIAL
350
3B
  3
ACAD_MLEADERSTYLE
350
5C5
  3
ACAD_MLINESTYLE
350
17
  3
ACAD_PLOTSETTINGS
350
19
  3
ACAD_PLOTSTYLENAME
350
E
  3
ACAD_TABLESTYLE
350
5C4
  3
ACAD_VISUALSTYLE
350
2A
  0
SUN
  5
3F
330
29
100
AcDbSun
 90
        1
290
     0
 63
     7
421
 16777215
 40
1.0
291
     1
 91
  2455826
 92
 54000000
292
     0
 70
     2
 71
   256
280
     1
  0
DICTIONARY
  5
D
102
{ACAD_REACTORS
330
C
102
}
330
C
100
AcDbDictionary
281
     1
  0
DICTIONARY
  5
1A
102
{ACAD_REACTORS
330
C
102
}
330
C
100
AcDbDictionary
281
     1
  3
Layout1
350
1E
  3
Layout2
350
26
  3
Model
350
22
  0
DICTIONARY
  5
3B
102
{ACAD_REACTORS
330
C
102
}
330
C
100
AcDbDictionary
281
     1
  3
ByBlock
350
3D
  3
ByLayer
350
3C
  3
Global
350
3E
  0
DICTIONARY
  5
5C5
102
{ACAD_REACTORS
330
C
102
}
330
C
100
AcDbDictionary
281
     1
  0
DICTIONARY
  5
17
102
{ACAD_REACTORS
330
C
102
}
330
C
100
AcDbDictionary
281
     1
  3
Standard
350
18
  0
DICTIONARY
  5
19
102
{ACAD_REACTORS
330
C
102
}
330
C
100
AcDbDictionary
281
     1
  0
ACDBDICTIONARYWDFLT
  5
E
102
{ACAD_REACTORS
330
C
102
}
330
C
100
AcDbDictionary
281
     1
  3
Normal
350
F
100
AcDbDictionaryWithDefault
340
F
  0
DICTIONARY
  5
5C4
102
{ACAD_REACTORS
330
C
102
}
330
C
100
AcDbDictionary
281
     1
  0
DICTIONARY
  5
2A
102
{ACAD_REACTORS
330
C
102
}
330
C
100
AcDbDictionary
281
     1
  3
2dWireframe
350
2F
  3
3D Hidden
350
31
  3
3dWireframe
350
30
  3
Basic
350
32
  3
Brighten
350
36
  3
ColorChange
350
3A
  3
Conceptual
350
34
  3
Dim
350
35
  3
Facepattern
350
39
  3
Flat
350
2B
  3
FlatWithEdges
350
2C
  3
Gouraud
350
2D
  3
GouraudWithEdges
350
2E
  3
Linepattern
350
38
  3
Realistic
350
33
  3
Thicken
350
37
  0
LAYOUT
  5
1E
102
{ACAD_REACTORS
330
1A
102
}
330
1A
100
AcDbPlotSettings
  1

  2
none_device
  4

  6

 40
0.0
 41
0.0
 42
0.0
 43
0.0
 44
0.0
 45
0.0
 46
0.0
 47
0.0
 48
0.0
 49
0.0
140
0.0
141
0.0
142
1.0
143
1.0
 70
   688
 72
     0
 73
     0
 74
     5
  7

 75
    16
 76
     0
 77
     2
 78
   300
147
1.0
148
0.0
149
0.0
100
AcDbLayout
  1
Layout1
 70
     1
 71
     1
 10
0.0
 20
0.0
 11
12.0
 21
9.0
 12
0.0
 22
0.0
 32
0.0
 14
1.000000000000000E+20
 24
1.000000000000000E+20
 34
1.000000000000000E+20
 15
-1.000000000000000E+20
 25
-1.000000000000000E+20
 35
-1.000000000000000E+20
146
0.0
 13
0.0
 23
0.0
 33
0.0
 16
1.0
 26
0.0
 36
0.0
 17
0.0
 27
1.0
 37
0.0
 76
     0
330
1B
  0
LAYOUT
  5
26
102
{ACAD_REACTORS
330
1A
102
}
330
1A
100
AcDbPlotSettings
  1

  2
none_device
  4

  6

 40
0.0
 41
0.0
 42
0.0
 43
0.0
 44
0.0
 45
0.0
 46
0.0
 47
0.0
 48
0.0
 49
0.0
140
0.0
141
0.0
142
1.0
143
1.0
 70
   688
 72
     0
 73
     0
 74
     5
  7

 75
    16
 76
     0
 77
     2
 78
   300
147
1.0
148
0.0
149
0.0
100
AcDbLayout
  1
Layout2
 70
     1
 71
     2
 10
0.0
 20
0.0
 11
0.0
 21
0.0
 12
0.0
 22
0.0
 32
0.0
 14
0.0
 24
0.0
 34
0.0
 15
0.0
 25
0.0
 35
0.0
146
0.0
 13
0.0
 23
0.0
 33
0.0
 16
1.0
 26
0.0
 36
0.0
 17
0.0
 27
1.0
 37
0.0
 76
     0
330
23
  0
LAYOUT
  5
22
102
{ACAD_REACTORS
330
1A
102
}
330
1A
100
AcDbPlotSettings
  1

  2
none_device
  4

  6

 40
0.0
 41
0.0
 42
0.0
 43
0.0
 44
0.0
 45
0.0
 46
0.0
 47
0.0
 48
0.0
 49
0.0
140
0.0
141
0.0
142
1.0
143
1.0
 70
  1712
 72
     0
 73
     0
 74
     0
  7

 75
     0
 76
     0
 77
     2
 78
   300
147
1.0
148
0.0
149
0.0
100
AcDbLayout
  1
Model
 70
     1
 71
     0
 10
0.0
 20
0.0
 11
12.0
 21
9.0
 12
0.0
 22
0.0
 32
0.0
 14
1.000000000000000E+20
 24
1.000000000000000E+20
 34
1.000000000000000E+20
 15
-1.000000000000000E+20
 25
-1.000000000000000E+20
 35
-1.000000000000000E+20
146
0.0
 13
0.0
 23
0.0
 33
0.0
 16
1.0
 26
0.0
 36
0.0
 17
0.0
 27
1.0
 37
0.0
 76
     0
330
1F
331
29
  0
MATERIAL
  5
3D
102
{ACAD_REACTORS
330
3B
102
}
330
3B
100
AcDbMaterial
  1
ByBlock
 72
     1
 94
      127
  0
MATERIAL
  5
3C
102
{ACAD_REACTORS
330
3B
102
}
330
3B
100
AcDbMaterial
  1
ByLayer
 72
     1
 94
      127
  0
MATERIAL
  5
3E
102
{ACAD_REACTORS
330
3B
102
}
330
3B
100
AcDbMaterial
  1
Global
 72
     1
 94
      127
  0
MLINESTYLE
  5
18
102
{ACAD_REACTORS
330
17
102
}
330
17
100
AcDbMlineStyle
  2
Standard
 70
     0
  3

 62
   256
 51
90.0
 52
90.0
 71
     2
 49
0.5
 62
   256
  6
BYLAYER
 49
-0.5
 62
   256
  6
BYLAYER
  0
ACDBPLACEHOLDER
  5
F
102
{ACAD_REACTORS
330
E
102
}
330
E
  0
VISUALSTYLE
  5
2F
102
{ACAD_REACTORS
330
2A
102
}
102
{ACAD_XDICTIONARY
360
5AC
102
}
330
2A
100
AcDbVisualStyle
  2
2dWireframe
 70
     4
 71
     0
 72
     2
 73
     0
 90
        0
 40
-0.6
 41
-30.0
 62
     5
 63
     7
421
 16777215
 74
     1
 91
        4
 64
     7
 65
   257
 75
     1
175
     1
 42
1.0
 92
        0
 66
   257
 43
1.0
 76
     1
 77
     6
 78
     2
 67
     7
 79
     5
170
     0
171
     0
290
     0
174
     0
 93
        1
 44
0.0
173
     0
291
     0
 45
0.0
  0
VISUALSTYLE
  5
31
102
{ACAD_REACTORS
330
2A
102
}
102
{ACAD_XDICTIONARY
360
5B0
102
}
330
2A
100
AcDbVisualStyle
  2
3D Hidden
 70
     6
 71
     1
 72
     2
 73
     2
 90
        0
 40
-0.6
 41
-30.0
 62
     5
 63
     7
421
 16777215
 74
     2
 91
        2
 64
     7
 65
   257
 75
     2
175
     1
 42
40.0
 92
        0
 66
   257
 43
1.0
 76
     1
 77
     6
 78
     2
 67
     7
 79
     3
170
     0
171
     0
290
     0
174
     0
 93
        1
 44
0.0
173
     0
291
     0
 45
0.0
  0
VISUALSTYLE
  5
30
102
{ACAD_REACTORS
330
2A
102
}
102
{ACAD_XDICTIONARY
360
5AE
102
}
330
2A
100
AcDbVisualStyle
  2
3dWireframe
 70
     5
 71
     0
 72
     2
 73
     0
 90
        0
 40
-0.6
 41
-30.0
 62
     5
 63
     7
421
 16777215
 74
     1
 91
        4
 64
     7
 65
   257
 75
     1
175
     1
 42
1.0
 92
        0
 66
   257
 43
1.0
 76
     1
 77
     6
 78
     2
 67
     7
 79
     5
170
     0
171
     0
290
     0
174
     0
 93
        1
 44
0.0
173
     0
291
     0
 45
0.0
  0
VISUALSTYLE
  5
32
102
{ACAD_REACTORS
330
2A
102
}
102
{ACAD_XDICTIONARY
360
5B2
102
}
330
2A
100
AcDbVisualStyle
  2
Basic
 70
     7
 71
     1
 72
     0
 73
     1
 90
        0
 40
-0.6
 41
-30.0
 62
     5
 63
     7
421
 16777215
 74
     0
 91
        4
 64
     7
 65
   257
 75
     1
175
     1
 42
1.0
 92
        8
 66
     7
 43
1.0
 76
     1
 77
     6
 78
     2
 67
     7
 79
     5
170
     0
171
     0
290
     0
174
     0
 93
        1
 44
0.0
173
     0
291
     1
 45
0.0
  0
VISUALSTYLE
  5
36
102
{ACAD_REACTORS
330
2A
102
}
102
{ACAD_XDICTIONARY
360
5BA
102
}
330
2A
100
AcDbVisualStyle
  2
Brighten
 70
    12
 71
     2
 72
     2
 73
     0
 90
        0
 40
-0.6
 41
-30.0
 62
     5
 63
     7
421
 16777215
 74
     1
 91
        4
 64
     7
 65
   257
 75
     1
175
     1
 42
1.0
 92
        8
 66
     7
 43
1.0
 76
     1
 77
     6
 78
     2
 67
     7
 79
     5
170
     0
171
     0
290
     0
174
     0
 93
        1
 44
50.0
173
     0
291
     1
 45
0.0
  0
VISUALSTYLE
  5
3A
102
{ACAD_REACTORS
330
2A
102
}
102
{ACAD_XDICTIONARY
360
5C2
102
}
330
2A
100
AcDbVisualStyle
  2
ColorChange
 70
    16
 71
     2
 72
     2
 73
     3
 90
        0
 40
-0.6
 41
-30.0
 62
     5
 63
     8
421
  8421504
 74
     1
 91
        4
 64
     7
 65
   257
 75
     1
175
     1
 42
1.0
 92
        8
 66
     8
424
  8421504
 43
1.0
 76
     1
 77
     6
 78
     2
 67
     7
 79
     5
170
     0
171
     0
290
     0
174
     0
 93
        1
 44
0.0
173
     0
291
     1
 45
0.0
  0
VISUALSTYLE
  5
34
102
{ACAD_REACTORS
330
2A
102
}
102
{ACAD_XDICTIONARY
360
5B6
102
}
330
2A
100
AcDbVisualStyle
  2
Conceptual
 70
     9
 71
     3
 72
     2
 73
     0
 90
        0
 40
-0.6
 41
-30.0
 62
     5
 63
     7
421
 16777215
 74
     2
 91
        2
 64
     7
 65
   257
 75
     1
175
     1
 42
40.0
 92
        8
 66
     7
 43
1.0
 76
     1
 77
     6
 78
     2
 67
     7
 79
     3
170
     0
171
     0
290
     0
174
     0
 93
        1
 44
0.0
173
     0
291
     0
 45
0.0
  0
VISUALSTYLE
  5
35
102
{ACAD_REACTORS
330
2A
102
}
102
{ACAD_XDICTIONARY
360
5B8
102
}
330
2A
100
AcDbVisualStyle
  2
Dim
 70
    11
 71
     2
 72
     2
 73
     0
 90
        0
 40
-0.6
 41
-30.0
 62
     5
 63
     7
421
 16777215
 74
     1
 91
        4
 64
     7
 65
   257
 75
     1
175
     1
 42
1.0
 92
        8
 66
     7
 43
1.0
 76
     1
 77
     6
 78
     2
 67
     7
 79
     5
170
     0
171
     0
290
     0
174
     0
 93
        1
 44
-50.0
173
     0
291
     1
 45
0.0
  0
VISUALSTYLE
  5
39
102
{ACAD_REACTORS
330
2A
102
}
102
{ACAD_XDICTIONARY
360
5C0
102
}
330
2A
100
AcDbVisualStyle
  2
Facepattern
 70
    15
 71
     2
 72
     2
 73
     0
 90
        0
 40
-0.6
 41
-30.0
 62
     5
 63
     7
421
 16777215
 74
     1
 91
        4
 64
     7
 65
   257
 75
     1
175
     1
 42
1.0
 92
        8
 66
     7
 43
1.0
 76
     1
 77
     6
 78
     2
 67
     7
 79
     5
170
     0
171
     0
290
     0
174
     0
 93
        1
 44
0.0
173
     0
291
     1
 45
0.0
  0
VISUALSTYLE
  5
2B
102
{ACAD_REACTORS
330
2A
102
}
102
{ACAD_XDICTIONARY
360
5A4
102
}
330
2A
100
AcDbVisualStyle
  2
Flat
 70
     0
 71
     2
 72
     1
 73
     1
 90
        2
 40
-0.6
 41
30.0
 62
     5
 63
     7
421
 16777215
 74
     0
 91
        4
 64
     7
 65
   257
 75
     1
175
     1
 42
1.0
 92
        8
 66
     7
 43
1.0
 76
     1
 77
     6
 78
     2
 67
     7
 79
     5
170
     0
171
     0
290
     0
174
     0
 93
       13
 44
0.0
173
     0
291
     1
 45
0.0
  0
VISUALSTYLE
  5
2C
102
{ACAD_REACTORS
330
2A
102
}
102
{ACAD_XDICTIONARY
360
5A6
102
}
330
2A
100
AcDbVisualStyle
  2
FlatWithEdges
 70
     1
 71
     2
 72
     1
 73
     1
 90
        2
 40
-0.6
 41
30.0
 62
     5
 63
     7
421
 16777215
 74
     1
 91
        4
 64
     7
 65
   257
 75
     1
175
     1
 42
1.0
 92
        0
 66
   257
 43
1.0
 76
     1
 77
     6
 78
     2
 67
     7
 79
     5
170
     0
171
     0
290
     0
174
     0
 93
       13
 44
0.0
173
     0
291
     1
 45
0.0
  0
VISUALSTYLE
  5
2D
102
{ACAD_REACTORS
330
2A
102
}
102
{ACAD_XDICTIONARY
360
5A8
102
}
330
2A
100
AcDbVisualStyle
  2
Gouraud
 70
     2
 71
     2
 72
     2
 73
     1
 90
        2
 40
-0.6
 41
30.0
 62
     5
 63
     7
421
 16777215
 74
     0
 91
        4
 64
     7
 65
   257
 75
     1
175
     1
 42
1.0
 92
        0
 66
     7
 43
1.0
 76
     1
 77
     6
 78
     2
 67
     7
 79
     5
170
     0
171
     0
290
     0
174
     0
 93
       13
 44
0.0
173
     0
291
     1
 45
0.0
  0
VISUALSTYLE
  5
2E
102
{ACAD_REACTORS
330
2A
102
}
102
{ACAD_XDICTIONARY
360
5AA
102
}
330
2A
100
AcDbVisualStyle
  2
GouraudWithEdges
 70
     3
 71
     2
 72
     2
 73
     1
 90
        2
 40
-0.6
 41
30.0
 62
     5
 63
     7
421
 16777215
 74
     1
 91
        4
 64
     7
 65
   257
 75
     1
175
     1
 42
1.0
 92
        0
 66
   257
 43
1.0
 76
     1
 77
     6
 78
     2
 67
     7
 79
     5
170
     0
171
     0
290
     0
174
     0
 93
       13
 44
0.0
173
     0
291
     1
 45
0.0
  0
VISUALSTYLE
  5
38
102
{ACAD_REACTORS
330
2A
102
}
102
{ACAD_XDICTIONARY
360
5BE
102
}
330
2A
100
AcDbVisualStyle
  2
Linepattern
 70
    14
 71
     2
 72
     2
 73
     0
 90
        0
 40
-0.6
 41
-30.0
 62
     5
 63
     7
421
 16777215
 74
     1
 91
        4
 64
     7
 65
   257
 75
     7
175
     7
 42
1.0
 92
        8
 66
     7
 43
1.0
 76
     1
 77
     6
 78
     2
 67
     7
 79
     5
170
     0
171
     0
290
     0
174
     0
 93
        1
 44
0.0
173
     0
291
     1
 45
0.0
  0
VISUALSTYLE
  5
33
102
{ACAD_REACTORS
330
2A
102
}
102
{ACAD_XDICTIONARY
360
5B4
102
}
330
2A
100
AcDbVisualStyle
  2
Realistic
 70
     8
 71
     2
 72
     2
 73
     0
 90
        0
 40
-0.6
 41
-30.0
 62
     5
 63
     7
421
 16777215
 74
     1
 91
        0
 64
     7
 65
   257
 75
     1
175
     1
 42
1.0
 92
        8
 66
     8
424
  7895160
 43
1.0
 76
     1
 77
     6
 78
     2
 67
     7
 79
     5
170
     0
171
     0
290
     0
174
     0
 93
       13
 44
0.0
173
     0
291
     0
 45
0.0
  0
VISUALSTYLE
  5
37
102
{ACAD_REACTORS
330
2A
102
}
102
{ACAD_XDICTIONARY
360
5BC
102
}
330
2A
100
AcDbVisualStyle
  2
Thicken
 70
    13
 71
     2
 72
     2
 73
     0
 90
        0
 40
-0.6
 41
-30.0
 62
     5
 63
     7
421
 16777215
 74
     1
 91
        4
 64
     7
 65
   257
 75
     1
175
     1
 42
1.0
 92
       12
 66
     7
 43
1.0
 76
     1
 77
     6
 78
     2
 67
     7
 79
     5
170
     0
171
     0
290
     0
174
     0
 93
        1
 44
0.0
173
     0
291
     1
 45
0.0
  0
DICTIONARY
  5
5AC
330
2F
100
AcDbDictionary
280
     1
281
     1
  3
ACAD_XREC_ROUNDTRIP
360
5AD
  0
DICTIONARY
  5
5B0
330
31
100
AcDbDictionary
280
     1
281
     1
  3
ACAD_XREC_ROUNDTRIP
360
5B1
  0
DICTIONARY
  5
5AE
330
30
100
AcDbDictionary
280
     1
281
     1
  3
ACAD_XREC_ROUNDTRIP
360
5AF
  0
DICTIONARY
  5
5B2
330
32
100
AcDbDictionary
280
     1
281
     1
  3
ACAD_XREC_ROUNDTRIP
360
5B3
  0
DICTIONARY
  5
5BA
330
36
100
AcDbDictionary
280
     1
281
     1
  3
ACAD_XREC_ROUNDTRIP
360
5BB
  0
DICTIONARY
  5
5C2
330
3A
100
AcDbDictionary
280
     1
281
     1
  3
ACAD_XREC_ROUNDTRIP
360
5C3
  0
DICTIONARY
  5
5B6
330
34
100
AcDbDictionary
280
     1
281
     1
  3
ACAD_XREC_ROUNDTRIP
360
5B7
  0
DICTIONARY
  5
5B8
330
35
100
AcDbDictionary
280
     1
281
     1
  3
ACAD_XREC_ROUNDTRIP
360
5B9
  0
DICTIONARY
  5
5C0
330
39
100
AcDbDictionary
280
     1
281
     1
  3
ACAD_XREC_ROUNDTRIP
360
5C1
  0
DICTIONARY
  5
5A4
330
2B
100
AcDbDictionary
280
     1
281
     1
  3
ACAD_XREC_ROUNDTRIP
360
5A5
  0
DICTIONARY
  5
5A6
330
2C
100
AcDbDictionary
280
     1
281
     1
  3
ACAD_XREC_ROUNDTRIP
360
5A7
  0
DICTIONARY
  5
5A8
330
2D
100
AcDbDictionary
280
     1
281
     1
  3
ACAD_XREC_ROUNDTRIP
360
5A9
  0
DICTIONARY
  5
5AA
330
2E
100
AcDbDictionary
280
     1
281
     1
  3
ACAD_XREC_ROUNDTRIP
360
5AB
  0
DICTIONARY
  5
5BE
330
38
100
AcDbDictionary
280
     1
281
     1
  3
ACAD_XREC_ROUNDTRIP
360
5BF
  0
DICTIONARY
  5
5B4
330
33
100
AcDbDictionary
280
     1
281
     1
  3
ACAD_XREC_ROUNDTRIP
360
5B5
  0
DICTIONARY
  5
5BC
330
37
100
AcDbDictionary
280
     1
281
     1
  3
ACAD_XREC_ROUNDTRIP
360
5BD
  0
XRECORD
  5
5AD
102
{ACAD_REACTORS
330
5AC
102
}
330
5AC
100
AcDbXrecord
280
     1
102
RTVSPropertyOp0
 70
     1
102
RTVSPropertyOp1
 70
     1
102
RTVSPropertyOp2
 70
     1
102
RTVSPropertyOp3
 70
     1
102
RTVSPropertyOp4
 70
     1
102
RTVSPropertyOp5
 70
     1
102
RTVSPropertyOp6
 70
     1
102
RTVSPropertyOp7
 70
     1
102
RTVSPropertyOp8
 70
     1
102
RTVSPropertyOp9
 70
     1
102
RTVSPropertyOp10
 70
     1
102
RTVSPropertyOp11
 70
     1
102
RTVSPropertyOp12
 70
     1
102
RTVSPropertyOp13
 70
     1
102
RTVSPropertyOp14
 70
     1
102
RTVSPropertyOp15
 70
     1
102
RTVSPropertyOp16
 70
     1
102
RTVSPropertyOp17
 70
     1
102
RTVSPropertyOp18
 70
     1
102
RTVSPropertyOp19
 70
     1
102
RTVSPropertyOp20
 70
     1
102
RTVSPropertyOp21
 70
     1
102
RTVSPropertyOp22
 70
     1
102
RTVSPropertyOp23
 70
     1
102
RTVSPropertyOp24
 70
     1
102
RTVSPropertyOp25
 70
     1
102
RTVSPropertyOp26
 70
     1
102
RTVSPropertyOp27
 70
     1
102
RTVSPropertyOp28
 70
     1
102
RTVSPropertyOp29
 70
     1
102
RTVSPropertyOp30
 70
     1
102
RTVSPropertyOp31
 70
     1
102
RTVSPropertyOp32
 70
     1
  0
XRECORD
  5
5B1
102
{ACAD_REACTORS
330
5B0
102
}
330
5B0
100
AcDbXrecord
280
     1
102
RTVSPropertyOp0
 70
     1
102
RTVSPropertyOp1
 70
     1
102
RTVSPropertyOp2
 70
     1
102
RTVSPropertyOp3
 70
     1
102
RTVSPropertyOp4
 70
     1
102
RTVSPropertyOp5
 70
     1
102
RTVSPropertyOp6
 70
     1
102
RTVSPropertyOp7
 70
     1
102
RTVSPropertyOp8
 70
     1
102
RTVSPropertyOp9
 70
     1
102
RTVSPropertyOp10
 70
     1
102
RTVSPropertyOp11
 70
     1
102
RTVSPropertyOp12
 70
     1
102
RTVSPropertyOp13
 70
     1
102
RTVSPropertyOp14
 70
     1
102
RTVSPropertyOp15
 70
     1
102
RTVSPropertyOp16
 70
     1
102
RTVSPropertyOp17
 70
     1
102
RTVSPropertyOp18
 70
     1
102
RTVSPropertyOp19
 70
     1
102
RTVSPropertyOp20
 70
     1
102
RTVSPropertyOp21
 70
     1
102
RTVSPropertyOp22
 70
     1
102
RTVSPropertyOp23
 70
     1
102
RTVSPropertyOp24
 70
     1
102
RTVSPropertyOp25
 70
     1
102
RTVSPropertyOp26
 70
     1
102
RTVSPropertyOp27
 70
     1
102
RTVSPropertyOp28
 70
     1
102
RTVSPropertyOp29
 70
     1
102
RTVSPropertyOp30
 70
     1
102
RTVSPropertyOp31
 70
     1
102
RTVSPropertyOp32
 70
     1
  0
XRECORD
  5
5AF
102
{ACAD_REACTORS
330
5AE
102
}
330
5AE
100
AcDbXrecord
280
     1
102
RTVSPropertyOp0
 70
     1
102
RTVSPropertyOp1
 70
     1
102
RTVSPropertyOp2
 70
     1
102
RTVSPropertyOp3
 70
     1
102
RTVSPropertyOp4
 70
     1
102
RTVSPropertyOp5
 70
     1
102
RTVSPropertyOp6
 70
     1
102
RTVSPropertyOp7
 70
     1
102
RTVSPropertyOp8
 70
     1
102
RTVSPropertyOp9
 70
     1
102
RTVSPropertyOp10
 70
     1
102
RTVSPropertyOp11
 70
     1
102
RTVSPropertyOp12
 70
     1
102
RTVSPropertyOp13
 70
     1
102
RTVSPropertyOp14
 70
     1
102
RTVSPropertyOp15
 70
     1
102
RTVSPropertyOp16
 70
     1
102
RTVSPropertyOp17
 70
     1
102
RTVSPropertyOp18
 70
     1
102
RTVSPropertyOp19
 70
     1
102
RTVSPropertyOp20
 70
     1
102
RTVSPropertyOp21
 70
     1
102
RTVSPropertyOp22
 70
     1
102
RTVSPropertyOp23
 70
     1
102
RTVSPropertyOp24
 70
     1
102
RTVSPropertyOp25
 70
     1
102
RTVSPropertyOp26
 70
     1
102
RTVSPropertyOp27
 70
     1
102
RTVSPropertyOp28
 70
     1
102
RTVSPropertyOp29
 70
     1
102
RTVSPropertyOp30
 70
     1
102
RTVSPropertyOp31
 70
     1
102
RTVSPropertyOp32
 70
     1
  0
XRECORD
  5
5B3
102
{ACAD_REACTORS
330
5B2
102
}
330
5B2
100
AcDbXrecord
280
     1
102
RTVSPropertyOp0
 70
     1
102
RTVSPropertyOp1
 70
     1
102
RTVSPropertyOp2
 70
     1
102
RTVSPropertyOp3
 70
     1
102
RTVSPropertyOp4
 70
     1
102
RTVSPropertyOp5
 70
     1
102
RTVSPropertyOp6
 70
     1
102
RTVSPropertyOp7
 70
     1
102
RTVSPropertyOp8
 70
     1
102
RTVSPropertyOp9
 70
     1
102
RTVSPropertyOp10
 70
     1
102
RTVSPropertyOp11
 70
     1
102
RTVSPropertyOp12
 70
     1
102
RTVSPropertyOp13
 70
     1
102
RTVSPropertyOp14
 70
     1
102
RTVSPropertyOp15
 70
     1
102
RTVSPropertyOp16
 70
     1
102
RTVSPropertyOp17
 70
     1
102
RTVSPropertyOp18
 70
     1
102
RTVSPropertyOp19
 70
     1
102
RTVSPropertyOp20
 70
     1
102
RTVSPropertyOp21
 70
     1
102
RTVSPropertyOp22
 70
     1
102
RTVSPropertyOp23
 70
     1
102
RTVSPropertyOp24
 70
     1
102
RTVSPropertyOp25
 70
     1
102
RTVSPropertyOp26
 70
     1
102
RTVSPropertyOp27
 70
     1
102
RTVSPropertyOp28
 70
     1
102
RTVSPropertyOp29
 70
     1
102
RTVSPropertyOp30
 70
     1
102
RTVSPropertyOp31
 70
     1
102
RTVSPropertyOp32
 70
     1
  0
XRECORD
  5
5BB
102
{ACAD_REACTORS
330
5BA
102
}
330
5BA
100
AcDbXrecord
280
     1
102
RTVSPropertyOp0
 70
     1
102
RTVSPropertyOp1
 70
     1
102
RTVSPropertyOp2
 70
     1
102
RTVSPropertyOp3
 70
     1
102
RTVSPropertyOp4
 70
     1
102
RTVSPropertyOp5
 70
     1
102
RTVSPropertyOp6
 70
     1
102
RTVSPropertyOp7
 70
     1
102
RTVSPropertyOp8
 70
     1
102
RTVSPropertyOp9
 70
     1
102
RTVSPropertyOp10
 70
     1
102
RTVSPropertyOp11
 70
     1
102
RTVSPropertyOp12
 70
     1
102
RTVSPropertyOp13
 70
     1
102
RTVSPropertyOp14
 70
     1
102
RTVSPropertyOp15
 70
     1
102
RTVSPropertyOp16
 70
     1
102
RTVSPropertyOp17
 70
     1
102
RTVSPropertyOp18
 70
     1
102
RTVSPropertyOp19
 70
     1
102
RTVSPropertyOp20
 70
     1
102
RTVSPropertyOp21
 70
     1
102
RTVSPropertyOp22
 70
     1
102
RTVSPropertyOp23
 70
     1
102
RTVSPropertyOp24
 70
     1
102
RTVSPropertyOp25
 70
     1
102
RTVSPropertyOp26
 70
     1
102
RTVSPropertyOp27
 70
     1
102
RTVSPropertyOp28
 70
     1
102
RTVSPropertyOp29
 70
     1
102
RTVSPropertyOp30
 70
     1
102
RTVSPropertyOp31
 70
     1
102
RTVSPropertyOp32
 70
     1
  0
XRECORD
  5
5C3
102
{ACAD_REACTORS
330
5C2
102
}
330
5C2
100
AcDbXrecord
280
     1
102
RTVSPropertyOp0
 70
     1
102
RTVSPropertyOp1
 70
     1
102
RTVSPropertyOp2
 70
     1
102
RTVSPropertyOp3
 70
     1
102
RTVSPropertyOp4
 70
     1
102
RTVSPropertyOp5
 70
     1
102
RTVSPropertyOp6
 70
     1
102
RTVSPropertyOp7
 70
     1
102
RTVSPropertyOp8
 70
     1
102
RTVSPropertyOp9
 70
     1
102
RTVSPropertyOp10
 70
     1
102
RTVSPropertyOp11
 70
     1
102
RTVSPropertyOp12
 70
     1
102
RTVSPropertyOp13
 70
     1
102
RTVSPropertyOp14
 70
     1
102
RTVSPropertyOp15
 70
     1
102
RTVSPropertyOp16
 70
     1
102
RTVSPropertyOp17
 70
     1
102
RTVSPropertyOp18
 70
     1
102
RTVSPropertyOp19
 70
     1
102
RTVSPropertyOp20
 70
     1
102
RTVSPropertyOp21
 70
     1
102
RTVSPropertyOp22
 70
     1
102
RTVSPropertyOp23
 70
     1
102
RTVSPropertyOp24
 70
     1
102
RTVSPropertyOp25
 70
     1
102
RTVSPropertyOp26
 70
     1
102
RTVSPropertyOp27
 70
     1
102
RTVSPropertyOp28
 70
     1
102
RTVSPropertyOp29
 70
     1
102
RTVSPropertyOp30
 70
     1
102
RTVSPropertyOp31
 70
     1
102
RTVSPropertyOp32
 70
     1
  0
XRECORD
  5
5B7
102
{ACAD_REACTORS
330
5B6
102
}
330
5B6
100
AcDbXrecord
280
     1
102
RTVSPropertyOp0
 70
     1
102
RTVSPropertyOp1
 70
     1
102
RTVSPropertyOp2
 70
     1
102
RTVSPropertyOp3
 70
     1
102
RTVSPropertyOp4
 70
     1
102
RTVSPropertyOp5
 70
     1
102
RTVSPropertyOp6
 70
     1
102
RTVSPropertyOp7
 70
     1
102
RTVSPropertyOp8
 70
     1
102
RTVSPropertyOp9
 70
     1
102
RTVSPropertyOp10
 70
     1
102
RTVSPropertyOp11
 70
     1
102
RTVSPropertyOp12
 70
     1
102
RTVSPropertyOp13
 70
     1
102
RTVSPropertyOp14
 70
     1
102
RTVSPropertyOp15
 70
     1
102
RTVSPropertyOp16
 70
     1
102
RTVSPropertyOp17
 70
     1
102
RTVSPropertyOp18
 70
     1
102
RTVSPropertyOp19
 70
     1
102
RTVSPropertyOp20
 70
     1
102
RTVSPropertyOp21
 70
     1
102
RTVSPropertyOp22
 70
     1
102
RTVSPropertyOp23
 70
     1
102
RTVSPropertyOp24
 70
     1
102
RTVSPropertyOp25
 70
     1
102
RTVSPropertyOp26
 70
     1
102
RTVSPropertyOp27
 70
     1
102
RTVSPropertyOp28
 70
     1
102
RTVSPropertyOp29
 70
     1
102
RTVSPropertyOp30
 70
     1
102
RTVSPropertyOp31
 70
     1
102
RTVSPropertyOp32
 70
     1
  0
XRECORD
  5
5B9
102
{ACAD_REACTORS
330
5B8
102
}
330
5B8
100
AcDbXrecord
280
     1
102
RTVSPropertyOp0
 70
     1
102
RTVSPropertyOp1
 70
     1
102
RTVSPropertyOp2
 70
     1
102
RTVSPropertyOp3
 70
     1
102
RTVSPropertyOp4
 70
     1
102
RTVSPropertyOp5
 70
     1
102
RTVSPropertyOp6
 70
     1
102
RTVSPropertyOp7
 70
     1
102
RTVSPropertyOp8
 70
     1
102
RTVSPropertyOp9
 70
     1
102
RTVSPropertyOp10
 70
     1
102
RTVSPropertyOp11
 70
     1
102
RTVSPropertyOp12
 70
     1
102
RTVSPropertyOp13
 70
     1
102
RTVSPropertyOp14
 70
     1
102
RTVSPropertyOp15
 70
     1
102
RTVSPropertyOp16
 70
     1
102
RTVSPropertyOp17
 70
     1
102
RTVSPropertyOp18
 70
     1
102
RTVSPropertyOp19
 70
     1
102
RTVSPropertyOp20
 70
     1
102
RTVSPropertyOp21
 70
     1
102
RTVSPropertyOp22
 70
     1
102
RTVSPropertyOp23
 70
     1
102
RTVSPropertyOp24
 70
     1
102
RTVSPropertyOp25
 70
     1
102
RTVSPropertyOp26
 70
     1
102
RTVSPropertyOp27
 70
     1
102
RTVSPropertyOp28
 70
     1
102
RTVSPropertyOp29
 70
     1
102
RTVSPropertyOp30
 70
     1
102
RTVSPropertyOp31
 70
     1
102
RTVSPropertyOp32
 70
     1
  0
XRECORD
  5
5C1
102
{ACAD_REACTORS
330
5C0
102
}
330
5C0
100
AcDbXrecord
280
     1
102
RTVSPropertyOp0
 70
     1
102
RTVSPropertyOp1
 70
     1
102
RTVSPropertyOp2
 70
     1
102
RTVSPropertyOp3
 70
     1
102
RTVSPropertyOp4
 70
     1
102
RTVSPropertyOp5
 70
     1
102
RTVSPropertyOp6
 70
     1
102
RTVSPropertyOp7
 70
     1
102
RTVSPropertyOp8
 70
     1
102
RTVSPropertyOp9
 70
     1
102
RTVSPropertyOp10
 70
     1
102
RTVSPropertyOp11
 70
     1
102
RTVSPropertyOp12
 70
     1
102
RTVSPropertyOp13
 70
     1
102
RTVSPropertyOp14
 70
     1
102
RTVSPropertyOp15
 70
     1
102
RTVSPropertyOp16
 70
     1
102
RTVSPropertyOp17
 70
     1
102
RTVSPropertyOp18
 70
     1
102
RTVSPropertyOp19
 70
     1
102
RTVSPropertyOp20
 70
     1
102
RTVSPropertyOp21
 70
     1
102
RTVSPropertyOp22
 70
     1
102
RTVSPropertyOp23
 70
     1
102
RTVSPropertyOp24
 70
     1
102
RTVSPropertyOp25
 70
     1
102
RTVSPropertyOp26
 70
     1
102
RTVSPropertyOp27
 70
     1
102
RTVSPropertyOp28
 70
     1
102
RTVSPropertyOp29
 70
     1
102
RTVSPropertyOp30
 70
     1
102
RTVSPropertyOp31
 70
     1
102
RTVSPropertyOp32
 70
     1
  0
XRECORD
  5
5A5
102
{ACAD_REACTORS
330
5A4
102
}
330
5A4
100
AcDbXrecord
280
     1
102
RTVSPropertyOp0
 70
     1
102
RTVSPropertyOp1
 70
     1
102
RTVSPropertyOp2
 70
     1
102
RTVSPropertyOp3
 70
     1
102
RTVSPropertyOp4
 70
     1
102
RTVSPropertyOp5
 70
     1
102
RTVSPropertyOp6
 70
     1
102
RTVSPropertyOp7
 70
     1
102
RTVSPropertyOp8
 70
     1
102
RTVSPropertyOp9
 70
     1
102
RTVSPropertyOp10
 70
     1
102
RTVSPropertyOp11
 70
     1
102
RTVSPropertyOp12
 70
     1
102
RTVSPropertyOp13
 70
     1
102
RTVSPropertyOp14
 70
     1
102
RTVSPropertyOp15
 70
     1
102
RTVSPropertyOp16
 70
     1
102
RTVSPropertyOp17
 70
     1
102
RTVSPropertyOp18
 70
     1
102
RTVSPropertyOp19
 70
     1
102
RTVSPropertyOp20
 70
     1
102
RTVSPropertyOp21
 70
     1
102
RTVSPropertyOp22
 70
     1
102
RTVSPropertyOp23
 70
     1
102
RTVSPropertyOp24
 70
     1
102
RTVSPropertyOp25
 70
     1
102
RTVSPropertyOp26
 70
     1
102
RTVSPropertyOp27
 70
     1
102
RTVSPropertyOp28
 70
     1
102
RTVSPropertyOp29
 70
     1
102
RTVSPropertyOp30
 70
     1
102
RTVSPropertyOp31
 70
     1
102
RTVSPropertyOp32
 70
     1
  0
XRECORD
  5
5A7
102
{ACAD_REACTORS
330
5A6
102
}
330
5A6
100
AcDbXrecord
280
     1
102
RTVSPropertyOp0
 70
     1
102
RTVSPropertyOp1
 70
     1
102
RTVSPropertyOp2
 70
     1
102
RTVSPropertyOp3
 70
     1
102
RTVSPropertyOp4
 70
     1
102
RTVSPropertyOp5
 70
     1
102
RTVSPropertyOp6
 70
     1
102
RTVSPropertyOp7
 70
     1
102
RTVSPropertyOp8
 70
     1
102
RTVSPropertyOp9
 70
     1
102
RTVSPropertyOp10
 70
     1
102
RTVSPropertyOp11
 70
     1
102
RTVSPropertyOp12
 70
     1
102
RTVSPropertyOp13
 70
     1
102
RTVSPropertyOp14
 70
     1
102
RTVSPropertyOp15
 70
     1
102
RTVSPropertyOp16
 70
     1
102
RTVSPropertyOp17
 70
     1
102
RTVSPropertyOp18
 70
     1
102
RTVSPropertyOp19
 70
     1
102
RTVSPropertyOp20
 70
     1
102
RTVSPropertyOp21
 70
     1
102
RTVSPropertyOp22
 70
     1
102
RTVSPropertyOp23
 70
     1
102
RTVSPropertyOp24
 70
     1
102
RTVSPropertyOp25
 70
     1
102
RTVSPropertyOp26
 70
     1
102
RTVSPropertyOp27
 70
     1
102
RTVSPropertyOp28
 70
     1
102
RTVSPropertyOp29
 70
     1
102
RTVSPropertyOp30
 70
     1
102
RTVSPropertyOp31
 70
     1
102
RTVSPropertyOp32
 70
     1
  0
XRECORD
  5
5A9
102
{ACAD_REACTORS
330
5A8
102
}
330
5A8
100
AcDbXrecord
280
     1
102
RTVSPropertyOp0
 70
     1
102
RTVSPropertyOp1
 70
     1
102
RTVSPropertyOp2
 70
     1
102
RTVSPropertyOp3
 70
     1
102
RTVSPropertyOp4
 70
     1
102
RTVSPropertyOp5
 70
     1
102
RTVSPropertyOp6
 70
     1
102
RTVSPropertyOp7
 70
     1
102
RTVSPropertyOp8
 70
     1
102
RTVSPropertyOp9
 70
     1
102
RTVSPropertyOp10
 70
     1
102
RTVSPropertyOp11
 70
     1
102
RTVSPropertyOp12
 70
     1
102
RTVSPropertyOp13
 70
     1
102
RTVSPropertyOp14
 70
     1
102
RTVSPropertyOp15
 70
     1
102
RTVSPropertyOp16
 70
     1
102
RTVSPropertyOp17
 70
     1
102
RTVSPropertyOp18
 70
     1
102
RTVSPropertyOp19
 70
     1
102
RTVSPropertyOp20
 70
     1
102
RTVSPropertyOp21
 70
     1
102
RTVSPropertyOp22
 70
     1
102
RTVSPropertyOp23
 70
     1
102
RTVSPropertyOp24
 70
     1
102
RTVSPropertyOp25
 70
     1
102
RTVSPropertyOp26
 70
     1
102
RTVSPropertyOp27
 70
     1
102
RTVSPropertyOp28
 70
     1
102
RTVSPropertyOp29
 70
     1
102
RTVSPropertyOp30
 70
     1
102
RTVSPropertyOp31
 70
     1
102
RTVSPropertyOp32
 70
     1
  0
XRECORD
  5
5AB
102
{ACAD_REACTORS
330
5AA
102
}
330
5AA
100
AcDbXrecord
280
     1
102
RTVSPropertyOp0
 70
     1
102
RTVSPropertyOp1
 70
     1
102
RTVSPropertyOp2
 70
     1
102
RTVSPropertyOp3
 70
     1
102
RTVSPropertyOp4
 70
     1
102
RTVSPropertyOp5
 70
     1
102
RTVSPropertyOp6
 70
     1
102
RTVSPropertyOp7
 70
     1
102
RTVSPropertyOp8
 70
     1
102
RTVSPropertyOp9
 70
     1
102
RTVSPropertyOp10
 70
     1
102
RTVSPropertyOp11
 70
     1
102
RTVSPropertyOp12
 70
     1
102
RTVSPropertyOp13
 70
     1
102
RTVSPropertyOp14
 70
     1
102
RTVSPropertyOp15
 70
     1
102
RTVSPropertyOp16
 70
     1
102
RTVSPropertyOp17
 70
     1
102
RTVSPropertyOp18
 70
     1
102
RTVSPropertyOp19
 70
     1
102
RTVSPropertyOp20
 70
     1
102
RTVSPropertyOp21
 70
     1
102
RTVSPropertyOp22
 70
     1
102
RTVSPropertyOp23
 70
     1
102
RTVSPropertyOp24
 70
     1
102
RTVSPropertyOp25
 70
     1
102
RTVSPropertyOp26
 70
     1
102
RTVSPropertyOp27
 70
     1
102
RTVSPropertyOp28
 70
     1
102
RTVSPropertyOp29
 70
     1
102
RTVSPropertyOp30
 70
     1
102
RTVSPropertyOp31
 70
     1
102
RTVSPropertyOp32
 70
     1
  0
XRECORD
  5
5BF
102
{ACAD_REACTORS
330
5BE
102
}
330
5BE
100
AcDbXrecord
280
     1
102
RTVSPropertyOp0
 70
     1
102
RTVSPropertyOp1
 70
     1
102
RTVSPropertyOp2
 70
     1
102
RTVSPropertyOp3
 70
     1
102
RTVSPropertyOp4
 70
     1
102
RTVSPropertyOp5
 70
     1
102
RTVSPropertyOp6
 70
     1
102
RTVSPropertyOp7
 70
     1
102
RTVSPropertyOp8
 70
     1
102
RTVSPropertyOp9
 70
     1
102
RTVSPropertyOp10
 70
     1
102
RTVSPropertyOp11
 70
     1
102
RTVSPropertyOp12
 70
     1
102
RTVSPropertyOp13
 70
     1
102
RTVSPropertyOp14
 70
     1
102
RTVSPropertyOp15
 70
     1
102
RTVSPropertyOp16
 70
     1
102
RTVSPropertyOp17
 70
     1
102
RTVSPropertyOp18
 70
     1
102
RTVSPropertyOp19
 70
     1
102
RTVSPropertyOp20
 70
     1
102
RTVSPropertyOp21
 70
     1
102
RTVSPropertyOp22
 70
     1
102
RTVSPropertyOp23
 70
     1
102
RTVSPropertyOp24
 70
     1
102
RTVSPropertyOp25
 70
     1
102
RTVSPropertyOp26
 70
     1
102
RTVSPropertyOp27
 70
     1
102
RTVSPropertyOp28
 70
     1
102
RTVSPropertyOp29
 70
     1
102
RTVSPropertyOp30
 70
     1
102
RTVSPropertyOp31
 70
     1
102
RTVSPropertyOp32
 70
     1
  0
XRECORD
  5
5B5
102
{ACAD_REACTORS
330
5B4
102
}
330
5B4
100
AcDbXrecord
280
     1
102
RTVSPropertyOp0
 70
     1
102
RTVSPropertyOp1
 70
     1
102
RTVSPropertyOp2
 70
     1
102
RTVSPropertyOp3
 70
     1
102
RTVSPropertyOp4
 70
     1
102
RTVSPropertyOp5
 70
     1
102
RTVSPropertyOp6
 70
     1
102
RTVSPropertyOp7
 70
     1
102
RTVSPropertyOp8
 70
     1
102
RTVSPropertyOp9
 70
     1
102
RTVSPropertyOp10
 70
     1
102
RTVSPropertyOp11
 70
     1
102
RTVSPropertyOp12
 70
     1
102
RTVSPropertyOp13
 70
     1
102
RTVSPropertyOp14
 70
     1
102
RTVSPropertyOp15
 70
     1
102
RTVSPropertyOp16
 70
     1
102
RTVSPropertyOp17
 70
     1
102
RTVSPropertyOp18
 70
     1
102
RTVSPropertyOp19
 70
     1
102
RTVSPropertyOp20
 70
     1
102
RTVSPropertyOp21
 70
     1
102
RTVSPropertyOp22
 70
     1
102
RTVSPropertyOp23
 70
     1
102
RTVSPropertyOp24
 70
     1
102
RTVSPropertyOp25
 70
     1
102
RTVSPropertyOp26
 70
     1
102
RTVSPropertyOp27
 70
     1
102
RTVSPropertyOp28
 70
     1
102
RTVSPropertyOp29
 70
     1
102
RTVSPropertyOp30
 70
     1
102
RTVSPropertyOp31
 70
     1
102
RTVSPropertyOp32
 70
     1
  0
XRECORD
  5
5BD
102
{ACAD_REACTORS
330
5BC
102
}
330
5BC
100
AcDbXrecord
280
     1
102
RTVSPropertyOp0
 70
     1
102
RTVSPropertyOp1
 70
     1
102
RTVSPropertyOp2
 70
     1
102
RTVSPropertyOp3
 70
     1
102
RTVSPropertyOp4
 70
     1
102
RTVSPropertyOp5
 70
     1
102
RTVSPropertyOp6
 70
     1
102
RTVSPropertyOp7
 70
     1
102
RTVSPropertyOp8
 70
     1
102
RTVSPropertyOp9
 70
     1
102
RTVSPropertyOp10
 70
     1
102
RTVSPropertyOp11
 70
     1
102
RTVSPropertyOp12
 70
     1
102
RTVSPropertyOp13
 70
     1
102
RTVSPropertyOp14
 70
     1
102
RTVSPropertyOp15
 70
     1
102
RTVSPropertyOp16
 70
     1
102
RTVSPropertyOp17
 70
     1
102
RTVSPropertyOp18
 70
     1
102
RTVSPropertyOp19
 70
     1
102
RTVSPropertyOp20
 70
     1
102
RTVSPropertyOp21
 70
     1
102
RTVSPropertyOp22
 70
     1
102
RTVSPropertyOp23
 70
     1
102
RTVSPropertyOp24
 70
     1
102
RTVSPropertyOp25
 70
     1
102
RTVSPropertyOp26
 70
     1
102
RTVSPropertyOp27
 70
     1
102
RTVSPropertyOp28
 70
     1
102
RTVSPropertyOp29
 70
     1
102
RTVSPropertyOp30
 70
     1
102
RTVSPropertyOp31
 70
     1
102
RTVSPropertyOp32
 70
     1
  0
ENDSEC
  0
EOF
