  0
SECTION
  2
HEADER
  9
$ACADVER
  1
AC1009
  9
$DWGCODEPAGE
  3
ansi_1252
  9
$INSBASE
 10
0.0
 20
0.0
 30
0.0
  9
$EXTMIN
 10
0.0
 20
0.0
 30
0.0
  9
$EXTMAX
 10
4455.0
 20
3150.0
 30
0.0
  9
$LIMMIN
 10
0.0
 20
0.0
  9
$LIMMAX
 10
4455.0
 20
3150.0
  9
$ORTHOMODE
 70
     0
  9
$REGENMODE
 70
     1
  9
$FILLMODE
 70
     1
  9
$QTEXTMODE
 70
     0
  9
$MIRRTEXT
 70
     1
  9
$DRAGMODE
 70
     2
  9
$LTSCALE
 40
15.0
  9
$OSMODE
 70
    37
  9
$ATTMODE
 70
     1
  9
$TEXTSIZE
 40
52.5
  9
$TRACEWID
 40
1.0
  9
$TEXTSTYLE
  7
STANDARD
  9
$CLAYER
  8
0
  9
$CELTYPE
  6
BYLAYER
  9
$CECOLOR
 62
   256
  9
$DIMSCALE
 40
1.0
  9
$DIMASZ
 40
37.5
  9
$DIMEXO
 40
0.0
  9
$DIMDLI
 40
3.75
  9
$DIMRND
 40
0.0
  9
$DIMDLE
 40
0.0
  9
$DIMEXE
 40
15.0
  9
$DIMTP
 40
0.0
  9
$DIMTM
 40
0.0
  9
$DIMTXT
 40
45.0
  9
$DIMCEN
 40
2.5
  9
$DIMTSZ
 40
0.0
  9
$DIMTOL
 70
     0
  9
$DIMLIM
 70
     0
  9
$DIMTIH
 70
     1
  9
$DIMTOH
 70
     1
  9
$DIMSE1
 70
     0
  9
$DIMSE2
 70
     0
  9
$DIMTAD
 70
     1
  9
$DIMZIN
 70
     0
  9
$DIMBLK
  1

  9
$DIMASO
 70
     1
  9
$DIMSHO
 70
     1
  9
$DIMPOST
  1

  9
$DIMAPOST
  1

  9
$DIMALT
 70
     0
  9
$DIMALTD
 70
     3
  9
$DIMALTF
 40
0.0393700787
  9
$DIMLFAC
 40
1.0
  9
$DIMTOFL
 70
     1
  9
$DIMTVP
 40
0.0
  9
$DIMTIX
 70
     0
  9
$DIMSOXD
 70
     0
  9
$DIMSAH
 70
     0
  9
$DIMBLK1
  1

  9
$DIMBLK2
  1

  9
$DIMSTYLE
  2
ISO-25
  9
$DIMCLRD
 70
     0
  9
$DIMCLRE
 70
     0
  9
$DIMCLRT
 70
     0
  9
$DIMTFAC
 40
1.0
  9
$DIMGAP
 40
22.5
  9
$LUNITS
 70
     2
  9
$LUPREC
 70
     2
  9
$SKETCHINC
 40
1.0
  9
$FILLETRAD
 40
10.0
  9
$AUNITS
 70
     0
  9
$AUPREC
 70
     2
  9
$MENU
  1
.
  9
$ELEVATION
 40
0.0
  9
$PELEVATION
 40
0.0
  9
$THICKNESS
 40
0.0
  9
$LIMCHECK
 70
     0
  9
$CHAMFERA
 40
0.0
  9
$CHAMFERB
 40
0.0
  9
$SKPOLY
 70
     0
  9
$TDCREATE
 40
2457156.416753577
  9
$TDUPDATE
 40
2457156.416754526
  9
$TDINDWG
 40
0.0000000116
  9
$TDUSRTIMER
 40
0.0000000116
  9
$USRTIMER
 70
     1
  9
$ANGBASE
 50
0.0
  9
$ANGDIR
 70
     0
  9
$PDMODE
 70
     0
  9
$PDSIZE
 40
-1.0
  9
$PLINEWID
 40
0.0
  9
$COORDS
 70
     1
  9
$SPLFRAME
 70
     0
  9
$SPLINETYPE
 70
     6
  9
$SPLINESEGS
 70
     8
  9
$ATTDIA
 70
     0
  9
$ATTREQ
 70
     1
  9
$HANDLING
 70
     1
  9
$HANDSEED
  5
3D3
  9
$SURFTAB1
 70
     6
  9
$SURFTAB2
 70
     6
  9
$SURFTYPE
 70
     6
  9
$SURFU
 70
     6
  9
$SURFV
 70
     6
  9
$UCSNAME
  2

  9
$UCSORG
 10
0.0
 20
0.0
 30
0.0
  9
$UCSXDIR
 10
1.0
 20
0.0
 30
0.0
  9
$UCSYDIR
 10
0.0
 20
1.0
 30
0.0
  9
$PUCSNAME
  2

  9
$PUCSORG
 10
0.0
 20
0.0
 30
0.0
  9
$PUCSXDIR
 10
1.0
 20
0.0
 30
0.0
  9
$PUCSYDIR
 10
0.0
 20
1.0
 30
0.0
  9
$USERI1
 70
     0
  9
$USERI2
 70
     0
  9
$USERI3
 70
     0
  9
$USERI4
 70
     0
  9
$USERI5
 70
     0
  9
$USERR1
 40
0.0
  9
$USERR2
 40
0.0
  9
$USERR3
 40
0.0
  9
$USERR4
 40
0.0
  9
$USERR5
 40
0.0
  9
$WORLDVIEW
 70
     1
  9
$SHADEDGE
 70
     3
  9
$SHADEDIF
 70
    70
  9
$TILEMODE
 70
     1
  9
$MAXACTVP
 70
    64
  9
$PLIMCHECK
 70
     0
  9
$PEXTMIN
 10
1.0000000000E+20
 20
1.0000000000E+20
 30
1.0000000000E+20
  9
$PEXTMAX
 10
-1.0000000000E+20
 20
-1.0000000000E+20
 30
-1.0000000000E+20
  9
$PLIMMIN
 10
0.0
 20
0.0
  9
$PLIMMAX
 10
420.0
 20
297.0
  9
$UNITMODE
 70
     0
  9
$VISRETAIN
 70
     1
  9
$PLINEGEN
 70
     0
  9
$PSLTSCALE
 70
     1
  0
ENDSEC
  0
SECTION
  2
TABLES
  0
TABLE
  2
VPORT
 70
     1
  0
VPORT
  2
*ACTIVE
 70
     0
 10
0.0
 20
0.0
 11
1.0
 21
1.0
 12
2227.5
 22
1575.0
 13
0.0
 23
0.0
 14
10.0
 24
10.0
 15
10.0
 25
10.0
 16
0.0
 26
0.0
 36
1.0
 17
0.0
 27
0.0
 37
0.0
 40
3150.0
 41
1.4142857143
 42
50.0
 43
0.0
 44
0.0
 50
0.0
 51
0.0
 71
     0
 72
  2000
 73
     1
 74
     3
 75
     0
 76
     0
 77
     0
 78
     0
  0
ENDTAB
  0
TABLE
  2
LTYPE
 70
     6
  0
LTYPE
  2
CONTINUOUS
 70
     0
  3
Solid line
 72
    65
 73
     0
 40
0.0
  0
LTYPE
  2
HIDDEN
 70
     0
  3
Hidden __ __ __ __ __ __ __ __ __ __ __ __ __ __
 72
    65
 73
     2
 40
1.905
 49
1.27
 49
-0.635
  0
LTYPE
  2
PHANTOM
 70
     0
  3
Phantom ______  __  __  ______  __  __  ______
 72
    65
 73
     6
 40
12.7
 49
6.35
 49
-1.27
 49
1.27
 49
-1.27
 49
1.27
 49
-1.27
  0
LTYPE
  2
CENTER
 70
     0
  3
Center ____ _ ____ _ ____ _ ____ _ ____ _ ____
 72
    65
 73
     4
 40
10.16
 49
6.35
 49
-1.27
 49
1.27
 49
-1.27
  0
LTYPE
  2
CENTERX2
 70
     0
  3
Center (2x) ________  __  ________  __  _____
 72
    65
 73
     4
 40
20.32
 49
12.7
 49
-2.54
 49
2.54
 49
-2.54
  0
LTYPE
  2
DOT2
 70
     0
  3
Dot (.5x) ........................................
 72
    65
 73
     2
 40
0.635
 49
0.0
 49
-0.635
  0
ENDTAB
  0
TABLE
  2
LAYER
 70
     2
  0
LAYER
  2
0
 70
     0
 62
     7
  6
CONTINUOUS
  0
LAYER
  2
FORMAT
 70
     0
 62
     7
  6
CONTINUOUS
  0
ENDTAB
  0
TABLE
  2
STYLE
 70
     1
  0
STYLE
  2
STANDARD
 70
     0
 40
0.0
 41
1.0
 50
0.0
 71
     0
 42
52.5
  3
txt
  4

  0
ENDTAB
  0
TABLE
  2
VIEW
 70
     0
  0
ENDTAB
  0
TABLE
  2
UCS
 70
     0
  0
ENDTAB
  0
TABLE
  2
APPID
 70
     1
  0
APPID
  2
ACAD
 70
     0
  0
ENDTAB
  0
TABLE
  2
DIMSTYLE
 70
     1
  0
DIMSTYLE
  2
ISO-25
 70
     0
  3

  4

  5

  6

  7

 40
1.0
 41
2.5
 42
0.625
 43
3.75
 44
1.25
 45
0.0
 46
0.0
 47
0.0
 48
0.0
140
2.5
141
2.5
142
0.0
143
0.0393700787
144
1.0
145
0.0
146
1.0
147
0.625
 71
     0
 72
     0
 73
     0
 74
     0
 75
     0
 76
     0
 77
     1
 78
     8
170
     0
171
     3
172
     1
173
     0
174
     0
175
     0
176
     0
177
     0
178
     0
  0
ENDTAB
  0
ENDSEC
  0
SECTION
  2
BLOCKS
  0
BLOCK
  8
0
  2
$MODEL_SPACE
 70
     0
 10
0.0
 20
0.0
 30
0.0
  3
$MODEL_SPACE
  1

  0
ENDBLK
  5
21
  8
0
  0
BLOCK
 67
     1
  8
0
  2
$PAPER_SPACE
 70
     0
 10
0.0
 20
0.0
 30
0.0
  3
$PAPER_SPACE
  1

  0
ENDBLK
  5
1D
 67
     1
  8
0
  0
BLOCK
  8
0
  2
SW_NOTE_0
 70
     0
 10
0.0
 20
0.0
 30
0.0
  3
SW_NOTE_0
  1

  0
TEXT
  5
E3
  8
0
  6
CONTINUOUS
 62
     0
 10
0.0
 20
9.5380216718
 30
0.0
 40
27.0
  1
Questo disegno e posto sotto la tutela delle vigenti Leggi e non puo essere utilizzato da terze persone se non previa autorizzazione scritta della PEDRALI
 41
0.6454545455
 11
0.0
 21
0.0
 31
0.0
 73
     1
  0
TEXT
  5
E4
  8
0
  6
CONTINUOUS
 62
     0
 10
2024.8454064131
 20
9.5380216718
 30
0.0
 40
27.0
  1
 S.p.A.
 41
0.7
 11
2024.8454064131
 21
0.0
 31
0.0
 73
     1
  0
ENDBLK
  5
E2
  8
0
  0
BLOCK
  8
0
  2
SW_NOTE_1
 70
     0
 10
0.0
 20
0.0
 30
0.0
  3
SW_NOTE_1
  1

  0
TEXT
  5
EB
  8
0
  6
CONTINUOUS
 62
     0
 10
0.0
 20
9.5380216718
 30
0.0
 40
27.0
  1
SCALA 
 41
0.7
 11
0.0
 21
0.0
 31
0.0
 73
     1
  0
TEXT
  5
EC
  8
0
  6
CONTINUOUS
 62
     0
 10
10.0065779407
 20
-54.4553202476
 30
0.0
 40
55.5625
  1
1:1
 41
0.7
 11
10.0065779407
 21
-74.083332438
 31
0.0
 73
     1
  0
ENDBLK
  5
EA
  8
0
  0
BLOCK
  8
0
  2
SW_CENTERMARKSYMBOL_0
 70
     0
 10
0.0
 20
0.0
 30
0.0
  3
SW_CENTERMARKSYMBOL_0
  1

  0
LINE
  5
126
  8
0
  6
CONTINUOUS
 62
     0
 10
0.0
 20
0.0
 30
0.0
 11
0.0
 21
2.5
 31
0.0
  0
LINE
  5
127
  8
0
  6
CONTINUOUS
 62
     0
 10
0.0
 20
0.0
 30
0.0
 11
-2.5
 21
0.0
 31
0.0
  0
LINE
  5
128
  8
0
  6
CONTINUOUS
 62
     0
 10
0.0
 20
0.0
 30
0.0
 11
0.0
 21
-2.5
 31
0.0
  0
LINE
  5
129
  8
0
  6
CONTINUOUS
 62
     0
 10
0.0
 20
0.0
 30
0.0
 11
2.5
 21
0.0
 31
0.0
  0
LINE
  5
12A
  8
0
  6
CONTINUOUS
 62
     0
 10
0.0
 20
5.0
 30
0.0
 11
0.0
 21
10.5
 31
0.0
  0
LINE
  5
12B
  8
0
  6
CONTINUOUS
 62
     0
 10
-5.0
 20
0.0
 30
0.0
 11
-10.5
 21
0.0
 31
0.0
  0
LINE
  5
12C
  8
0
  6
CONTINUOUS
 62
     0
 10
0.0
 20
-5.0
 30
0.0
 11
0.0
 21
-10.5
 31
0.0
  0
LINE
  5
12D
  8
0
  6
CONTINUOUS
 62
     0
 10
5.0
 20
0.0
 30
0.0
 11
10.5
 21
0.0
 31
0.0
  0
ENDBLK
  5
125
  8
0
  0
BLOCK
  8
0
  2
SW_CENTERMARKSYMBOL_1
 70
     0
 10
0.0
 20
0.0
 30
0.0
  3
SW_CENTERMARKSYMBOL_1
  1

  0
LINE
  5
132
  8
0
  6
CONTINUOUS
 62
     0
 10
0.0
 20
0.0
 30
0.0
 11
0.0
 21
2.5
 31
0.0
  0
LINE
  5
133
  8
0
  6
CONTINUOUS
 62
     0
 10
0.0
 20
0.0
 30
0.0
 11
-2.5
 21
0.0
 31
0.0
  0
LINE
  5
134
  8
0
  6
CONTINUOUS
 62
     0
 10
0.0
 20
0.0
 30
0.0
 11
0.0
 21
-2.5
 31
0.0
  0
LINE
  5
135
  8
0
  6
CONTINUOUS
 62
     0
 10
0.0
 20
0.0
 30
0.0
 11
2.5
 21
0.0
 31
0.0
  0
LINE
  5
136
  8
0
  6
CONTINUOUS
 62
     0
 10
0.0
 20
5.0
 30
0.0
 11
0.0
 21
10.5
 31
0.0
  0
LINE
  5
137
  8
0
  6
CONTINUOUS
 62
     0
 10
-5.0
 20
0.0
 30
0.0
 11
-10.5
 21
0.0
 31
0.0
  0
LINE
  5
138
  8
0
  6
CONTINUOUS
 62
     0
 10
0.0
 20
-5.0
 30
0.0
 11
0.0
 21
-10.5
 31
0.0
  0
LINE
  5
139
  8
0
  6
CONTINUOUS
 62
     0
 10
5.0
 20
0.0
 30
0.0
 11
10.5
 21
0.0
 31
0.0
  0
ENDBLK
  5
131
  8
0
  0
ENDSEC
  0
SECTION
  2
ENTITIES
  0
LINE
  5
70
  8
0
  6
CONTINUOUS
 62
     7
 10
4305.0
 20
150.0
 30
0.0
 11
4305.0
 21
3000.0
 31
0.0
  0
LINE
  5
71
  8
0
  6
CONTINUOUS
 62
   179
 10
3485.9848774669
 20
516.8961088487
 30
0.0
 11
3485.9848774669
 21
457.3006457873
 31
0.0
  0
LINE
  5
72
  8
0
  6
CONTINUOUS
 62
   179
 10
3485.9848774669
 20
516.8961088487
 30
0.0
 11
3534.9718663092
 21
516.8961088487
 31
0.0
  0
LINE
  5
73
  8
0
  6
CONTINUOUS
 62
   179
 10
3485.9848774669
 20
457.3006457873
 30
0.0
 11
3510.3648396303
 21
457.3006457873
 31
0.0
  0
LINE
  5
74
  8
0
  6
CONTINUOUS
 62
   179
 10
3510.3648396303
 20
457.3006457873
 30
0.0
 11
3510.3648396303
 21
478.9717232621
 31
0.0
  0
LINE
  5
75
  8
0
  6
CONTINUOUS
 62
   179
 10
3534.9718663087
 20
478.9717232621
 30
0.0
 11
3510.3648396303
 21
478.9717232621
 31
0.0
  0
LINE
  5
76
  8
0
  6
CONTINUOUS
 62
   179
 10
3510.3648396297
 20
489.8072620013
 30
0.0
 11
3510.3648396297
 21
506.0605701094
 31
0.0
  0
LINE
  5
77
  8
0
  6
CONTINUOUS
 62
   179
 10
3510.3648396297
 20
506.0605701094
 30
0.0
 11
3529.3858214715
 21
506.0605701094
 31
0.0
  0
LINE
  5
78
  8
0
  6
CONTINUOUS
 62
   179
 10
3510.3648396297
 20
489.8072620013
 30
0.0
 11
3529.3858214706
 21
489.8072620013
 31
0.0
  0
LINE
  5
79
  8
0
  6
CONTINUOUS
 62
   179
 10
3572.6691873807
 20
516.8961088463
 30
0.0
 11
3653.9357279222
 21
516.8961088463
 31
0.0
  0
LINE
  5
7A
  8
0
  6
CONTINUOUS
 62
   179
 10
3653.9357279222
 20
516.8961088463
 30
0.0
 11
3653.9357279222
 21
506.0605701064
 31
0.0
  0
LINE
  5
7B
  8
0
  6
CONTINUOUS
 62
   179
 10
3653.9357279222
 20
506.0605701064
 30
0.0
 11
3599.7580342278
 21
506.0605701064
 31
0.0
  0
LINE
  5
7C
  8
0
  6
CONTINUOUS
 62
   179
 10
3599.7580342278
 20
506.0605701064
 30
0.0
 11
3599.7580342278
 21
492.5161466829
 31
0.0
  0
LINE
  5
7D
  8
0
  6
CONTINUOUS
 62
   179
 10
3599.7580342278
 20
492.5161466829
 30
0.0
 11
3648.5179585548
 21
492.5161466829
 31
0.0
  0
LINE
  5
7E
  8
0
  6
CONTINUOUS
 62
   179
 10
3648.5179585548
 20
492.5161466829
 30
0.0
 11
3648.5179585548
 21
481.680607943
 31
0.0
  0
LINE
  5
7F
  8
0
  6
CONTINUOUS
 62
   179
 10
3648.5179585548
 20
481.680607943
 30
0.0
 11
3599.7580342278
 21
481.680607943
 31
0.0
  0
LINE
  5
80
  8
0
  6
CONTINUOUS
 62
   179
 10
3599.7580342278
 20
481.680607943
 30
0.0
 11
3599.7580342278
 21
468.1361845195
 31
0.0
  0
LINE
  5
81
  8
0
  6
CONTINUOUS
 62
   179
 10
3599.7580342278
 20
468.1361845195
 30
0.0
 11
3653.9357279222
 21
468.1361845195
 31
0.0
  0
LINE
  5
82
  8
0
  6
CONTINUOUS
 62
   179
 10
3653.9357279222
 20
468.1361845195
 30
0.0
 11
3653.9357279222
 21
457.3006457848
 31
0.0
  0
LINE
  5
83
  8
0
  6
CONTINUOUS
 62
   179
 10
3653.9357279222
 20
457.3006457848
 30
0.0
 11
3572.6691873807
 21
457.3006457848
 31
0.0
  0
LINE
  5
84
  8
0
  6
CONTINUOUS
 62
   179
 10
3659.353497295
 20
516.8961088464
 30
0.0
 11
3659.353497295
 21
457.3006457815
 31
0.0
  0
LINE
  5
85
  8
0
  6
CONTINUOUS
 62
   179
 10
3659.353497295
 20
516.8961088464
 30
0.0
 11
3708.1072890023
 21
516.8961088464
 31
0.0
  0
LINE
  5
86
  8
0
  6
CONTINUOUS
 62
   179
 10
3708.1072890026
 20
457.3006457815
 30
0.0
 11
3659.353497295
 21
457.3006457815
 31
0.0
  0
LINE
  5
87
  8
0
  6
CONTINUOUS
 62
   179
 10
3683.7334594547
 20
487.0983773105
 30
0.0
 11
3683.7334594547
 21
470.8450692033
 31
0.0
  0
LINE
  5
88
  8
0
  6
CONTINUOUS
 62
   179
 10
3683.7334594547
 20
470.8450692033
 30
0.0
 11
3709.420759152
 21
470.8450692033
 31
0.0
  0
LINE
  5
89
  8
0
  6
CONTINUOUS
 62
   179
 10
3683.7334594547
 20
487.0983773105
 30
0.0
 11
3683.7334594547
 21
503.351685424
 31
0.0
  0
LINE
  5
8A
  8
0
  6
CONTINUOUS
 62
   179
 10
3683.7334594547
 20
503.351685424
 30
0.0
 11
3709.420759152
 21
503.351685424
 31
0.0
  0
LINE
  5
8B
  8
0
  6
CONTINUOUS
 62
   179
 10
3756.873345944
 20
516.8961088508
 30
0.0
 11
3756.873345944
 21
457.3006457893
 31
0.0
  0
LINE
  5
8C
  8
0
  6
CONTINUOUS
 62
     7
 10
4093.1984921262
 20
420.0000000006
 30
0.0
 11
4093.1984921262
 21
285.0000000003
 31
0.0
  0
LINE
  5
8D
  8
0
  6
CONTINUOUS
 62
   179
 10
3756.873345944
 20
457.3006457893
 30
0.0
 11
3781.2533081074
 21
457.3006457893
 31
0.0
  0
LINE
  5
8E
  8
0
  6
CONTINUOUS
 62
   179
 10
3781.2533081074
 20
457.3006457893
 30
0.0
 11
3781.2533081074
 21
478.9717232638
 31
0.0
  0
LINE
  5
8F
  8
0
  6
CONTINUOUS
 62
   179
 10
3781.2533081074
 20
478.9717232638
 30
0.0
 11
3808.3421549548
 21
478.9717232638
 31
0.0
  0
LINE
  5
90
  8
0
  6
CONTINUOUS
 62
   179
 10
3819.1776936947
 20
468.136184524
 30
0.0
 11
3819.1776936947
 21
457.3006457879
 31
0.0
  0
LINE
  5
91
  8
0
  6
CONTINUOUS
 62
   179
 10
3781.2533081066
 20
489.8072620008
 30
0.0
 11
3781.2533081066
 21
506.0605701103
 31
0.0
  0
LINE
  5
92
  8
0
  6
CONTINUOUS
 62
   179
 10
3781.2533081066
 20
506.0605701103
 30
0.0
 11
3807.717258628
 21
506.0605701103
 31
0.0
  0
LINE
  5
93
  8
0
  6
CONTINUOUS
 62
   179
 10
3781.2533081066
 20
489.8072620008
 30
0.0
 11
3807.717258628
 21
489.8072620008
 31
0.0
  0
LINE
  5
94
  8
0
  6
CONTINUOUS
 62
   179
 10
3838.3053032889
 20
472.156436938
 30
0.0
 11
3840.5333019761
 21
463.4514816274
 31
0.0
  0
LINE
  5
95
  8
0
  6
CONTINUOUS
 62
     7
 10
4305.0
 20
3000.0
 30
0.0
 11
150.0
 21
3000.0
 31
0.0
  0
LINE
  5
96
  8
0
  6
CONTINUOUS
 62
     7
 10
4093.1984921262
 20
285.0000000003
 30
0.0
 11
4093.1984921262
 21
150.0
 31
0.0
  0
LINE
  5
97
  8
0
  6
CONTINUOUS
 62
     7
 10
150.0
 20
3000.0
 30
0.0
 11
150.0
 21
150.0
 31
0.0
  0
LINE
  5
98
  8
0
  6
CONTINUOUS
 62
     7
 10
3225.0
 20
555.0000000009
 30
0.0
 11
4305.0
 21
555.0000000009
 31
0.0
  0
LINE
  5
99
  8
0
  6
CONTINUOUS
 62
    19
 10
4192.9326190259
 20
240.4182064643
 30
0.0
 11
4145.1273994681
 21
231.1227471059
 31
0.0
  0
LINE
  5
9A
  8
0
  6
CONTINUOUS
 62
    19
 10
4232.0258777281
 20
248.2322360861
 30
0.0
 11
4232.0258777281
 21
187.321545177
 31
0.0
  0
LINE
  5
9B
  8
0
  6
CONTINUOUS
 62
    19
 10
4192.9326190259
 20
240.4182064643
 30
0.0
 11
4192.9326190259
 21
195.1355747988
 31
0.0
  0
LINE
  5
9C
  8
0
  6
CONTINUOUS
 62
     7
 10
150.0
 20
150.0
 30
0.0
 11
4305.0
 21
150.0
 31
0.0
  0
LINE
  5
9D
  8
0
  6
CONTINUOUS
 62
    19
 10
4145.1273994681
 20
231.1227471059
 30
0.0
 11
4145.1273994681
 21
204.4310341572
 31
0.0
  0
LINE
  5
9E
  8
0
  6
CONTINUOUS
 62
   179
 10
3819.1776936947
 20
457.3006457879
 30
0.0
 11
3865.2287333388
 21
457.3006457879
 31
0.0
  0
LINE
  5
9F
  8
0
  6
CONTINUOUS
 62
    19
 10
4192.9326190259
 20
195.1355747988
 30
0.0
 11
4145.1273994681
 21
204.4310341572
 31
0.0
  0
LINE
  5
A0
  8
0
  6
CENTERX2
 62
    19
 10
4258.3810686372
 20
217.7768906315
 30
0.0
 11
4139.1778035964
 21
217.7768906315
 31
0.0
  0
LINE
  5
A1
  8
0
  6
CONTINUOUS
 62
   179
 10
3756.873345944
 20
516.8961088508
 30
0.0
 11
3813.0288874587
 21
516.8961088508
 31
0.0
  0
LINE
  5
A2
  8
0
  6
CONTINUOUS
 62
   179
 10
3572.6691873807
 20
516.8961088463
 30
0.0
 11
3572.6691873807
 21
457.3006457848
 31
0.0
  0
LINE
  5
A3
  8
0
  6
CONTINUOUS
 62
   179
 10
3876.0642720787
 20
516.8961088494
 30
0.0
 11
3903.1531189258
 21
516.8961088494
 31
0.0
  0
LINE
  5
A4
  8
0
  6
CONTINUOUS
 62
   179
 10
3876.0642720787
 20
516.8961088494
 30
0.0
 11
3841.0614673168
 21
461.8917013713
 31
0.0
  0
LINE
  5
A5
  8
0
  6
CONTINUOUS
 62
   179
 10
3865.2287333388
 20
457.3006457879
 30
0.0
 11
3871.3237238796
 21
468.1361845226
 31
0.0
  0
LINE
  5
A6
  8
0
  6
CONTINUOUS
 62
   179
 10
3889.6086955011
 20
500.6428007391
 30
0.0
 11
3901.7986765828
 21
478.9717232594
 31
0.0
  0
LINE
  5
A7
  8
0
  6
CONTINUOUS
 62
   179
 10
3877.4187144194
 20
478.9717232594
 30
0.0
 11
3889.6086955011
 21
500.6428007391
 31
0.0
  0
LINE
  5
A8
  8
0
  6
CONTINUOUS
 62
   179
 10
3877.4187144194
 20
478.9717232594
 30
0.0
 11
3901.7986765828
 21
478.9717232594
 31
0.0
  0
LINE
  5
A9
  8
0
  6
CONTINUOUS
 62
   179
 10
3871.3237238796
 20
468.1361845226
 30
0.0
 11
3907.8936671249
 21
468.1361845226
 31
0.0
  0
LINE
  5
AA
  8
0
  6
CONTINUOUS
 62
   179
 10
3907.8936671249
 20
468.1361845226
 30
0.0
 11
3913.9886576656
 21
457.3006457879
 31
0.0
  0
LINE
  5
AB
  8
0
  6
CONTINUOUS
 62
   179
 10
3941.077504513
 20
516.8961088494
 30
0.0
 11
3941.077504513
 21
457.3006457879
 31
0.0
  0
LINE
  5
AC
  8
0
  6
CONTINUOUS
 62
   179
 10
3903.1531189258
 20
516.8961088494
 30
0.0
 11
3941.077504513
 21
457.3006457879
 31
0.0
  0
LINE
  5
AD
  8
0
  6
CONTINUOUS
 62
   179
 10
3913.9886576656
 20
457.3006457879
 30
0.0
 11
3941.077504513
 21
457.3006457879
 31
0.0
  0
LINE
  5
AE
  8
0
  6
CONTINUOUS
 62
   179
 10
3941.077504513
 20
457.3006457879
 30
0.0
 11
4014.2173910035
 21
457.3006457879
 31
0.0
  0
LINE
  5
AF
  8
0
  6
CONTINUOUS
 62
   179
 10
4014.2173910035
 20
457.3006457879
 30
0.0
 11
4014.2173910035
 21
470.8450692114
 31
0.0
  0
LINE
  5
B0
  8
0
  6
CONTINUOUS
 62
   179
 10
4014.2173910035
 20
470.8450692114
 30
0.0
 11
3968.1663513601
 21
470.8450692114
 31
0.0
  0
LINE
  5
B1
  8
0
  6
CONTINUOUS
 62
   179
 10
3968.1663513601
 20
470.8450692114
 30
0.0
 11
3968.1663513601
 21
516.8961088494
 31
0.0
  0
LINE
  5
B2
  8
0
  6
CONTINUOUS
 62
   179
 10
3941.077504513
 20
516.8961088494
 30
0.0
 11
3968.1663513601
 21
516.8961088494
 31
0.0
  0
LINE
  5
B3
  8
0
  6
CONTINUOUS
 62
   179
 10
4016.926275686
 20
516.8961088487
 30
0.0
 11
4016.926275686
 21
457.3006457873
 31
0.0
  0
LINE
  5
B4
  8
0
  6
CONTINUOUS
 62
   179
 10
4044.0151225331
 20
516.8961088487
 30
0.0
 11
4044.0151225331
 21
457.3006457873
 31
0.0
  0
LINE
  5
B5
  8
0
  6
CONTINUOUS
 62
   179
 10
4016.926275686
 20
516.8961088487
 30
0.0
 11
4044.0151225331
 21
516.8961088487
 31
0.0
  0
LINE
  5
B6
  8
0
  6
CONTINUOUS
 62
   179
 10
4016.926275686
 20
457.3006457873
 30
0.0
 11
4044.0151225331
 21
457.3006457873
 31
0.0
  0
LINE
  5
B7
  8
0
  6
CONTINUOUS
 62
   179
 10
4056.1727466361
 20
511.9395831343
 30
0.0
 11
4062.4300319759
 21
511.9395831343
 31
0.0
  0
LINE
  5
B8
  8
0
  6
CONTINUOUS
 62
   179
 10
4062.4300319759
 20
507.8762561058
 30
0.0
 11
4056.1727466361
 21
507.8762561058
 31
0.0
  0
LINE
  5
B9
  8
0
  6
CONTINUOUS
 62
   179
 10
4056.1727466361
 20
507.8762561058
 30
0.0
 11
4056.1727466361
 21
511.9395831343
 31
0.0
  0
LINE
  5
BA
  8
0
  6
CONTINUOUS
 62
   179
 10
4056.1727466361
 20
507.8762561058
 30
0.0
 11
4060.2360736616
 21
507.8762561058
 31
0.0
  0
LINE
  5
BB
  8
0
  6
CONTINUOUS
 62
   179
 10
4056.1727466361
 20
507.8762561058
 30
0.0
 11
4056.1727466361
 21
501.7812655676
 31
0.0
  0
LINE
  5
BC
  8
0
  6
CONTINUOUS
 62
   179
 10
4064.2994006871
 20
501.7812655676
 30
0.0
 11
4060.2360736616
 21
507.8762561058
 31
0.0
  0
LINE
  5
BD
  8
0
  6
CONTINUOUS
 62
     7
 10
3225.0
 20
285.0000000003
 30
0.0
 11
4305.0
 21
285.0000000003
 31
0.0
  0
LINE
  5
BE
  8
0
  6
CONTINUOUS
 62
     7
 10
4305.0
 20
420.0000000006
 30
0.0
 11
3225.0
 21
420.0000000006
 31
0.0
  0
LINE
  5
BF
  8
0
  6
CONTINUOUS
 62
     7
 10
150.0
 20
825.0
 30
0.0
 11
150.0
 21
975.0
 31
0.0
  0
LINE
  5
C0
  8
0
  6
CONTINUOUS
 62
     7
 10
150.0
 20
975.0
 30
0.0
 11
150.0
 21
1125.0
 31
0.0
  0
LINE
  5
C1
  8
0
  6
CONTINUOUS
 62
     7
 10
150.0
 20
1125.0
 30
0.0
 11
150.0
 21
1275.0
 31
0.0
  0
LINE
  5
C2
  8
0
  6
CONTINUOUS
 62
     7
 10
150.0
 20
1275.0
 30
0.0
 11
150.0
 21
1425.0
 31
0.0
  0
LINE
  5
C3
  8
0
  6
CONTINUOUS
 62
     7
 10
150.0
 20
1425.0
 30
0.0
 11
150.0
 21
1575.0
 31
0.0
  0
LINE
  5
C4
  8
0
  6
CONTINUOUS
 62
     7
 10
150.0
 20
1575.0
 30
0.0
 11
150.0
 21
1725.0
 31
0.0
  0
LINE
  5
C5
  8
0
  6
CONTINUOUS
 62
     7
 10
150.0
 20
1725.0
 30
0.0
 11
150.0
 21
1875.0
 31
0.0
  0
LINE
  5
C6
  8
0
  6
CONTINUOUS
 62
     7
 10
150.0
 20
1875.0
 30
0.0
 11
150.0
 21
2025.0
 31
0.0
  0
LINE
  5
C7
  8
0
  6
CONTINUOUS
 62
     7
 10
150.0
 20
2025.0
 30
0.0
 11
150.0
 21
2175.0
 31
0.0
  0
LINE
  5
C8
  8
0
  6
CONTINUOUS
 62
     7
 10
150.0
 20
2175.0
 30
0.0
 11
150.0
 21
2325.0
 31
0.0
  0
LINE
  5
C9
  8
0
  6
CONTINUOUS
 62
     7
 10
3225.0
 20
555.0000000009
 30
0.0
 11
3225.0
 21
150.0
 31
0.0
  0
ARC
  5
CA
  8
0
  6
CONTINUOUS
 62
   179
 10
3529.3858214715
 20
495.2250313732
 30
0.0
 40
10.83553873622431
 50
69.991210111
 51
90.0
  0
ARC
  5
CB
  8
0
  6
CONTINUOUS
 62
   179
 10
3529.3858214706
 20
500.6428007401
 30
0.0
 40
10.83553873881613
 50
270.0
 51
290.0087898887
  0
ARC
  5
CC
  8
0
  6
CONTINUOUS
 62
   179
 10
3709.420759152
 20
487.0983773133
 30
0.0
 40
16.25330811077811
 50
56.1685552524
 51
90.0
  0
ARC
  5
CD
  8
0
  6
CONTINUOUS
 62
   179
 10
3709.420759152
 20
487.0983773133
 30
0.0
 40
16.2533081099705
 50
270.0
 51
303.830934914
  0
ARC
  5
CE
  8
0
  6
CONTINUOUS
 62
   179
 10
3808.3421549548
 20
468.136184524
 30
0.0
 40
10.83553873986693
 50
0.0
 51
90.0
  0
ARC
  5
CF
  8
0
  6
CONTINUOUS
 62
   179
 10
3807.717258628
 20
497.9339160561
 30
0.0
 40
8.126654054165272
 50
54.413089495
 51
90.0
  0
ARC
  5
D0
  8
0
  6
CONTINUOUS
 62
   179
 10
3807.717258628
 20
497.9339160561
 30
0.0
 40
8.126654055322035
 50
270.0
 51
305.5869104966
  0
ARC
  5
D1
  8
0
  6
CONTINUOUS
 62
   179
 10
3823.5563773944
 20
469.4441941063
 30
0.0
 40
14.99623540163448
 50
10.4199484279
 51
80.7321727594
  0
ARC
  5
D2
  8
0
  6
CONTINUOUS
 62
   179
 10
3848.1803499564
 20
465.1715759511
 30
0.0
 40
7.838116310390694
 50
192.6768785101
 51
204.7368873207
  0
CIRCLE
  5
D3
  8
0
  6
CONTINUOUS
 62
   179
 10
4059.4296312926
 20
506.8013546003
 30
0.0
 40
8.8951532178462
  0
CIRCLE
  5
D4
  8
0
  6
CONTINUOUS
 62
    19
 10
4232.0258777281
 20
217.7768906315
 30
0.0
 40
12.88061814414652
  0
CIRCLE
  5
D5
  8
0
  6
CONTINUOUS
 62
    19
 10
4232.0258777281
 20
217.7768906315
 30
0.0
 40
25.16390372495578
  0
POLYLINE
  5
D6
  8
0
  6
CONTINUOUS
 62
   179
 66
     1
 10
0.0
 20
0.0
 30
0.0
 70
   128
  0
VERTEX
  5
177
  8
0
  6
CONTINUOUS
 62
   179
 10
3533.0933559972
 20
490.4612936073
 30
0.0
  0
VERTEX
  5
178
  8
0
  6
CONTINUOUS
 62
   179
 10
3533.4255731562
 20
490.585873474
 30
0.0
  0
VERTEX
  5
179
  8
0
  6
CONTINUOUS
 62
   179
 10
3533.7520901657
 20
490.7155851245
 30
0.0
  0
VERTEX
  5
17A
  8
0
  6
CONTINUOUS
 62
   179
 10
3534.0726789903
 20
490.8503379698
 30
0.0
  0
VERTEX
  5
17B
  8
0
  6
CONTINUOUS
 62
   179
 10
3534.3871157346
 20
490.9900379001
 30
0.0
  0
VERTEX
  5
17C
  8
0
  6
CONTINUOUS
 62
   179
 10
3534.6951807998
 20
491.1345873507
 30
0.0
  0
VERTEX
  5
17D
  8
0
  6
CONTINUOUS
 62
   179
 10
3534.996659037
 20
491.2838853699
 30
0.0
  0
VERTEX
  5
17E
  8
0
  6
CONTINUOUS
 62
   179
 10
3535.2913398974
 20
491.4378276899
 30
0.0
  0
VERTEX
  5
17F
  8
0
  6
CONTINUOUS
 62
   179
 10
3535.5790175796
 20
491.5963067992
 30
0.0
  0
VERTEX
  5
180
  8
0
  6
CONTINUOUS
 62
   179
 10
3535.8594911728
 20
491.759212018
 30
0.0
  0
VERTEX
  5
181
  8
0
  6
CONTINUOUS
 62
   179
 10
3536.1325647978
 20
491.9264295751
 30
0.0
  0
VERTEX
  5
182
  8
0
  6
CONTINUOUS
 62
   179
 10
3536.3980477432
 20
492.0978426879
 30
0.0
  0
VERTEX
  5
183
  8
0
  6
CONTINUOUS
 62
   179
 10
3536.655754599
 20
492.2733316436
 30
0.0
  0
VERTEX
  5
184
  8
0
  6
CONTINUOUS
 62
   179
 10
3536.9055053858
 20
492.4527738828
 30
0.0
  0
VERTEX
  5
185
  8
0
  6
CONTINUOUS
 62
   179
 10
3537.1471256807
 20
492.6360440851
 30
0.0
  0
VERTEX
  5
186
  8
0
  6
CONTINUOUS
 62
   179
 10
3537.3804467391
 20
492.823014257
 30
0.0
  0
VERTEX
  5
187
  8
0
  6
CONTINUOUS
 62
   179
 10
3537.6053056122
 20
493.0135538207
 30
0.0
  0
VERTEX
  5
188
  8
0
  6
CONTINUOUS
 62
   179
 10
3537.8215452615
 20
493.2075297057
 30
0.0
  0
VERTEX
  5
189
  8
0
  6
CONTINUOUS
 62
   179
 10
3538.0290146678
 20
493.4048064416
 30
0.0
  0
VERTEX
  5
18A
  8
0
  6
CONTINUOUS
 62
   179
 10
3538.2275689369
 20
493.6052462527
 30
0.0
  0
VERTEX
  5
18B
  8
0
  6
CONTINUOUS
 62
   179
 10
3538.417069401
 20
493.8087091543
 30
0.0
  0
VERTEX
  5
18C
  8
0
  6
CONTINUOUS
 62
   179
 10
3538.5973837152
 20
494.0150530503
 30
0.0
  0
VERTEX
  5
18D
  8
0
  6
CONTINUOUS
 62
   179
 10
3538.7683859502
 20
494.2241338328
 30
0.0
  0
VERTEX
  5
18E
  8
0
  6
CONTINUOUS
 62
   179
 10
3538.9299566802
 20
494.4358054821
 30
0.0
  0
VERTEX
  5
18F
  8
0
  6
CONTINUOUS
 62
   179
 10
3539.081983066
 20
494.6499201694
 30
0.0
  0
VERTEX
  5
190
  8
0
  6
CONTINUOUS
 62
   179
 10
3539.2243589343
 20
494.8663283596
 30
0.0
  0
VERTEX
  5
191
  8
0
  6
CONTINUOUS
 62
   179
 10
3539.3569848516
 20
495.0848789159
 30
0.0
  0
VERTEX
  5
192
  8
0
  6
CONTINUOUS
 62
   179
 10
3539.4797681934
 20
495.3054192051
 30
0.0
  0
VERTEX
  5
193
  8
0
  6
CONTINUOUS
 62
   179
 10
3539.5926232094
 20
495.5277952046
 30
0.0
  0
VERTEX
  5
194
  8
0
  6
CONTINUOUS
 62
   179
 10
3539.6954710831
 20
495.7518516098
 30
0.0
  0
VERTEX
  5
195
  8
0
  6
CONTINUOUS
 62
   179
 10
3539.7882399866
 20
495.9774319423
 30
0.0
  0
VERTEX
  5
196
  8
0
  6
CONTINUOUS
 62
   179
 10
3539.8708651314
 20
496.2043786596
 30
0.0
  0
VERTEX
  5
197
  8
0
  6
CONTINUOUS
 62
   179
 10
3539.943288813
 20
496.4325332648
 30
0.0
  0
VERTEX
  5
198
  8
0
  6
CONTINUOUS
 62
   179
 10
3540.0054604516
 20
496.6617364175
 30
0.0
  0
VERTEX
  5
199
  8
0
  6
CONTINUOUS
 62
   179
 10
3540.0573366273
 20
496.891828045
 30
0.0
  0
VERTEX
  5
19A
  8
0
  6
CONTINUOUS
 62
   179
 10
3540.0988811104
 20
497.1226474542
 30
0.0
  0
VERTEX
  5
19B
  8
0
  6
CONTINUOUS
 62
   179
 10
3540.1300648868
 20
497.3540334436
 30
0.0
  0
VERTEX
  5
19C
  8
0
  6
CONTINUOUS
 62
   179
 10
3540.150866178
 20
497.5858244159
 30
0.0
  0
VERTEX
  5
19D
  8
0
  6
CONTINUOUS
 62
   179
 10
3540.1612704567
 20
497.8178584912
 30
0.0
  0
VERTEX
  5
19E
  8
0
  6
CONTINUOUS
 62
   179
 10
3540.1612704567
 20
498.0499736197
 30
0.0
  0
VERTEX
  5
19F
  8
0
  6
CONTINUOUS
 62
   179
 10
3540.150866178
 20
498.282007695
 30
0.0
  0
VERTEX
  5
1A0
  8
0
  6
CONTINUOUS
 62
   179
 10
3540.1300648868
 20
498.5137986673
 30
0.0
  0
VERTEX
  5
1A1
  8
0
  6
CONTINUOUS
 62
   179
 10
3540.0988811104
 20
498.7451846566
 30
0.0
  0
VERTEX
  5
1A2
  8
0
  6
CONTINUOUS
 62
   179
 10
3540.0573366273
 20
498.9760040658
 30
0.0
  0
VERTEX
  5
1A3
  8
0
  6
CONTINUOUS
 62
   179
 10
3540.0054604516
 20
499.2060956933
 30
0.0
  0
VERTEX
  5
1A4
  8
0
  6
CONTINUOUS
 62
   179
 10
3539.943288813
 20
499.4352988461
 30
0.0
  0
VERTEX
  5
1A5
  8
0
  6
CONTINUOUS
 62
   179
 10
3539.8708651314
 20
499.6634534513
 30
0.0
  0
VERTEX
  5
1A6
  8
0
  6
CONTINUOUS
 62
   179
 10
3539.7882399866
 20
499.8904001685
 30
0.0
  0
VERTEX
  5
1A7
  8
0
  6
CONTINUOUS
 62
   179
 10
3539.6954710831
 20
500.115980501
 30
0.0
  0
VERTEX
  5
1A8
  8
0
  6
CONTINUOUS
 62
   179
 10
3539.5926232094
 20
500.3400369062
 30
0.0
  0
VERTEX
  5
1A9
  8
0
  6
CONTINUOUS
 62
   179
 10
3539.4797681934
 20
500.5624129057
 30
0.0
  0
VERTEX
  5
1AA
  8
0
  6
CONTINUOUS
 62
   179
 10
3539.3569848516
 20
500.782953195
 30
0.0
  0
VERTEX
  5
1AB
  8
0
  6
CONTINUOUS
 62
   179
 10
3539.2243589344
 20
501.0015037512
 30
0.0
  0
VERTEX
  5
1AC
  8
0
  6
CONTINUOUS
 62
   179
 10
3539.081983066
 20
501.2179119414
 30
0.0
  0
VERTEX
  5
1AD
  8
0
  6
CONTINUOUS
 62
   179
 10
3538.9299566802
 20
501.4320266287
 30
0.0
  0
VERTEX
  5
1AE
  8
0
  6
CONTINUOUS
 62
   179
 10
3538.7683859503
 20
501.6436982781
 30
0.0
  0
VERTEX
  5
1AF
  8
0
  6
CONTINUOUS
 62
   179
 10
3538.5973837152
 20
501.8527790605
 30
0.0
  0
VERTEX
  5
1B0
  8
0
  6
CONTINUOUS
 62
   179
 10
3538.417069401
 20
502.0591229565
 30
0.0
  0
VERTEX
  5
1B1
  8
0
  6
CONTINUOUS
 62
   179
 10
3538.227568937
 20
502.2625858581
 30
0.0
  0
VERTEX
  5
1B2
  8
0
  6
CONTINUOUS
 62
   179
 10
3538.0290146678
 20
502.4630256692
 30
0.0
  0
VERTEX
  5
1B3
  8
0
  6
CONTINUOUS
 62
   179
 10
3537.8215452616
 20
502.6603024051
 30
0.0
  0
VERTEX
  5
1B4
  8
0
  6
CONTINUOUS
 62
   179
 10
3537.6053056123
 20
502.8542782901
 30
0.0
  0
VERTEX
  5
1B5
  8
0
  6
CONTINUOUS
 62
   179
 10
3537.3804467391
 20
503.0448178538
 30
0.0
  0
VERTEX
  5
1B6
  8
0
  6
CONTINUOUS
 62
   179
 10
3537.1471256808
 20
503.2317880257
 30
0.0
  0
VERTEX
  5
1B7
  8
0
  6
CONTINUOUS
 62
   179
 10
3536.9055053858
 20
503.4150582281
 30
0.0
  0
VERTEX
  5
1B8
  8
0
  6
CONTINUOUS
 62
   179
 10
3536.655754599
 20
503.5945004672
 30
0.0
  0
VERTEX
  5
1B9
  8
0
  6
CONTINUOUS
 62
   179
 10
3536.3980477432
 20
503.7699894229
 30
0.0
  0
VERTEX
  5
1BA
  8
0
  6
CONTINUOUS
 62
   179
 10
3536.1325647978
 20
503.9414025357
 30
0.0
  0
VERTEX
  5
1BB
  8
0
  6
CONTINUOUS
 62
   179
 10
3535.8594911728
 20
504.1086200929
 30
0.0
  0
VERTEX
  5
1BC
  8
0
  6
CONTINUOUS
 62
   179
 10
3535.5790175796
 20
504.2715253116
 30
0.0
  0
VERTEX
  5
1BD
  8
0
  6
CONTINUOUS
 62
   179
 10
3535.2913398975
 20
504.4300044209
 30
0.0
  0
VERTEX
  5
1BE
  8
0
  6
CONTINUOUS
 62
   179
 10
3534.9966590371
 20
504.5839467409
 30
0.0
  0
VERTEX
  5
1BF
  8
0
  6
CONTINUOUS
 62
   179
 10
3534.6951807999
 20
504.7332447602
 30
0.0
  0
VERTEX
  5
1C0
  8
0
  6
CONTINUOUS
 62
   179
 10
3534.3871157347
 20
504.8777942107
 30
0.0
  0
VERTEX
  5
1C1
  8
0
  6
CONTINUOUS
 62
   179
 10
3534.0726789904
 20
505.017494141
 30
0.0
  0
VERTEX
  5
1C2
  8
0
  6
CONTINUOUS
 62
   179
 10
3533.7520901658
 20
505.1522469863
 30
0.0
  0
VERTEX
  5
1C3
  8
0
  6
CONTINUOUS
 62
   179
 10
3533.4255731562
 20
505.2819586368
 30
0.0
  0
SEQEND
  5
3CC
  8
0
  6
CONTINUOUS
 62
   179
  0
POLYLINE
  5
D7
  8
0
  6
CONTINUOUS
 62
   179
 66
     1
 10
0.0
 20
0.0
 30
0.0
 70
   128
  0
VERTEX
  5
1C4
  8
0
  6
CONTINUOUS
 62
   179
 10
3718.4696941128
 20
473.5970143971
 30
0.0
  0
VERTEX
  5
1C5
  8
0
  6
CONTINUOUS
 62
   179
 10
3719.0586675214
 20
474.0024522311
 30
0.0
  0
VERTEX
  5
1C6
  8
0
  6
CONTINUOUS
 62
   179
 10
3719.6294810331
 20
474.4170921863
 30
0.0
  0
VERTEX
  5
1C7
  8
0
  6
CONTINUOUS
 62
   179
 10
3720.1817335539
 20
474.8406429076
 30
0.0
  0
VERTEX
  5
1C8
  8
0
  6
CONTINUOUS
 62
   179
 10
3720.7150370322
 20
475.2728067782
 30
0.0
  0
VERTEX
  5
1C9
  8
0
  6
CONTINUOUS
 62
   179
 10
3721.2290167313
 20
475.7132801294
 30
0.0
  0
VERTEX
  5
1CA
  8
0
  6
CONTINUOUS
 62
   179
 10
3721.7233114929
 20
476.1617534535
 30
0.0
  0
VERTEX
  5
1CB
  8
0
  6
CONTINUOUS
 62
   179
 10
3722.1975739906
 20
476.6179116214
 30
0.0
  0
VERTEX
  5
1CC
  8
0
  6
CONTINUOUS
 62
   179
 10
3722.651470974
 20
477.0814341043
 30
0.0
  0
VERTEX
  5
1CD
  8
0
  6
CONTINUOUS
 62
   179
 10
3723.0846835031
 20
477.5519951985
 30
0.0
  0
VERTEX
  5
1CE
  8
0
  6
CONTINUOUS
 62
   179
 10
3723.4969071722
 20
478.0292642546
 30
0.0
  0
VERTEX
  5
1CF
  8
0
  6
CONTINUOUS
 62
   179
 10
3723.8878523238
 20
478.5129059096
 30
0.0
  0
VERTEX
  5
1D0
  8
0
  6
CONTINUOUS
 62
   179
 10
3724.2572442523
 20
479.0025803229
 30
0.0
  0
VERTEX
  5
1D1
  8
0
  6
CONTINUOUS
 62
   179
 10
3724.6048233969
 20
479.4979434145
 30
0.0
  0
VERTEX
  5
1D2
  8
0
  6
CONTINUOUS
 62
   179
 10
3724.9303455239
 20
479.9986471075
 30
0.0
  0
VERTEX
  5
1D3
  8
0
  6
CONTINUOUS
 62
   179
 10
3725.2335818984
 20
480.504339572
 30
0.0
  0
VERTEX
  5
1D4
  8
0
  6
CONTINUOUS
 62
   179
 10
3725.5143194453
 20
481.0146654728
 30
0.0
  0
VERTEX
  5
1D5
  8
0
  6
CONTINUOUS
 62
   179
 10
3725.7723608984
 20
481.529266219
 30
0.0
  0
VERTEX
  5
1D6
  8
0
  6
CONTINUOUS
 62
   179
 10
3726.0075249397
 20
482.0477802158
 30
0.0
  0
VERTEX
  5
1D7
  8
0
  6
CONTINUOUS
 62
   179
 10
3726.2196463263
 20
482.5698431185
 30
0.0
  0
VERTEX
  5
1D8
  8
0
  6
CONTINUOUS
 62
   179
 10
3726.4085760068
 20
483.0950880891
 30
0.0
  0
VERTEX
  5
1D9
  8
0
  6
CONTINUOUS
 62
   179
 10
3726.5741812257
 20
483.6231460532
 30
0.0
  0
VERTEX
  5
1DA
  8
0
  6
CONTINUOUS
 62
   179
 10
3726.7163456172
 20
484.15364596
 30
0.0
  0
VERTEX
  5
1DB
  8
0
  6
CONTINUOUS
 62
   179
 10
3726.8349692866
 20
484.686215043
 30
0.0
  0
VERTEX
  5
1DC
  8
0
  6
CONTINUOUS
 62
   179
 10
3726.9299688805
 20
485.2204790814
 30
0.0
  0
VERTEX
  5
1DD
  8
0
  6
CONTINUOUS
 62
   179
 10
3727.0012776454
 20
485.7560626637
 30
0.0
  0
VERTEX
  5
1DE
  8
0
  6
CONTINUOUS
 62
   179
 10
3727.0488454749
 20
486.292589451
 30
0.0
  0
VERTEX
  5
1DF
  8
0
  6
CONTINUOUS
 62
   179
 10
3727.0726389443
 20
486.8296824417
 30
0.0
  0
VERTEX
  5
1E0
  8
0
  6
CONTINUOUS
 62
   179
 10
3727.0726413347
 20
487.3669642365
 30
0.0
  0
VERTEX
  5
1E1
  8
0
  6
CONTINUOUS
 62
   179
 10
3727.0488526445
 20
487.904057303
 30
0.0
  0
VERTEX
  5
1E2
  8
0
  6
CONTINUOUS
 62
   179
 10
3727.0012895893
 20
488.440584242
 30
0.0
  0
VERTEX
  5
1E3
  8
0
  6
CONTINUOUS
 62
   179
 10
3726.9299855901
 20
488.9761680516
 30
0.0
  0
VERTEX
  5
1E4
  8
0
  6
CONTINUOUS
 62
   179
 10
3726.8349907503
 20
489.5104323929
 30
0.0
  0
VERTEX
  5
1E5
  8
0
  6
CONTINUOUS
 62
   179
 10
3726.7163718199
 20
490.0430018541
 30
0.0
  0
VERTEX
  5
1E6
  8
0
  6
CONTINUOUS
 62
   179
 10
3726.5742121489
 20
490.5735022142
 30
0.0
  0
VERTEX
  5
1E7
  8
0
  6
CONTINUOUS
 62
   179
 10
3726.4086116288
 20
491.1015607063
 30
0.0
  0
VERTEX
  5
1E8
  8
0
  6
CONTINUOUS
 62
   179
 10
3726.2196866222
 20
491.6268062792
 30
0.0
  0
VERTEX
  5
1E9
  8
0
  6
CONTINUOUS
 62
   179
 10
3726.0075698811
 20
492.1488698582
 30
0.0
  0
VERTEX
  5
1EA
  8
0
  6
CONTINUOUS
 62
   179
 10
3725.7724104537
 20
492.6673846048
 30
0.0
  0
VERTEX
  5
1EB
  8
0
  6
CONTINUOUS
 62
   179
 10
3725.5143735796
 20
493.1819861737
 30
0.0
  0
VERTEX
  5
1EC
  8
0
  6
CONTINUOUS
 62
   179
 10
3725.2336405738
 20
493.6923129696
 30
0.0
  0
VERTEX
  5
1ED
  8
0
  6
CONTINUOUS
 62
   179
 10
3724.930408699
 20
494.1980064009
 30
0.0
  0
VERTEX
  5
1EE
  8
0
  6
CONTINUOUS
 62
   179
 10
3724.6048910275
 20
494.6987111317
 30
0.0
  0
VERTEX
  5
1EF
  8
0
  6
CONTINUOUS
 62
   179
 10
3724.2573162908
 20
495.1940753315
 30
0.0
  0
VERTEX
  5
1F0
  8
0
  6
CONTINUOUS
 62
   179
 10
3723.8879287196
 20
495.6837509225
 30
0.0
  0
VERTEX
  5
1F1
  8
0
  6
CONTINUOUS
 62
   179
 10
3723.4969878715
 20
496.167393824
 30
0.0
  0
VERTEX
  5
1F2
  8
0
  6
CONTINUOUS
 62
   179
 10
3723.0847684493
 20
496.6446641944
 30
0.0
  0
VERTEX
  5
1F3
  8
0
  6
CONTINUOUS
 62
   179
 10
3722.6515601074
 20
497.1152266698
 30
0.0
  0
VERTEX
  5
1F4
  8
0
  6
CONTINUOUS
 62
   179
 10
3722.1976672486
 20
497.5787505998
 30
0.0
  0
VERTEX
  5
1F5
  8
0
  6
CONTINUOUS
 62
   179
 10
3721.72340881
 20
498.0349102798
 30
0.0
  0
VERTEX
  5
1F6
  8
0
  6
CONTINUOUS
 62
   179
 10
3721.229118039
 20
498.4833851798
 30
0.0
  0
VERTEX
  5
1F7
  8
0
  6
CONTINUOUS
 62
   179
 10
3720.7151422594
 20
498.9238601697
 30
0.0
  0
VERTEX
  5
1F8
  8
0
  6
CONTINUOUS
 62
   179
 10
3720.1818426266
 20
499.3560257407
 30
0.0
  0
VERTEX
  5
1F9
  8
0
  6
CONTINUOUS
 62
   179
 10
3719.6295938747
 20
499.7795782227
 30
0.0
  0
VERTEX
  5
1FA
  8
0
  6
CONTINUOUS
 62
   179
 10
3719.0587840527
 20
500.1942199979
 30
0.0
  0
SEQEND
  5
3CD
  8
0
  6
CONTINUOUS
 62
   179
  0
POLYLINE
  5
D8
  8
0
  6
CONTINUOUS
 62
   179
 66
     1
 10
0.0
 20
0.0
 30
0.0
 70
   128
  0
VERTEX
  5
1FB
  8
0
  6
CONTINUOUS
 62
   179
 10
3812.4464609188
 20
491.325046877
 30
0.0
  0
VERTEX
  5
1FC
  8
0
  6
CONTINUOUS
 62
   179
 10
3812.7387038414
 20
491.5399134405
 30
0.0
  0
VERTEX
  5
1FD
  8
0
  6
CONTINUOUS
 62
   179
 10
3813.0211873387
 20
491.7592765731
 30
0.0
  0
VERTEX
  5
1FE
  8
0
  6
CONTINUOUS
 62
   179
 10
3813.2937127549
 20
491.9829820081
 30
0.0
  0
VERTEX
  5
1FF
  8
0
  6
CONTINUOUS
 62
   179
 10
3813.5560884369
 20
492.2108724252
 30
0.0
  0
VERTEX
  5
200
  8
0
  6
CONTINUOUS
 62
   179
 10
3813.8081298696
 20
492.4427875608
 30
0.0
  0
VERTEX
  5
201
  8
0
  6
CONTINUOUS
 62
   179
 10
3814.0496598054
 20
492.6785643212
 30
0.0
  0
VERTEX
  5
202
  8
0
  6
CONTINUOUS
 62
   179
 10
3814.2805083889
 20
492.9180368967
 30
0.0
  0
VERTEX
  5
203
  8
0
  6
CONTINUOUS
 62
   179
 10
3814.5005132763
 20
493.1610368789
 30
0.0
  0
VERTEX
  5
204
  8
0
  6
CONTINUOUS
 62
   179
 10
3814.7095197496
 20
493.4073933785
 30
0.0
  0
VERTEX
  5
205
  8
0
  6
CONTINUOUS
 62
   179
 10
3814.9073808254
 20
493.6569331457
 30
0.0
  0
VERTEX
  5
206
  8
0
  6
CONTINUOUS
 62
   179
 10
3815.0939573583
 20
493.9094806923
 30
0.0
  0
VERTEX
  5
207
  8
0
  6
CONTINUOUS
 62
   179
 10
3815.2691181389
 20
494.1648584148
 30
0.0
  0
VERTEX
  5
208
  8
0
  6
CONTINUOUS
 62
   179
 10
3815.4327399856
 20
494.4228867192
 30
0.0
  0
VERTEX
  5
209
  8
0
  6
CONTINUOUS
 62
   179
 10
3815.5847078316
 20
494.6833841477
 30
0.0
  0
VERTEX
  5
20A
  8
0
  6
CONTINUOUS
 62
   179
 10
3815.724914806
 20
494.946167506
 30
0.0
  0
VERTEX
  5
20B
  8
0
  6
CONTINUOUS
 62
   179
 10
3815.8532623085
 20
495.2110519923
 30
0.0
  0
VERTEX
  5
20C
  8
0
  6
CONTINUOUS
 62
   179
 10
3815.969660079
 20
495.4778513271
 30
0.0
  0
VERTEX
  5
20D
  8
0
  6
CONTINUOUS
 62
   179
 10
3816.0740262608
 20
495.7463778843
 30
0.0
  0
VERTEX
  5
20E
  8
0
  6
CONTINUOUS
 62
   179
 10
3816.1662874589
 20
496.0164428232
 30
0.0
  0
VERTEX
  5
20F
  8
0
  6
CONTINUOUS
 62
   179
 10
3816.2463787906
 20
496.2878562212
 30
0.0
  0
VERTEX
  5
210
  8
0
  6
CONTINUOUS
 62
   179
 10
3816.3142439319
 20
496.5604272074
 30
0.0
  0
VERTEX
  5
211
  8
0
  6
CONTINUOUS
 62
   179
 10
3816.3698351568
 20
496.8339640967
 30
0.0
  0
VERTEX
  5
212
  8
0
  6
CONTINUOUS
 62
   179
 10
3816.4131133709
 20
497.108274525
 30
0.0
  0
VERTEX
  5
213
  8
0
  6
CONTINUOUS
 62
   179
 10
3816.4440481388
 20
497.3831655839
 30
0.0
  0
VERTEX
  5
214
  8
0
  6
CONTINUOUS
 62
   179
 10
3816.4626177058
 20
497.658443957
 30
0.0
  0
VERTEX
  5
215
  8
0
  6
CONTINUOUS
 62
   179
 10
3816.4688090128
 20
497.9339160553
 30
0.0
  0
VERTEX
  5
216
  8
0
  6
CONTINUOUS
 62
   179
 10
3816.4626177058
 20
498.2093881536
 30
0.0
  0
VERTEX
  5
217
  8
0
  6
CONTINUOUS
 62
   179
 10
3816.4440481389
 20
498.4846665267
 30
0.0
  0
VERTEX
  5
218
  8
0
  6
CONTINUOUS
 62
   179
 10
3816.413113371
 20
498.7595575856
 30
0.0
  0
VERTEX
  5
219
  8
0
  6
CONTINUOUS
 62
   179
 10
3816.3698351569
 20
499.0338680139
 30
0.0
  0
VERTEX
  5
21A
  8
0
  6
CONTINUOUS
 62
   179
 10
3816.314243932
 20
499.3074049032
 30
0.0
  0
VERTEX
  5
21B
  8
0
  6
CONTINUOUS
 62
   179
 10
3816.2463787907
 20
499.5799758894
 30
0.0
  0
VERTEX
  5
21C
  8
0
  6
CONTINUOUS
 62
   179
 10
3816.166287459
 20
499.8513892874
 30
0.0
  0
VERTEX
  5
21D
  8
0
  6
CONTINUOUS
 62
   179
 10
3816.0740262609
 20
500.1214542263
 30
0.0
  0
VERTEX
  5
21E
  8
0
  6
CONTINUOUS
 62
   179
 10
3815.9696600791
 20
500.3899807835
 30
0.0
  0
VERTEX
  5
21F
  8
0
  6
CONTINUOUS
 62
   179
 10
3815.8532623086
 20
500.6567801183
 30
0.0
  0
VERTEX
  5
220
  8
0
  6
CONTINUOUS
 62
   179
 10
3815.7249148062
 20
500.9216646046
 30
0.0
  0
VERTEX
  5
221
  8
0
  6
CONTINUOUS
 62
   179
 10
3815.5847078318
 20
501.1844479629
 30
0.0
  0
VERTEX
  5
222
  8
0
  6
CONTINUOUS
 62
   179
 10
3815.4327399857
 20
501.4449453914
 30
0.0
  0
VERTEX
  5
223
  8
0
  6
CONTINUOUS
 62
   179
 10
3815.2691181391
 20
501.7029736958
 30
0.0
  0
VERTEX
  5
224
  8
0
  6
CONTINUOUS
 62
   179
 10
3815.0939573585
 20
501.9583514183
 30
0.0
  0
VERTEX
  5
225
  8
0
  6
CONTINUOUS
 62
   179
 10
3814.9073808256
 20
502.2108989649
 30
0.0
  0
VERTEX
  5
226
  8
0
  6
CONTINUOUS
 62
   179
 10
3814.7095197498
 20
502.4604387321
 30
0.0
  0
VERTEX
  5
227
  8
0
  6
CONTINUOUS
 62
   179
 10
3814.5005132765
 20
502.7067952317
 30
0.0
  0
VERTEX
  5
228
  8
0
  6
CONTINUOUS
 62
   179
 10
3814.2805083891
 20
502.9497952139
 30
0.0
  0
VERTEX
  5
229
  8
0
  6
CONTINUOUS
 62
   179
 10
3814.0496598056
 20
503.1892677894
 30
0.0
  0
VERTEX
  5
22A
  8
0
  6
CONTINUOUS
 62
   179
 10
3813.8081298698
 20
503.4250445498
 30
0.0
  0
VERTEX
  5
22B
  8
0
  6
CONTINUOUS
 62
   179
 10
3813.5560884371
 20
503.6569596854
 30
0.0
  0
VERTEX
  5
22C
  8
0
  6
CONTINUOUS
 62
   179
 10
3813.2937127551
 20
503.8848501025
 30
0.0
  0
VERTEX
  5
22D
  8
0
  6
CONTINUOUS
 62
   179
 10
3813.021187339
 20
504.1085555375
 30
0.0
  0
VERTEX
  5
22E
  8
0
  6
CONTINUOUS
 62
   179
 10
3812.7387038417
 20
504.3279186702
 30
0.0
  0
SEQEND
  5
3CE
  8
0
  6
CONTINUOUS
 62
   179
  0
POLYLINE
  5
D9
  8
0
  6
CONTINUOUS
 62
   179
 66
     1
 10
0.0
 20
0.0
 30
0.0
 70
   128
  0
VERTEX
  5
22F
  8
0
  6
CONTINUOUS
 62
   179
 10
3825.971515945
 20
484.2446732202
 30
0.0
  0
VERTEX
  5
230
  8
0
  6
CONTINUOUS
 62
   179
 10
3826.7893663295
 20
484.4930152348
 30
0.0
  0
VERTEX
  5
231
  8
0
  6
CONTINUOUS
 62
   179
 10
3827.5934252
 20
484.7517730081
 30
0.0
  0
VERTEX
  5
232
  8
0
  6
CONTINUOUS
 62
   179
 10
3828.3831309207
 20
485.0207657975
 30
0.0
  0
VERTEX
  5
233
  8
0
  6
CONTINUOUS
 62
   179
 10
3829.1579318814
 20
485.2998057114
 30
0.0
  0
VERTEX
  5
234
  8
0
  6
CONTINUOUS
 62
   179
 10
3829.9172868828
 20
485.5886978399
 30
0.0
  0
VERTEX
  5
235
  8
0
  6
CONTINUOUS
 62
   179
 10
3830.6606655146
 20
485.8872403918
 30
0.0
  0
VERTEX
  5
236
  8
0
  6
CONTINUOUS
 62
   179
 10
3831.3875485263
 20
486.1952248348
 30
0.0
  0
VERTEX
  5
237
  8
0
  6
CONTINUOUS
 62
   179
 10
3832.0974281894
 20
486.5124360413
 30
0.0
  0
VERTEX
  5
238
  8
0
  6
CONTINUOUS
 62
   179
 10
3832.7898086521
 20
486.8386524392
 30
0.0
  0
VERTEX
  5
239
  8
0
  6
CONTINUOUS
 62
   179
 10
3833.464206286
 20
487.1736461658
 30
0.0
  0
VERTEX
  5
23A
  8
0
  6
CONTINUOUS
 62
   179
 10
3834.1201500239
 20
487.5171832278
 30
0.0
  0
VERTEX
  5
23B
  8
0
  6
CONTINUOUS
 62
   179
 10
3834.7571816882
 20
487.8690236642
 30
0.0
  0
VERTEX
  5
23C
  8
0
  6
CONTINUOUS
 62
   179
 10
3835.3748563118
 20
488.2289217142
 30
0.0
  0
VERTEX
  5
23D
  8
0
  6
CONTINUOUS
 62
   179
 10
3835.9727424483
 20
488.5966259884
 30
0.0
  0
VERTEX
  5
23E
  8
0
  6
CONTINUOUS
 62
   179
 10
3836.5504224738
 20
488.9718796453
 30
0.0
  0
VERTEX
  5
23F
  8
0
  6
CONTINUOUS
 62
   179
 10
3837.107492878
 20
489.3544205696
 30
0.0
  0
VERTEX
  5
240
  8
0
  6
CONTINUOUS
 62
   179
 10
3837.6435645469
 20
489.7439815563
 30
0.0
  0
VERTEX
  5
241
  8
0
  6
CONTINUOUS
 62
   179
 10
3838.1582630338
 20
490.1402904966
 30
0.0
  0
VERTEX
  5
242
  8
0
  6
CONTINUOUS
 62
   179
 10
3838.6512288214
 20
490.5430705683
 30
0.0
  0
VERTEX
  5
243
  8
0
  6
CONTINUOUS
 62
   179
 10
3839.1221175725
 20
490.9520404291
 30
0.0
  0
VERTEX
  5
244
  8
0
  6
CONTINUOUS
 62
   179
 10
3839.5706003709
 20
491.3669144132
 30
0.0
  0
VERTEX
  5
245
  8
0
  6
CONTINUOUS
 62
   179
 10
3839.9963639509
 20
491.7874027307
 30
0.0
  0
VERTEX
  5
246
  8
0
  6
CONTINUOUS
 62
   179
 10
3840.3991109162
 20
492.2132116701
 30
0.0
  0
VERTEX
  5
247
  8
0
  6
CONTINUOUS
 62
   179
 10
3840.7785599478
 20
492.6440438035
 30
0.0
  0
VERTEX
  5
248
  8
0
  6
CONTINUOUS
 62
   179
 10
3841.1344460001
 20
493.0795981941
 30
0.0
  0
VERTEX
  5
249
  8
0
  6
CONTINUOUS
 62
   179
 10
3841.4665204863
 20
493.5195706069
 30
0.0
  0
VERTEX
  5
24A
  8
0
  6
CONTINUOUS
 62
   179
 10
3841.774551452
 20
493.9636537206
 30
0.0
  0
VERTEX
  5
24B
  8
0
  6
CONTINUOUS
 62
   179
 10
3842.0583237374
 20
494.4115373427
 30
0.0
  0
VERTEX
  5
24C
  8
0
  6
CONTINUOUS
 62
   179
 10
3842.3176391273
 20
494.8629086262
 30
0.0
  0
VERTEX
  5
24D
  8
0
  6
CONTINUOUS
 62
   179
 10
3842.5523164895
 20
495.3174522877
 30
0.0
  0
VERTEX
  5
24E
  8
0
  6
CONTINUOUS
 62
   179
 10
3842.7621919017
 20
495.7748508281
 30
0.0
  0
VERTEX
  5
24F
  8
0
  6
CONTINUOUS
 62
   179
 10
3842.9471187657
 20
496.234784754
 30
0.0
  0
VERTEX
  5
250
  8
0
  6
CONTINUOUS
 62
   179
 10
3843.10696791
 20
496.6969328011
 30
0.0
  0
VERTEX
  5
251
  8
0
  6
CONTINUOUS
 62
   179
 10
3843.2416276798
 20
497.1609721585
 30
0.0
  0
VERTEX
  5
252
  8
0
  6
CONTINUOUS
 62
   179
 10
3843.351004015
 20
497.6265786944
 30
0.0
  0
VERTEX
  5
253
  8
0
  6
CONTINUOUS
 62
   179
 10
3843.4350205162
 20
498.0934271821
 30
0.0
  0
VERTEX
  5
254
  8
0
  6
CONTINUOUS
 62
   179
 10
3843.4936184978
 20
498.5611915274
 30
0.0
  0
VERTEX
  5
255
  8
0
  6
CONTINUOUS
 62
   179
 10
3843.526757029
 20
499.0295449966
 30
0.0
  0
VERTEX
  5
256
  8
0
  6
CONTINUOUS
 62
   179
 10
3843.5344129625
 20
499.4981604443
 30
0.0
  0
VERTEX
  5
257
  8
0
  6
CONTINUOUS
 62
   179
 10
3843.5165809508
 20
499.966710542
 30
0.0
  0
VERTEX
  5
258
  8
0
  6
CONTINUOUS
 62
   179
 10
3843.4732734493
 20
500.4348680072
 30
0.0
  0
VERTEX
  5
259
  8
0
  6
CONTINUOUS
 62
   179
 10
3843.4045207086
 20
500.9023058314
 30
0.0
  0
VERTEX
  5
25A
  8
0
  6
CONTINUOUS
 62
   179
 10
3843.3103707524
 20
501.3686975087
 30
0.0
  0
VERTEX
  5
25B
  8
0
  6
CONTINUOUS
 62
   179
 10
3843.1908893445
 20
501.8337172642
 30
0.0
  0
VERTEX
  5
25C
  8
0
  6
CONTINUOUS
 62
   179
 10
3843.0461599429
 20
502.2970402812
 30
0.0
  0
VERTEX
  5
25D
  8
0
  6
CONTINUOUS
 62
   179
 10
3842.8762836412
 20
502.7583429279
 30
0.0
  0
VERTEX
  5
25E
  8
0
  6
CONTINUOUS
 62
   179
 10
3842.6813790981
 20
503.2173029841
 30
0.0
  0
VERTEX
  5
25F
  8
0
  6
CONTINUOUS
 62
   179
 10
3842.4615824546
 20
503.6735998658
 30
0.0
  0
VERTEX
  5
260
  8
0
  6
CONTINUOUS
 62
   179
 10
3842.217047239
 20
504.126914849
 30
0.0
  0
VERTEX
  5
261
  8
0
  6
CONTINUOUS
 62
   179
 10
3841.9479442593
 20
504.5769312929
 30
0.0
  0
VERTEX
  5
262
  8
0
  6
CONTINUOUS
 62
   179
 10
3841.6544614842
 20
505.0233348606
 30
0.0
  0
VERTEX
  5
263
  8
0
  6
CONTINUOUS
 62
   179
 10
3841.3368039117
 20
505.4658137386
 30
0.0
  0
VERTEX
  5
264
  8
0
  6
CONTINUOUS
 62
   179
 10
3840.9951934259
 20
505.9040588551
 30
0.0
  0
VERTEX
  5
265
  8
0
  6
CONTINUOUS
 62
   179
 10
3840.6298686421
 20
506.3377640954
 30
0.0
  0
VERTEX
  5
266
  8
0
  6
CONTINUOUS
 62
   179
 10
3840.24108474
 20
506.7666265161
 30
0.0
  0
VERTEX
  5
267
  8
0
  6
CONTINUOUS
 62
   179
 10
3839.8291132856
 20
507.1903465562
 30
0.0
  0
VERTEX
  5
268
  8
0
  6
CONTINUOUS
 62
   179
 10
3839.3942420412
 20
507.608628247
 30
0.0
  0
VERTEX
  5
269
  8
0
  6
CONTINUOUS
 62
   179
 10
3838.936774765
 20
508.0211794181
 30
0.0
  0
VERTEX
  5
26A
  8
0
  6
CONTINUOUS
 62
   179
 10
3838.4570309982
 20
508.4277119024
 30
0.0
  0
VERTEX
  5
26B
  8
0
  6
CONTINUOUS
 62
   179
 10
3837.9553458423
 20
508.8279417363
 30
0.0
  0
VERTEX
  5
26C
  8
0
  6
CONTINUOUS
 62
   179
 10
3837.4320697249
 20
509.2215893591
 30
0.0
  0
VERTEX
  5
26D
  8
0
  6
CONTINUOUS
 62
   179
 10
3836.8875681548
 20
509.6083798074
 30
0.0
  0
VERTEX
  5
26E
  8
0
  6
CONTINUOUS
 62
   179
 10
3836.322221467
 20
509.9880429077
 30
0.0
  0
VERTEX
  5
26F
  8
0
  6
CONTINUOUS
 62
   179
 10
3835.7364245567
 20
510.360313465
 30
0.0
  0
VERTEX
  5
270
  8
0
  6
CONTINUOUS
 62
   179
 10
3835.1305866035
 20
510.724931448
 30
0.0
  0
VERTEX
  5
271
  8
0
  6
CONTINUOUS
 62
   179
 10
3834.505130786
 20
511.0816421705
 30
0.0
  0
VERTEX
  5
272
  8
0
  6
CONTINUOUS
 62
   179
 10
3833.8604939854
 20
511.4301964699
 30
0.0
  0
VERTEX
  5
273
  8
0
  6
CONTINUOUS
 62
   179
 10
3833.1971264814
 20
511.7703508807
 30
0.0
  0
VERTEX
  5
274
  8
0
  6
CONTINUOUS
 62
   179
 10
3832.5154916368
 20
512.1018678045
 30
0.0
  0
VERTEX
  5
275
  8
0
  6
CONTINUOUS
 62
   179
 10
3831.8160655741
 20
512.4245156766
 30
0.0
  0
VERTEX
  5
276
  8
0
  6
CONTINUOUS
 62
   179
 10
3831.0993368431
 20
512.7380691271
 30
0.0
  0
VERTEX
  5
277
  8
0
  6
CONTINUOUS
 62
   179
 10
3830.3658060796
 20
513.0423091386
 30
0.0
  0
VERTEX
  5
278
  8
0
  6
CONTINUOUS
 62
   179
 10
3829.6159856556
 20
513.3370231991
 30
0.0
  0
VERTEX
  5
279
  8
0
  6
CONTINUOUS
 62
   179
 10
3828.8503993212
 20
513.6220054506
 30
0.0
  0
VERTEX
  5
27A
  8
0
  6
CONTINUOUS
 62
   179
 10
3828.0695818394
 20
513.8970568327
 30
0.0
  0
VERTEX
  5
27B
  8
0
  6
CONTINUOUS
 62
   179
 10
3827.2740786118
 20
514.1619852218
 30
0.0
  0
VERTEX
  5
27C
  8
0
  6
CONTINUOUS
 62
   179
 10
3826.4644452983
 20
514.416605565
 30
0.0
  0
VERTEX
  5
27D
  8
0
  6
CONTINUOUS
 62
   179
 10
3825.6412474286
 20
514.6607400099
 30
0.0
  0
VERTEX
  5
27E
  8
0
  6
CONTINUOUS
 62
   179
 10
3824.805060007
 20
514.8942180284
 30
0.0
  0
VERTEX
  5
27F
  8
0
  6
CONTINUOUS
 62
   179
 10
3823.9564671115
 20
515.1168765357
 30
0.0
  0
VERTEX
  5
280
  8
0
  6
CONTINUOUS
 62
   179
 10
3823.0960614849
 20
515.3285600047
 30
0.0
  0
VERTEX
  5
281
  8
0
  6
CONTINUOUS
 62
   179
 10
3822.2244441214
 20
515.5291205743
 30
0.0
  0
VERTEX
  5
282
  8
0
  6
CONTINUOUS
 62
   179
 10
3821.3422238466
 20
515.7184181527
 30
0.0
  0
VERTEX
  5
283
  8
0
  6
CONTINUOUS
 62
   179
 10
3820.4500168922
 20
515.8963205154
 30
0.0
  0
VERTEX
  5
284
  8
0
  6
CONTINUOUS
 62
   179
 10
3819.5484464656
 20
516.0627033974
 30
0.0
  0
VERTEX
  5
285
  8
0
  6
CONTINUOUS
 62
   179
 10
3818.6381423147
 20
516.2174505802
 30
0.0
  0
VERTEX
  5
286
  8
0
  6
CONTINUOUS
 62
   179
 10
3817.7197402878
 20
516.3604539726
 30
0.0
  0
VERTEX
  5
287
  8
0
  6
CONTINUOUS
 62
   179
 10
3816.7938818896
 20
516.4916136866
 30
0.0
  0
VERTEX
  5
288
  8
0
  6
CONTINUOUS
 62
   179
 10
3815.8612138331
 20
516.6108381071
 30
0.0
  0
VERTEX
  5
289
  8
0
  6
CONTINUOUS
 62
   179
 10
3814.9223875878
 20
516.7180439557
 30
0.0
  0
VERTEX
  5
28A
  8
0
  6
CONTINUOUS
 62
   179
 10
3813.9780589249
 20
516.8131563489
 30
0.0
  0
SEQEND
  5
3CF
  8
0
  6
CONTINUOUS
 62
   179
  0
POLYLINE
  5
DA
  8
0
  6
CONTINUOUS
 62
   179
 66
     1
 10
0.0
 20
0.0
 30
0.0
 70
   128
  0
VERTEX
  5
28B
  8
0
  6
CONTINUOUS
 62
   179
 10
3708.1072890026
 20
457.3006457815
 30
0.0
  0
VERTEX
  5
28C
  8
0
  6
CONTINUOUS
 62
   179
 10
3709.2355731484
 20
457.4094868813
 30
0.0
  0
VERTEX
  5
28D
  8
0
  6
CONTINUOUS
 62
   179
 10
3710.3593395142
 20
457.5388370779
 30
0.0
  0
VERTEX
  5
28E
  8
0
  6
CONTINUOUS
 62
   179
 10
3711.477811802
 20
457.6886070164
 30
0.0
  0
VERTEX
  5
28F
  8
0
  6
CONTINUOUS
 62
   179
 10
3712.5902173705
 20
457.8586932355
 30
0.0
  0
VERTEX
  5
290
  8
0
  6
CONTINUOUS
 62
   179
 10
3713.6957877697
 20
458.0489782395
 30
0.0
  0
VERTEX
  5
291
  8
0
  6
CONTINUOUS
 62
   179
 10
3714.793759271
 20
458.2593305797
 30
0.0
  0
VERTEX
  5
292
  8
0
  6
CONTINUOUS
 62
   179
 10
3715.8833733953
 20
458.4896049444
 30
0.0
  0
VERTEX
  5
293
  8
0
  6
CONTINUOUS
 62
   179
 10
3716.9638774368
 20
458.73964226
 30
0.0
  0
VERTEX
  5
294
  8
0
  6
CONTINUOUS
 62
   179
 10
3718.0345249829
 20
459.0092698007
 30
0.0
  0
VERTEX
  5
295
  8
0
  6
CONTINUOUS
 62
   179
 10
3719.0945764297
 20
459.2983013077
 30
0.0
  0
VERTEX
  5
296
  8
0
  6
CONTINUOUS
 62
   179
 10
3720.1432994935
 20
459.6065371179
 30
0.0
  0
VERTEX
  5
297
  8
0
  6
CONTINUOUS
 62
   179
 10
3721.1799697158
 20
459.9337643019
 30
0.0
  0
VERTEX
  5
298
  8
0
  6
CONTINUOUS
 62
   179
 10
3722.2038709645
 20
460.279756811
 30
0.0
  0
VERTEX
  5
299
  8
0
  6
CONTINUOUS
 62
   179
 10
3723.2142959282
 20
460.6442756334
 30
0.0
  0
VERTEX
  5
29A
  8
0
  6
CONTINUOUS
 62
   179
 10
3724.2105466049
 20
461.0270689595
 30
0.0
  0
VERTEX
  5
29B
  8
0
  6
CONTINUOUS
 62
   179
 10
3725.1919347844
 20
461.4278723554
 30
0.0
  0
VERTEX
  5
29C
  8
0
  6
CONTINUOUS
 62
   179
 10
3726.1577825232
 20
461.846408946
 30
0.0
  0
VERTEX
  5
29D
  8
0
  6
CONTINUOUS
 62
   179
 10
3727.1074226134
 20
462.282389606
 30
0.0
  0
VERTEX
  5
29E
  8
0
  6
CONTINUOUS
 62
   179
 10
3728.0401990433
 20
462.7355131599
 30
0.0
  0
VERTEX
  5
29F
  8
0
  6
CONTINUOUS
 62
   179
 10
3728.9554674505
 20
463.2054665897
 30
0.0
  0
VERTEX
  5
2A0
  8
0
  6
CONTINUOUS
 62
   179
 10
3729.8525955673
 20
463.6919252514
 30
0.0
  0
VERTEX
  5
2A1
  8
0
  6
CONTINUOUS
 62
   179
 10
3730.7309636571
 20
464.1945530993
 30
0.0
  0
VERTEX
  5
2A2
  8
0
  6
CONTINUOUS
 62
   179
 10
3731.5899649431
 20
464.7130029177
 30
0.0
  0
VERTEX
  5
2A3
  8
0
  6
CONTINUOUS
 62
   179
 10
3732.4290060267
 20
465.2469165613
 30
0.0
  0
VERTEX
  5
2A4
  8
0
  6
CONTINUOUS
 62
   179
 10
3733.2475072982
 20
465.7959252024
 30
0.0
  0
VERTEX
  5
2A5
  8
0
  6
CONTINUOUS
 62
   179
 10
3734.0449033364
 20
466.3596495856
 30
0.0
  0
VERTEX
  5
2A6
  8
0
  6
CONTINUOUS
 62
   179
 10
3734.8206432999
 20
466.93770029
 30
0.0
  0
VERTEX
  5
2A7
  8
0
  6
CONTINUOUS
 62
   179
 10
3735.5741913072
 20
467.5296779977
 30
0.0
  0
VERTEX
  5
2A8
  8
0
  6
CONTINUOUS
 62
   179
 10
3736.3050268071
 20
468.1351737705
 30
0.0
  0
VERTEX
  5
2A9
  8
0
  6
CONTINUOUS
 62
   179
 10
3737.0126449381
 20
468.7537693316
 30
0.0
  0
VERTEX
  5
2AA
  8
0
  6
CONTINUOUS
 62
   179
 10
3737.6965568774
 20
469.3850373549
 30
0.0
  0
VERTEX
  5
2AB
  8
0
  6
CONTINUOUS
 62
   179
 10
3738.3562901783
 20
470.0285417603
 30
0.0
  0
VERTEX
  5
2AC
  8
0
  6
CONTINUOUS
 62
   179
 10
3738.9913890969
 20
470.6838380146
 30
0.0
  0
VERTEX
  5
2AD
  8
0
  6
CONTINUOUS
 62
   179
 10
3739.6014149064
 20
471.350473439
 30
0.0
  0
VERTEX
  5
2AE
  8
0
  6
CONTINUOUS
 62
   179
 10
3740.1859462009
 20
472.0279875215
 30
0.0
  0
VERTEX
  5
2AF
  8
0
  6
CONTINUOUS
 62
   179
 10
3740.744579186
 20
472.715912235
 30
0.0
  0
VERTEX
  5
2B0
  8
0
  6
CONTINUOUS
 62
   179
 10
3741.2769279576
 20
473.4137723609
 30
0.0
  0
VERTEX
  5
2B1
  8
0
  6
CONTINUOUS
 62
   179
 10
3741.7826247692
 20
474.1210858172
 30
0.0
  0
VERTEX
  5
2B2
  8
0
  6
CONTINUOUS
 62
   179
 10
3742.2613202852
 20
474.8373639914
 30
0.0
  0
VERTEX
  5
2B3
  8
0
  6
CONTINUOUS
 62
   179
 10
3742.7126838224
 20
475.5621120784
 30
0.0
  0
VERTEX
  5
2B4
  8
0
  6
CONTINUOUS
 62
   179
 10
3743.1364035789
 20
476.2948294218
 30
0.0
  0
VERTEX
  5
2B5
  8
0
  6
CONTINUOUS
 62
   179
 10
3743.5321868487
 20
477.0350098602
 30
0.0
  0
VERTEX
  5
2B6
  8
0
  6
CONTINUOUS
 62
   179
 10
3743.8997602248
 20
477.7821420768
 30
0.0
  0
VERTEX
  5
2B7
  8
0
  6
CONTINUOUS
 62
   179
 10
3744.2388697872
 20
478.5357099523
 30
0.0
  0
VERTEX
  5
2B8
  8
0
  6
CONTINUOUS
 62
   179
 10
3744.549281279
 20
479.2951929216
 30
0.0
  0
VERTEX
  5
2B9
  8
0
  6
CONTINUOUS
 62
   179
 10
3744.8307802678
 20
480.0600663337
 30
0.0
  0
VERTEX
  5
2BA
  8
0
  6
CONTINUOUS
 62
   179
 10
3745.0831722939
 20
480.8298018138
 30
0.0
  0
VERTEX
  5
2BB
  8
0
  6
CONTINUOUS
 62
   179
 10
3745.3062830049
 20
481.6038676282
 30
0.0
  0
VERTEX
  5
2BC
  8
0
  6
CONTINUOUS
 62
   179
 10
3745.4999582757
 20
482.3817290521
 30
0.0
  0
VERTEX
  5
2BD
  8
0
  6
CONTINUOUS
 62
   179
 10
3745.6640643155
 20
483.1628487383
 30
0.0
  0
VERTEX
  5
2BE
  8
0
  6
CONTINUOUS
 62
   179
 10
3745.7984877598
 20
483.9466870892
 30
0.0
  0
VERTEX
  5
2BF
  8
0
  6
CONTINUOUS
 62
   179
 10
3745.9031357486
 20
484.732702629
 30
0.0
  0
VERTEX
  5
2C0
  8
0
  6
CONTINUOUS
 62
   179
 10
3745.9779359913
 20
485.5203523777
 30
0.0
  0
VERTEX
  5
2C1
  8
0
  6
CONTINUOUS
 62
   179
 10
3746.0228368157
 20
486.3090922266
 30
0.0
  0
VERTEX
  5
2C2
  8
0
  6
CONTINUOUS
 62
   179
 10
3746.0378072044
 20
487.098377314
 30
0.0
  0
VERTEX
  5
2C3
  8
0
  6
CONTINUOUS
 62
   179
 10
3746.0228368157
 20
487.8876624014
 30
0.0
  0
VERTEX
  5
2C4
  8
0
  6
CONTINUOUS
 62
   179
 10
3745.9779359913
 20
488.6764022504
 30
0.0
  0
VERTEX
  5
2C5
  8
0
  6
CONTINUOUS
 62
   179
 10
3745.9031357486
 20
489.4640519991
 30
0.0
  0
VERTEX
  5
2C6
  8
0
  6
CONTINUOUS
 62
   179
 10
3745.7984877597
 20
490.2500675388
 30
0.0
  0
VERTEX
  5
2C7
  8
0
  6
CONTINUOUS
 62
   179
 10
3745.6640643155
 20
491.0339058897
 30
0.0
  0
VERTEX
  5
2C8
  8
0
  6
CONTINUOUS
 62
   179
 10
3745.4999582757
 20
491.815025576
 30
0.0
  0
VERTEX
  5
2C9
  8
0
  6
CONTINUOUS
 62
   179
 10
3745.3062830048
 20
492.5928869998
 30
0.0
  0
VERTEX
  5
2CA
  8
0
  6
CONTINUOUS
 62
   179
 10
3745.0831722938
 20
493.3669528143
 30
0.0
  0
VERTEX
  5
2CB
  8
0
  6
CONTINUOUS
 62
   179
 10
3744.8307802677
 20
494.1366882943
 30
0.0
  0
VERTEX
  5
2CC
  8
0
  6
CONTINUOUS
 62
   179
 10
3744.5492812789
 20
494.9015617064
 30
0.0
  0
VERTEX
  5
2CD
  8
0
  6
CONTINUOUS
 62
   179
 10
3744.2388697872
 20
495.6610446758
 30
0.0
  0
VERTEX
  5
2CE
  8
0
  6
CONTINUOUS
 62
   179
 10
3743.8997602247
 20
496.4146125512
 30
0.0
  0
VERTEX
  5
2CF
  8
0
  6
CONTINUOUS
 62
   179
 10
3743.5321868486
 20
497.1617447678
 30
0.0
  0
VERTEX
  5
2D0
  8
0
  6
CONTINUOUS
 62
   179
 10
3743.1364035787
 20
497.9019252063
 30
0.0
  0
VERTEX
  5
2D1
  8
0
  6
CONTINUOUS
 62
   179
 10
3742.7126838223
 20
498.6346425497
 30
0.0
  0
VERTEX
  5
2D2
  8
0
  6
CONTINUOUS
 62
   179
 10
3742.2613202851
 20
499.3593906366
 30
0.0
  0
VERTEX
  5
2D3
  8
0
  6
CONTINUOUS
 62
   179
 10
3741.7826247691
 20
500.0756688109
 30
0.0
  0
VERTEX
  5
2D4
  8
0
  6
CONTINUOUS
 62
   179
 10
3741.2769279575
 20
500.7829822671
 30
0.0
  0
VERTEX
  5
2D5
  8
0
  6
CONTINUOUS
 62
   179
 10
3740.7445791858
 20
501.4808423931
 30
0.0
  0
VERTEX
  5
2D6
  8
0
  6
CONTINUOUS
 62
   179
 10
3740.1859462008
 20
502.1687671066
 30
0.0
  0
VERTEX
  5
2D7
  8
0
  6
CONTINUOUS
 62
   179
 10
3739.6014149063
 20
502.846281189
 30
0.0
  0
VERTEX
  5
2D8
  8
0
  6
CONTINUOUS
 62
   179
 10
3738.9913890967
 20
503.5129166134
 30
0.0
  0
VERTEX
  5
2D9
  8
0
  6
CONTINUOUS
 62
   179
 10
3738.3562901782
 20
504.1682128677
 30
0.0
  0
VERTEX
  5
2DA
  8
0
  6
CONTINUOUS
 62
   179
 10
3737.6965568773
 20
504.8117172731
 30
0.0
  0
VERTEX
  5
2DB
  8
0
  6
CONTINUOUS
 62
   179
 10
3737.012644938
 20
505.4429852964
 30
0.0
  0
VERTEX
  5
2DC
  8
0
  6
CONTINUOUS
 62
   179
 10
3736.3050268069
 20
506.0615808575
 30
0.0
  0
VERTEX
  5
2DD
  8
0
  6
CONTINUOUS
 62
   179
 10
3735.574191307
 20
506.6670766303
 30
0.0
  0
VERTEX
  5
2DE
  8
0
  6
CONTINUOUS
 62
   179
 10
3734.8206432997
 20
507.259054338
 30
0.0
  0
VERTEX
  5
2DF
  8
0
  6
CONTINUOUS
 62
   179
 10
3734.0449033362
 20
507.8371050424
 30
0.0
  0
VERTEX
  5
2E0
  8
0
  6
CONTINUOUS
 62
   179
 10
3733.247507298
 20
508.4008294256
 30
0.0
  0
VERTEX
  5
2E1
  8
0
  6
CONTINUOUS
 62
   179
 10
3732.4290060265
 20
508.9498380667
 30
0.0
  0
VERTEX
  5
2E2
  8
0
  6
CONTINUOUS
 62
   179
 10
3731.5899649429
 20
509.4837517103
 30
0.0
  0
VERTEX
  5
2E3
  8
0
  6
CONTINUOUS
 62
   179
 10
3730.7309636569
 20
510.0022015287
 30
0.0
  0
VERTEX
  5
2E4
  8
0
  6
CONTINUOUS
 62
   179
 10
3729.852595567
 20
510.5048293765
 30
0.0
  0
VERTEX
  5
2E5
  8
0
  6
CONTINUOUS
 62
   179
 10
3728.9554674503
 20
510.9912880383
 30
0.0
  0
VERTEX
  5
2E6
  8
0
  6
CONTINUOUS
 62
   179
 10
3728.0401990431
 20
511.4612414681
 30
0.0
  0
VERTEX
  5
2E7
  8
0
  6
CONTINUOUS
 62
   179
 10
3727.1074226132
 20
511.914365022
 30
0.0
  0
VERTEX
  5
2E8
  8
0
  6
CONTINUOUS
 62
   179
 10
3726.157782523
 20
512.350345682
 30
0.0
  0
VERTEX
  5
2E9
  8
0
  6
CONTINUOUS
 62
   179
 10
3725.1919347842
 20
512.7688822726
 30
0.0
  0
VERTEX
  5
2EA
  8
0
  6
CONTINUOUS
 62
   179
 10
3724.2105466047
 20
513.1696856685
 30
0.0
  0
VERTEX
  5
2EB
  8
0
  6
CONTINUOUS
 62
   179
 10
3723.2142959279
 20
513.5524789945
 30
0.0
  0
VERTEX
  5
2EC
  8
0
  6
CONTINUOUS
 62
   179
 10
3722.2038709642
 20
513.916997817
 30
0.0
  0
VERTEX
  5
2ED
  8
0
  6
CONTINUOUS
 62
   179
 10
3721.1799697155
 20
514.262990326
 30
0.0
  0
VERTEX
  5
2EE
  8
0
  6
CONTINUOUS
 62
   179
 10
3720.1432994932
 20
514.59021751
 30
0.0
  0
VERTEX
  5
2EF
  8
0
  6
CONTINUOUS
 62
   179
 10
3719.0945764295
 20
514.8984533202
 30
0.0
  0
VERTEX
  5
2F0
  8
0
  6
CONTINUOUS
 62
   179
 10
3718.0345249826
 20
515.1874848272
 30
0.0
  0
VERTEX
  5
2F1
  8
0
  6
CONTINUOUS
 62
   179
 10
3716.9638774366
 20
515.4571123679
 30
0.0
  0
VERTEX
  5
2F2
  8
0
  6
CONTINUOUS
 62
   179
 10
3715.8833733951
 20
515.7071496836
 30
0.0
  0
VERTEX
  5
2F3
  8
0
  6
CONTINUOUS
 62
   179
 10
3714.7937592707
 20
515.9374240483
 30
0.0
  0
VERTEX
  5
2F4
  8
0
  6
CONTINUOUS
 62
   179
 10
3713.6957877694
 20
516.1477763884
 30
0.0
  0
VERTEX
  5
2F5
  8
0
  6
CONTINUOUS
 62
   179
 10
3712.5902173703
 20
516.3380613924
 30
0.0
  0
VERTEX
  5
2F6
  8
0
  6
CONTINUOUS
 62
   179
 10
3711.4778118017
 20
516.5081476115
 30
0.0
  0
VERTEX
  5
2F7
  8
0
  6
CONTINUOUS
 62
   179
 10
3710.3593395139
 20
516.6579175499
 30
0.0
  0
VERTEX
  5
2F8
  8
0
  6
CONTINUOUS
 62
   179
 10
3709.2355731481
 20
516.7872677466
 30
0.0
  0
SEQEND
  5
3D0
  8
0
  6
CONTINUOUS
 62
   179
  0
POLYLINE
  5
DB
  8
0
  6
CONTINUOUS
 62
   179
 66
     1
 10
0.0
 20
0.0
 30
0.0
 70
   128
  0
VERTEX
  5
2F9
  8
0
  6
CONTINUOUS
 62
   179
 10
3534.9718663087
 20
478.9717232621
 30
0.0
  0
VERTEX
  5
2FA
  8
0
  6
CONTINUOUS
 62
   179
 10
3536.0117430335
 20
479.0827014297
 30
0.0
  0
VERTEX
  5
2FB
  8
0
  6
CONTINUOUS
 62
   179
 10
3537.0451593775
 20
479.2066443913
 30
0.0
  0
VERTEX
  5
2FC
  8
0
  6
CONTINUOUS
 62
   179
 10
3538.0714046156
 20
479.3434669057
 30
0.0
  0
VERTEX
  5
2FD
  8
0
  6
CONTINUOUS
 62
   179
 10
3539.0897729547
 20
479.4930748744
 30
0.0
  0
VERTEX
  5
2FE
  8
0
  6
CONTINUOUS
 62
   179
 10
3540.0995640188
 20
479.6553654053
 30
0.0
  0
VERTEX
  5
2FF
  8
0
  6
CONTINUOUS
 62
   179
 10
3541.1000833312
 20
479.8302268844
 30
0.0
  0
VERTEX
  5
300
  8
0
  6
CONTINUOUS
 62
   179
 10
3542.0906427915
 20
480.0175390519
 30
0.0
  0
VERTEX
  5
301
  8
0
  6
CONTINUOUS
 62
   179
 10
3543.0705611491
 20
480.217173085
 30
0.0
  0
VERTEX
  5
302
  8
0
  6
CONTINUOUS
 62
   179
 10
3544.039164472
 20
480.4289916869
 30
0.0
  0
VERTEX
  5
303
  8
0
  6
CONTINUOUS
 62
   179
 10
3544.9957866099
 20
480.6528491807
 30
0.0
  0
VERTEX
  5
304
  8
0
  6
CONTINUOUS
 62
   179
 10
3545.9397696524
 20
480.8885916099
 30
0.0
  0
VERTEX
  5
305
  8
0
  6
CONTINUOUS
 62
   179
 10
3546.8704643817
 20
481.1360568445
 30
0.0
  0
VERTEX
  5
306
  8
0
  6
CONTINUOUS
 62
   179
 10
3547.7872307188
 20
481.3950746917
 30
0.0
  0
VERTEX
  5
307
  8
0
  6
CONTINUOUS
 62
   179
 10
3548.6894381639
 20
481.6654670139
 30
0.0
  0
VERTEX
  5
308
  8
0
  6
CONTINUOUS
 62
   179
 10
3549.57646623
 20
481.9470478507
 30
0.0
  0
VERTEX
  5
309
  8
0
  6
CONTINUOUS
 62
   179
 10
3550.4477048698
 20
482.2396235466
 30
0.0
  0
VERTEX
  5
30A
  8
0
  6
CONTINUOUS
 62
   179
 10
3551.3025548947
 20
482.5429928848
 30
0.0
  0
VERTEX
  5
30B
  8
0
  6
CONTINUOUS
 62
   179
 10
3552.1404283874
 20
482.8569472251
 30
0.0
  0
VERTEX
  5
30C
  8
0
  6
CONTINUOUS
 62
   179
 10
3552.9607491063
 20
483.1812706475
 30
0.0
  0
VERTEX
  5
30D
  8
0
  6
CONTINUOUS
 62
   179
 10
3553.7629528814
 20
483.5157401008
 30
0.0
  0
VERTEX
  5
30E
  8
0
  6
CONTINUOUS
 62
   179
 10
3554.5464880025
 20
483.860125556
 30
0.0
  0
VERTEX
  5
30F
  8
0
  6
CONTINUOUS
 62
   179
 10
3555.3108155987
 20
484.2141901643
 30
0.0
  0
VERTEX
  5
310
  8
0
  6
CONTINUOUS
 62
   179
 10
3556.055410009
 20
484.5776904202
 30
0.0
  0
VERTEX
  5
311
  8
0
  6
CONTINUOUS
 62
   179
 10
3556.7797591435
 20
484.9503763289
 30
0.0
  0
VERTEX
  5
312
  8
0
  6
CONTINUOUS
 62
   179
 10
3557.4833648362
 20
485.3319915782
 30
0.0
  0
VERTEX
  5
313
  8
0
  6
CONTINUOUS
 62
   179
 10
3558.1657431871
 20
485.7222737148
 30
0.0
  0
VERTEX
  5
314
  8
0
  6
CONTINUOUS
 62
   179
 10
3558.8264248951
 20
486.1209543248
 30
0.0
  0
VERTEX
  5
315
  8
0
  6
CONTINUOUS
 62
   179
 10
3559.4649555809
 20
486.5277592184
 30
0.0
  0
VERTEX
  5
316
  8
0
  6
CONTINUOUS
 62
   179
 10
3560.0808960993
 20
486.9424086184
 30
0.0
  0
VERTEX
  5
317
  8
0
  6
CONTINUOUS
 62
   179
 10
3560.6738228416
 20
487.3646173524
 30
0.0
  0
VERTEX
  5
318
  8
0
  6
CONTINUOUS
 62
   179
 10
3561.2433280263
 20
487.7940950492
 30
0.0
  0
VERTEX
  5
319
  8
0
  6
CONTINUOUS
 62
   179
 10
3561.7890199803
 20
488.2305463385
 30
0.0
  0
VERTEX
  5
31A
  8
0
  6
CONTINUOUS
 62
   179
 10
3562.3105234075
 20
488.673671054
 30
0.0
  0
VERTEX
  5
31B
  8
0
  6
CONTINUOUS
 62
   179
 10
3562.8074796477
 20
489.1231644396
 30
0.0
  0
VERTEX
  5
31C
  8
0
  6
CONTINUOUS
 62
   179
 10
3563.2795469225
 20
489.5787173593
 30
0.0
  0
VERTEX
  5
31D
  8
0
  6
CONTINUOUS
 62
   179
 10
3563.7264005708
 20
490.0400165097
 30
0.0
  0
VERTEX
  5
31E
  8
0
  6
CONTINUOUS
 62
   179
 10
3564.1477332722
 20
490.5067446355
 30
0.0
  0
VERTEX
  5
31F
  8
0
  6
CONTINUOUS
 62
   179
 10
3564.543255258
 20
490.9785807477
 30
0.0
  0
VERTEX
  5
320
  8
0
  6
CONTINUOUS
 62
   179
 10
3564.9126945106
 20
491.4552003441
 30
0.0
  0
VERTEX
  5
321
  8
0
  6
CONTINUOUS
 62
   179
 10
3565.2557969507
 20
491.9362756329
 30
0.0
  0
VERTEX
  5
322
  8
0
  6
CONTINUOUS
 62
   179
 10
3565.572326612
 20
492.4214757579
 30
0.0
  0
VERTEX
  5
323
  8
0
  6
CONTINUOUS
 62
   179
 10
3565.8620658033
 20
492.9104670259
 30
0.0
  0
VERTEX
  5
324
  8
0
  6
CONTINUOUS
 62
   179
 10
3566.1248152586
 20
493.4029131367
 30
0.0
  0
VERTEX
  5
325
  8
0
  6
CONTINUOUS
 62
   179
 10
3566.3603942736
 20
493.8984754137
 30
0.0
  0
VERTEX
  5
326
  8
0
  6
CONTINUOUS
 62
   179
 10
3566.5686408305
 20
494.3968130374
 30
0.0
  0
VERTEX
  5
327
  8
0
  6
CONTINUOUS
 62
   179
 10
3566.7494117092
 20
494.8975832795
 30
0.0
  0
VERTEX
  5
328
  8
0
  6
CONTINUOUS
 62
   179
 10
3566.9025825857
 20
495.4004417386
 30
0.0
  0
VERTEX
  5
329
  8
0
  6
CONTINUOUS
 62
   179
 10
3567.0280481178
 20
495.9050425774
 30
0.0
  0
VERTEX
  5
32A
  8
0
  6
CONTINUOUS
 62
   179
 10
3567.1257220174
 20
496.4110387601
 30
0.0
  0
VERTEX
  5
32B
  8
0
  6
CONTINUOUS
 62
   179
 10
3567.1955371101
 20
496.9180822912
 30
0.0
  0
VERTEX
  5
32C
  8
0
  6
CONTINUOUS
 62
   179
 10
3567.2374453808
 20
497.425824455
 30
0.0
  0
VERTEX
  5
32D
  8
0
  6
CONTINUOUS
 62
   179
 10
3567.2514180076
 20
497.9339160553
 30
0.0
  0
VERTEX
  5
32E
  8
0
  6
CONTINUOUS
 62
   179
 10
3567.2374453808
 20
498.4420076556
 30
0.0
  0
VERTEX
  5
32F
  8
0
  6
CONTINUOUS
 62
   179
 10
3567.1955371101
 20
498.9497498194
 30
0.0
  0
VERTEX
  5
330
  8
0
  6
CONTINUOUS
 62
   179
 10
3567.1257220175
 20
499.4567933505
 30
0.0
  0
VERTEX
  5
331
  8
0
  6
CONTINUOUS
 62
   179
 10
3567.0280481178
 20
499.9627895332
 30
0.0
  0
VERTEX
  5
332
  8
0
  6
CONTINUOUS
 62
   179
 10
3566.9025825857
 20
500.467390372
 30
0.0
  0
VERTEX
  5
333
  8
0
  6
CONTINUOUS
 62
   179
 10
3566.7494117092
 20
500.9702488311
 30
0.0
  0
VERTEX
  5
334
  8
0
  6
CONTINUOUS
 62
   179
 10
3566.5686408306
 20
501.4710190732
 30
0.0
  0
VERTEX
  5
335
  8
0
  6
CONTINUOUS
 62
   179
 10
3566.3603942737
 20
501.9693566969
 30
0.0
  0
VERTEX
  5
336
  8
0
  6
CONTINUOUS
 62
   179
 10
3566.1248152587
 20
502.4649189739
 30
0.0
  0
VERTEX
  5
337
  8
0
  6
CONTINUOUS
 62
   179
 10
3565.8620658035
 20
502.9573650847
 30
0.0
  0
VERTEX
  5
338
  8
0
  6
CONTINUOUS
 62
   179
 10
3565.5723266122
 20
503.4463563527
 30
0.0
  0
VERTEX
  5
339
  8
0
  6
CONTINUOUS
 62
   179
 10
3565.2557969509
 20
503.9315564777
 30
0.0
  0
VERTEX
  5
33A
  8
0
  6
CONTINUOUS
 62
   179
 10
3564.9126945108
 20
504.4126317665
 30
0.0
  0
VERTEX
  5
33B
  8
0
  6
CONTINUOUS
 62
   179
 10
3564.5432552582
 20
504.8892513629
 30
0.0
  0
VERTEX
  5
33C
  8
0
  6
CONTINUOUS
 62
   179
 10
3564.1477332724
 20
505.3610874751
 30
0.0
  0
VERTEX
  5
33D
  8
0
  6
CONTINUOUS
 62
   179
 10
3563.726400571
 20
505.8278156009
 30
0.0
  0
VERTEX
  5
33E
  8
0
  6
CONTINUOUS
 62
   179
 10
3563.2795469227
 20
506.2891147514
 30
0.0
  0
VERTEX
  5
33F
  8
0
  6
CONTINUOUS
 62
   179
 10
3562.8074796479
 20
506.7446676711
 30
0.0
  0
VERTEX
  5
340
  8
0
  6
CONTINUOUS
 62
   179
 10
3562.3105234078
 20
507.1941610567
 30
0.0
  0
VERTEX
  5
341
  8
0
  6
CONTINUOUS
 62
   179
 10
3561.7890199806
 20
507.6372857721
 30
0.0
  0
VERTEX
  5
342
  8
0
  6
CONTINUOUS
 62
   179
 10
3561.2433280266
 20
508.0737370615
 30
0.0
  0
VERTEX
  5
343
  8
0
  6
CONTINUOUS
 62
   179
 10
3560.6738228419
 20
508.5032147583
 30
0.0
  0
VERTEX
  5
344
  8
0
  6
CONTINUOUS
 62
   179
 10
3560.0808960996
 20
508.9254234923
 30
0.0
  0
VERTEX
  5
345
  8
0
  6
CONTINUOUS
 62
   179
 10
3559.4649555812
 20
509.3400728922
 30
0.0
  0
VERTEX
  5
346
  8
0
  6
CONTINUOUS
 62
   179
 10
3558.8264248954
 20
509.7468777859
 30
0.0
  0
VERTEX
  5
347
  8
0
  6
CONTINUOUS
 62
   179
 10
3558.1657431874
 20
510.1455583959
 30
0.0
  0
VERTEX
  5
348
  8
0
  6
CONTINUOUS
 62
   179
 10
3557.4833648366
 20
510.5358405325
 30
0.0
  0
VERTEX
  5
349
  8
0
  6
CONTINUOUS
 62
   179
 10
3556.7797591439
 20
510.9174557818
 30
0.0
  0
VERTEX
  5
34A
  8
0
  6
CONTINUOUS
 62
   179
 10
3556.0554100093
 20
511.2901416905
 30
0.0
  0
VERTEX
  5
34B
  8
0
  6
CONTINUOUS
 62
   179
 10
3555.3108155991
 20
511.6536419464
 30
0.0
  0
VERTEX
  5
34C
  8
0
  6
CONTINUOUS
 62
   179
 10
3554.5464880029
 20
512.0077065547
 30
0.0
  0
VERTEX
  5
34D
  8
0
  6
CONTINUOUS
 62
   179
 10
3553.7629528818
 20
512.3520920099
 30
0.0
  0
VERTEX
  5
34E
  8
0
  6
CONTINUOUS
 62
   179
 10
3552.9607491067
 20
512.6865614632
 30
0.0
  0
VERTEX
  5
34F
  8
0
  6
CONTINUOUS
 62
   179
 10
3552.1404283878
 20
513.0108848856
 30
0.0
  0
VERTEX
  5
350
  8
0
  6
CONTINUOUS
 62
   179
 10
3551.3025548951
 20
513.3248392259
 30
0.0
  0
VERTEX
  5
351
  8
0
  6
CONTINUOUS
 62
   179
 10
3550.4477048702
 20
513.6282085641
 30
0.0
  0
VERTEX
  5
352
  8
0
  6
CONTINUOUS
 62
   179
 10
3549.5764662305
 20
513.9207842601
 30
0.0
  0
VERTEX
  5
353
  8
0
  6
CONTINUOUS
 62
   179
 10
3548.6894381643
 20
514.2023650968
 30
0.0
  0
VERTEX
  5
354
  8
0
  6
CONTINUOUS
 62
   179
 10
3547.7872307192
 20
514.472757419
 30
0.0
  0
VERTEX
  5
355
  8
0
  6
CONTINUOUS
 62
   179
 10
3546.8704643821
 20
514.7317752663
 30
0.0
  0
VERTEX
  5
356
  8
0
  6
CONTINUOUS
 62
   179
 10
3545.9397696529
 20
514.9792405008
 30
0.0
  0
VERTEX
  5
357
  8
0
  6
CONTINUOUS
 62
   179
 10
3544.9957866104
 20
515.2149829301
 30
0.0
  0
VERTEX
  5
358
  8
0
  6
CONTINUOUS
 62
   179
 10
3544.0391644725
 20
515.4388404239
 30
0.0
  0
VERTEX
  5
359
  8
0
  6
CONTINUOUS
 62
   179
 10
3543.0705611496
 20
515.6506590258
 30
0.0
  0
VERTEX
  5
35A
  8
0
  6
CONTINUOUS
 62
   179
 10
3542.0906427919
 20
515.8502930589
 30
0.0
  0
VERTEX
  5
35B
  8
0
  6
CONTINUOUS
 62
   179
 10
3541.1000833317
 20
516.0376052263
 30
0.0
  0
VERTEX
  5
35C
  8
0
  6
CONTINUOUS
 62
   179
 10
3540.0995640193
 20
516.2124667054
 30
0.0
  0
VERTEX
  5
35D
  8
0
  6
CONTINUOUS
 62
   179
 10
3539.0897729552
 20
516.3747572364
 30
0.0
  0
VERTEX
  5
35E
  8
0
  6
CONTINUOUS
 62
   179
 10
3538.0714046161
 20
516.5243652051
 30
0.0
  0
VERTEX
  5
35F
  8
0
  6
CONTINUOUS
 62
   179
 10
3537.0451593781
 20
516.6611877195
 30
0.0
  0
VERTEX
  5
360
  8
0
  6
CONTINUOUS
 62
   179
 10
3536.0117430341
 20
516.7851306811
 30
0.0
  0
SEQEND
  5
3D1
  8
0
  6
CONTINUOUS
 62
   179
  0
POLYLINE
  5
DC
  8
0
  6
CONTINUOUS
 62
   179
 66
     1
 10
0.0
 20
0.0
 30
0.0
 70
   128
  0
VERTEX
  5
361
  8
0
  6
CONTINUOUS
 62
   179
 10
4062.4300319759
 20
507.8762561058
 30
0.0
  0
VERTEX
  5
362
  8
0
  6
CONTINUOUS
 62
   179
 10
4062.4878651948
 20
507.8858190475
 30
0.0
  0
VERTEX
  5
363
  8
0
  6
CONTINUOUS
 62
   179
 10
4062.54540562
 20
507.8967792017
 30
0.0
  0
VERTEX
  5
364
  8
0
  6
CONTINUOUS
 62
   179
 10
4062.6026134927
 20
507.9091289953
 30
0.0
  0
VERTEX
  5
365
  8
0
  6
CONTINUOUS
 62
   179
 10
4062.6594492839
 20
507.9228598948
 30
0.0
  0
VERTEX
  5
366
  8
0
  6
CONTINUOUS
 62
   179
 10
4062.7158737219
 20
507.9379624128
 30
0.0
  0
VERTEX
  5
367
  8
0
  6
CONTINUOUS
 62
   179
 10
4062.7718478188
 20
507.9544261136
 30
0.0
  0
VERTEX
  5
368
  8
0
  6
CONTINUOUS
 62
   179
 10
4062.8273328983
 20
507.9722396215
 30
0.0
  0
VERTEX
  5
369
  8
0
  6
CONTINUOUS
 62
   179
 10
4062.8822906218
 20
507.9913906278
 30
0.0
  0
VERTEX
  5
36A
  8
0
  6
CONTINUOUS
 62
   179
 10
4062.9366830152
 20
508.0118658998
 30
0.0
  0
VERTEX
  5
36B
  8
0
  6
CONTINUOUS
 62
   179
 10
4062.9904724947
 20
508.0336512895
 30
0.0
  0
VERTEX
  5
36C
  8
0
  6
CONTINUOUS
 62
   179
 10
4063.0436218936
 20
508.056731744
 30
0.0
  0
VERTEX
  5
36D
  8
0
  6
CONTINUOUS
 62
   179
 10
4063.0960944871
 20
508.0810913152
 30
0.0
  0
VERTEX
  5
36E
  8
0
  6
CONTINUOUS
 62
   179
 10
4063.1478540181
 20
508.1067131716
 30
0.0
  0
VERTEX
  5
36F
  8
0
  6
CONTINUOUS
 62
   179
 10
4063.1988647224
 20
508.133579609
 30
0.0
  0
VERTEX
  5
370
  8
0
  6
CONTINUOUS
 62
   179
 10
4063.2490913531
 20
508.1616720636
 30
0.0
  0
VERTEX
  5
371
  8
0
  6
CONTINUOUS
 62
   179
 10
4063.2984992049
 20
508.1909711244
 30
0.0
  0
VERTEX
  5
372
  8
0
  6
CONTINUOUS
 62
   179
 10
4063.3470541386
 20
508.2214565465
 30
0.0
  0
VERTEX
  5
373
  8
0
  6
CONTINUOUS
 62
   179
 10
4063.394722604
 20
508.2531072653
 30
0.0
  0
VERTEX
  5
374
  8
0
  6
CONTINUOUS
 62
   179
 10
4063.4414716637
 20
508.2859014112
 30
0.0
  0
VERTEX
  5
375
  8
0
  6
CONTINUOUS
 62
   179
 10
4063.4872690155
 20
508.3198163244
 30
0.0
  0
VERTEX
  5
376
  8
0
  6
CONTINUOUS
 62
   179
 10
4063.5320830146
 20
508.3548285706
 30
0.0
  0
VERTEX
  5
377
  8
0
  6
CONTINUOUS
 62
   179
 10
4063.5758826959
 20
508.3909139574
 30
0.0
  0
VERTEX
  5
378
  8
0
  6
CONTINUOUS
 62
   179
 10
4063.6186377952
 20
508.4280475509
 30
0.0
  0
VERTEX
  5
379
  8
0
  6
CONTINUOUS
 62
   179
 10
4063.6603187698
 20
508.4662036927
 30
0.0
  0
VERTEX
  5
37A
  8
0
  6
CONTINUOUS
 62
   179
 10
4063.7008968196
 20
508.5053560183
 30
0.0
  0
VERTEX
  5
37B
  8
0
  6
CONTINUOUS
 62
   179
 10
4063.7403439061
 20
508.5454774744
 30
0.0
  0
VERTEX
  5
37C
  8
0
  6
CONTINUOUS
 62
   179
 10
4063.7786327726
 20
508.5865403382
 30
0.0
  0
VERTEX
  5
37D
  8
0
  6
CONTINUOUS
 62
   179
 10
4063.8157369627
 20
508.6285162366
 30
0.0
  0
VERTEX
  5
37E
  8
0
  6
CONTINUOUS
 62
   179
 10
4063.8516308384
 20
508.6713761654
 30
0.0
  0
VERTEX
  5
37F
  8
0
  6
CONTINUOUS
 62
   179
 10
4063.8862895981
 20
508.7150905096
 30
0.0
  0
VERTEX
  5
380
  8
0
  6
CONTINUOUS
 62
   179
 10
4063.9196892936
 20
508.7596290639
 30
0.0
  0
VERTEX
  5
381
  8
0
  6
CONTINUOUS
 62
   179
 10
4063.9518068467
 20
508.8049610536
 30
0.0
  0
VERTEX
  5
382
  8
0
  6
CONTINUOUS
 62
   179
 10
4063.9826200651
 20
508.8510551554
 30
0.0
  0
VERTEX
  5
383
  8
0
  6
CONTINUOUS
 62
   179
 10
4064.0121076578
 20
508.8978795197
 30
0.0
  0
VERTEX
  5
384
  8
0
  6
CONTINUOUS
 62
   179
 10
4064.0402492497
 20
508.9454017923
 30
0.0
  0
VERTEX
  5
385
  8
0
  6
CONTINUOUS
 62
   179
 10
4064.0670253957
 20
508.9935891366
 30
0.0
  0
VERTEX
  5
386
  8
0
  6
CONTINUOUS
 62
   179
 10
4064.0924175944
 20
509.0424082566
 30
0.0
  0
VERTEX
  5
387
  8
0
  6
CONTINUOUS
 62
   179
 10
4064.1164083005
 20
509.0918254197
 30
0.0
  0
VERTEX
  5
388
  8
0
  6
CONTINUOUS
 62
   179
 10
4064.1389809371
 20
509.1418064801
 30
0.0
  0
VERTEX
  5
389
  8
0
  6
CONTINUOUS
 62
   179
 10
4064.1601199071
 20
509.1923169023
 30
0.0
  0
VERTEX
  5
38A
  8
0
  6
CONTINUOUS
 62
   179
 10
4064.1798106042
 20
509.2433217851
 30
0.0
  0
VERTEX
  5
38B
  8
0
  6
CONTINUOUS
 62
   179
 10
4064.1980394227
 20
509.2947858856
 30
0.0
  0
VERTEX
  5
38C
  8
0
  6
CONTINUOUS
 62
   179
 10
4064.2147937669
 20
509.3466736437
 30
0.0
  0
VERTEX
  5
38D
  8
0
  6
CONTINUOUS
 62
   179
 10
4064.2300620601
 20
509.3989492063
 30
0.0
  0
VERTEX
  5
38E
  8
0
  6
CONTINUOUS
 62
   179
 10
4064.2438337524
 20
509.4515764526
 30
0.0
  0
VERTEX
  5
38F
  8
0
  6
CONTINUOUS
 62
   179
 10
4064.2560993279
 20
509.5045190188
 30
0.0
  0
VERTEX
  5
390
  8
0
  6
CONTINUOUS
 62
   179
 10
4064.2668503115
 20
509.557740323
 30
0.0
  0
VERTEX
  5
391
  8
0
  6
CONTINUOUS
 62
   179
 10
4064.2760792746
 20
509.6112035909
 30
0.0
  0
VERTEX
  5
392
  8
0
  6
CONTINUOUS
 62
   179
 10
4064.2837798402
 20
509.6648718809
 30
0.0
  0
VERTEX
  5
393
  8
0
  6
CONTINUOUS
 62
   179
 10
4064.2899466874
 20
509.7187081098
 30
0.0
  0
VERTEX
  5
394
  8
0
  6
CONTINUOUS
 62
   179
 10
4064.2945755552
 20
509.7726750784
 30
0.0
  0
VERTEX
  5
395
  8
0
  6
CONTINUOUS
 62
   179
 10
4064.297663245
 20
509.8267354969
 30
0.0
  0
VERTEX
  5
396
  8
0
  6
CONTINUOUS
 62
   179
 10
4064.2992076235
 20
509.8808520114
 30
0.0
  0
VERTEX
  5
397
  8
0
  6
CONTINUOUS
 62
   179
 10
4064.2992076235
 20
509.9349872287
 30
0.0
  0
VERTEX
  5
398
  8
0
  6
CONTINUOUS
 62
   179
 10
4064.297663245
 20
509.9891037432
 30
0.0
  0
VERTEX
  5
399
  8
0
  6
CONTINUOUS
 62
   179
 10
4064.2945755552
 20
510.0431641617
 30
0.0
  0
VERTEX
  5
39A
  8
0
  6
CONTINUOUS
 62
   179
 10
4064.2899466874
 20
510.0971311303
 30
0.0
  0
VERTEX
  5
39B
  8
0
  6
CONTINUOUS
 62
   179
 10
4064.2837798402
 20
510.1509673592
 30
0.0
  0
VERTEX
  5
39C
  8
0
  6
CONTINUOUS
 62
   179
 10
4064.2760792746
 20
510.2046356492
 30
0.0
  0
VERTEX
  5
39D
  8
0
  6
CONTINUOUS
 62
   179
 10
4064.2668503115
 20
510.2580989171
 30
0.0
  0
VERTEX
  5
39E
  8
0
  6
CONTINUOUS
 62
   179
 10
4064.2560993279
 20
510.3113202213
 30
0.0
  0
VERTEX
  5
39F
  8
0
  6
CONTINUOUS
 62
   179
 10
4064.2438337524
 20
510.3642627874
 30
0.0
  0
VERTEX
  5
3A0
  8
0
  6
CONTINUOUS
 62
   179
 10
4064.2300620601
 20
510.4168900338
 30
0.0
  0
VERTEX
  5
3A1
  8
0
  6
CONTINUOUS
 62
   179
 10
4064.2147937669
 20
510.4691655964
 30
0.0
  0
VERTEX
  5
3A2
  8
0
  6
CONTINUOUS
 62
   179
 10
4064.1980394227
 20
510.5210533545
 30
0.0
  0
VERTEX
  5
3A3
  8
0
  6
CONTINUOUS
 62
   179
 10
4064.1798106042
 20
510.572517455
 30
0.0
  0
VERTEX
  5
3A4
  8
0
  6
CONTINUOUS
 62
   179
 10
4064.1601199071
 20
510.6235223378
 30
0.0
  0
VERTEX
  5
3A5
  8
0
  6
CONTINUOUS
 62
   179
 10
4064.1389809371
 20
510.67403276
 30
0.0
  0
VERTEX
  5
3A6
  8
0
  6
CONTINUOUS
 62
   179
 10
4064.1164083005
 20
510.7240138204
 30
0.0
  0
VERTEX
  5
3A7
  8
0
  6
CONTINUOUS
 62
   179
 10
4064.0924175944
 20
510.7734309835
 30
0.0
  0
VERTEX
  5
3A8
  8
0
  6
CONTINUOUS
 62
   179
 10
4064.0670253957
 20
510.8222501035
 30
0.0
  0
VERTEX
  5
3A9
  8
0
  6
CONTINUOUS
 62
   179
 10
4064.0402492497
 20
510.8704374478
 30
0.0
  0
VERTEX
  5
3AA
  8
0
  6
CONTINUOUS
 62
   179
 10
4064.0121076578
 20
510.9179597204
 30
0.0
  0
VERTEX
  5
3AB
  8
0
  6
CONTINUOUS
 62
   179
 10
4063.9826200651
 20
510.9647840847
 30
0.0
  0
VERTEX
  5
3AC
  8
0
  6
CONTINUOUS
 62
   179
 10
4063.9518068467
 20
511.0108781865
 30
0.0
  0
VERTEX
  5
3AD
  8
0
  6
CONTINUOUS
 62
   179
 10
4063.9196892936
 20
511.0562101761
 30
0.0
  0
VERTEX
  5
3AE
  8
0
  6
CONTINUOUS
 62
   179
 10
4063.8862895981
 20
511.1007487305
 30
0.0
  0
VERTEX
  5
3AF
  8
0
  6
CONTINUOUS
 62
   179
 10
4063.8516308384
 20
511.1444630747
 30
0.0
  0
VERTEX
  5
3B0
  8
0
  6
CONTINUOUS
 62
   179
 10
4063.8157369627
 20
511.1873230035
 30
0.0
  0
VERTEX
  5
3B1
  8
0
  6
CONTINUOUS
 62
   179
 10
4063.7786327726
 20
511.2292989019
 30
0.0
  0
VERTEX
  5
3B2
  8
0
  6
CONTINUOUS
 62
   179
 10
4063.7403439061
 20
511.2703617657
 30
0.0
  0
VERTEX
  5
3B3
  8
0
  6
CONTINUOUS
 62
   179
 10
4063.7008968196
 20
511.3104832218
 30
0.0
  0
VERTEX
  5
3B4
  8
0
  6
CONTINUOUS
 62
   179
 10
4063.6603187698
 20
511.3496355473
 30
0.0
  0
VERTEX
  5
3B5
  8
0
  6
CONTINUOUS
 62
   179
 10
4063.6186377952
 20
511.3877916892
 30
0.0
  0
VERTEX
  5
3B6
  8
0
  6
CONTINUOUS
 62
   179
 10
4063.5758826959
 20
511.4249252827
 30
0.0
  0
VERTEX
  5
3B7
  8
0
  6
CONTINUOUS
 62
   179
 10
4063.5320830146
 20
511.4610106695
 30
0.0
  0
VERTEX
  5
3B8
  8
0
  6
CONTINUOUS
 62
   179
 10
4063.4872690155
 20
511.4960229157
 30
0.0
  0
VERTEX
  5
3B9
  8
0
  6
CONTINUOUS
 62
   179
 10
4063.4414716637
 20
511.5299378289
 30
0.0
  0
VERTEX
  5
3BA
  8
0
  6
CONTINUOUS
 62
   179
 10
4063.394722604
 20
511.5627319748
 30
0.0
  0
VERTEX
  5
3BB
  8
0
  6
CONTINUOUS
 62
   179
 10
4063.3470541386
 20
511.5943826936
 30
0.0
  0
VERTEX
  5
3BC
  8
0
  6
CONTINUOUS
 62
   179
 10
4063.2984992049
 20
511.6248681157
 30
0.0
  0
VERTEX
  5
3BD
  8
0
  6
CONTINUOUS
 62
   179
 10
4063.2490913531
 20
511.6541671764
 30
0.0
  0
VERTEX
  5
3BE
  8
0
  6
CONTINUOUS
 62
   179
 10
4063.1988647224
 20
511.6822596311
 30
0.0
  0
VERTEX
  5
3BF
  8
0
  6
CONTINUOUS
 62
   179
 10
4063.1478540181
 20
511.7091260685
 30
0.0
  0
VERTEX
  5
3C0
  8
0
  6
CONTINUOUS
 62
   179
 10
4063.0960944871
 20
511.7347479249
 30
0.0
  0
VERTEX
  5
3C1
  8
0
  6
CONTINUOUS
 62
   179
 10
4063.0436218936
 20
511.7591074961
 30
0.0
  0
VERTEX
  5
3C2
  8
0
  6
CONTINUOUS
 62
   179
 10
4062.9904724947
 20
511.7821879506
 30
0.0
  0
VERTEX
  5
3C3
  8
0
  6
CONTINUOUS
 62
   179
 10
4062.9366830152
 20
511.8039733403
 30
0.0
  0
VERTEX
  5
3C4
  8
0
  6
CONTINUOUS
 62
   179
 10
4062.8822906218
 20
511.8244486123
 30
0.0
  0
VERTEX
  5
3C5
  8
0
  6
CONTINUOUS
 62
   179
 10
4062.8273328983
 20
511.8435996186
 30
0.0
  0
VERTEX
  5
3C6
  8
0
  6
CONTINUOUS
 62
   179
 10
4062.7718478188
 20
511.8614131265
 30
0.0
  0
VERTEX
  5
3C7
  8
0
  6
CONTINUOUS
 62
   179
 10
4062.7158737219
 20
511.8778768273
 30
0.0
  0
VERTEX
  5
3C8
  8
0
  6
CONTINUOUS
 62
   179
 10
4062.6594492839
 20
511.8929793453
 30
0.0
  0
VERTEX
  5
3C9
  8
0
  6
CONTINUOUS
 62
   179
 10
4062.6026134927
 20
511.9067102448
 30
0.0
  0
VERTEX
  5
3CA
  8
0
  6
CONTINUOUS
 62
   179
 10
4062.54540562
 20
511.9190600384
 30
0.0
  0
VERTEX
  5
3CB
  8
0
  6
CONTINUOUS
 62
   179
 10
4062.4878651948
 20
511.9300201926
 30
0.0
  0
SEQEND
  5
3D2
  8
0
  6
CONTINUOUS
 62
   179
  0
TEXT
  5
DD
  8
0
  6
CONTINUOUS
 62
     7
 10
3347.1674181705
 20
196.4611745549
 30
0.0
 40
55.5625
  1
ZIP2P/140
 41
0.7
 11
3347.1674181705
 21
176.8331623645
 31
0.0
 73
     1
  0
TEXT
  5
DE
  8
0
  6
CONTINUOUS
 62
     7
 10
3238.3268981734
 20
194.313892944
 30
0.0
 40
27.0
  1
COD.
 41
0.7
 11
3238.3268981734
 21
184.7758712722
 31
0.0
 73
     1
  0
TEXT
  5
DF
  8
0
  6
CONTINUOUS
 62
     7
 10
160.6282767702
 20
86.8154685253
 30
0.0
 40
27.0
  1
This document is the property of PEDRALI S.p.A. who willsafeguard its rights according to the civil and penal prevision of the Law.
 41
0.6438931298
 11
160.6282767702
 21
77.2774468534
 31
0.0
 73
     1
  0
INSERT
  5
E5
  8
0
  6
CONTINUOUS
 62
     7
  2
SW_NOTE_0
 10
2161.2908979918
 20
80.3720098134
 30
0.0
  0
TEXT
  5
E6
  8
0
  6
CONTINUOUS
 62
     7
 10
3238.3268981734
 20
326.1985076436
 30
0.0
 40
27.0
  1
SERIE:
 41
0.7
 11
3238.3268981734
 21
316.6604859718
 31
0.0
 73
     1
  0
TEXT
  5
E7
  8
0
  6
CONTINUOUS
 62
     7
 10
3347.1674181705
 20
328.3457892545
 30
0.0
 40
55.5625
  1
ZIPPO
 41
0.7
 11
3347.1674181705
 21
308.7177770641
 31
0.0
 73
     1
  0
INSERT
  5
ED
  8
0
  6
CONTINUOUS
 62
     7
  2
SW_NOTE_1
 10
4150.4824592931
 20
363.9948192571
 30
0.0
  0
ARC
  5
EE
  8
0
  6
CONTINUOUS
 62
     7
 10
2299.3484500574
 20
1722.7742602827
 30
0.0
 40
14.0
 50
270.0
 51
0.0
  0
LINE
  5
EF
  8
0
  6
CONTINUOUS
 62
     7
 10
997.3484500574
 20
1708.7742602827
 30
0.0
 11
2299.3484500574
 21
1708.7742602827
 31
0.0
  0
ARC
  5
F0
  8
0
  6
CONTINUOUS
 62
     7
 10
997.3484500574
 20
1722.7742602827
 30
0.0
 40
14.0
 50
180.0
 51
270.0
  0
LINE
  5
F1
  8
0
  6
CONTINUOUS
 62
     7
 10
2327.8484500574
 20
1468.5298507463
 30
0.0
 11
2327.8484500574
 21
1416.5298507463
 31
0.0
  0
LINE
  5
F2
  8
0
  6
CONTINUOUS
 62
     7
 10
2343.8484500574
 20
1416.5298507463
 30
0.0
 11
2343.8484500574
 21
1468.5298507463
 31
0.0
  0
LINE
  5
F3
  8
0
  6
CONTINUOUS
 62
     7
 10
2343.8484500574
 20
1386.5298507463
 30
0.0
 11
2343.8484500574
 21
1416.5298507463
 31
0.0
  0
LINE
  5
F4
  8
0
  6
CONTINUOUS
 62
     7
 10
2327.8484500574
 20
1416.5298507463
 30
0.0
 11
2327.8484500574
 21
1386.5298507463
 31
0.0
  0
LINE
  5
F5
  8
0
  6
CONTINUOUS
 62
     7
 10
952.8484500574
 20
1416.5298507463
 30
0.0
 11
952.8484500574
 21
1386.5298507463
 31
0.0
  0
LINE
  5
F6
  8
0
  6
CONTINUOUS
 62
     7
 10
968.8484500574
 20
1386.5298507463
 30
0.0
 11
968.8484500574
 21
1416.5298507463
 31
0.0
  0
LINE
  5
F7
  8
0
  6
CONTINUOUS
 62
     7
 10
952.8484500574
 20
1468.5298507463
 30
0.0
 11
952.8484500574
 21
1416.5298507463
 31
0.0
  0
LINE
  5
F8
  8
0
  6
CONTINUOUS
 62
     7
 10
968.8484500574
 20
1416.5298507463
 30
0.0
 11
968.8484500574
 21
1468.5298507463
 31
0.0
  0
LINE
  5
F9
  8
0
  6
CONTINUOUS
 62
     7
 10
983.3484500574
 20
1747.9818726505
 30
0.0
 11
983.3484500574
 21
1798.5298507463
 31
0.0
  0
LINE
  5
FA
  8
0
  6
CONTINUOUS
 62
     7
 10
2313.3484500574
 20
1747.9818726505
 30
0.0
 11
2313.3484500574
 21
1742.4141082876
 31
0.0
  0
LINE
  5
FB
  8
0
  6
CONTINUOUS
 62
     7
 10
997.3484500574
 20
1828.5298507463
 30
0.0
 11
2299.3484500574
 21
1828.5298507463
 31
0.0
  0
LINE
  5
FC
  8
0
  6
CONTINUOUS
 62
     7
 10
2313.3484500574
 20
1798.5298507463
 30
0.0
 11
2313.3484500574
 21
1747.9818726505
 31
0.0
  0
LINE
  5
FD
  8
0
  6
CONTINUOUS
 62
     7
 10
983.3484500574
 20
1798.5298507463
 30
0.0
 11
983.3484500574
 21
1804.0976151091
 31
0.0
  0
ARC
  5
FE
  8
0
  6
CONTINUOUS
 62
     7
 10
997.3484500574
 20
1814.5298507463
 30
0.0
 40
14.0
 50
90.0
 51
180.0
  0
ARC
  5
FF
  8
0
  6
CONTINUOUS
 62
     7
 10
2299.3484500574
 20
1814.5298507463
 30
0.0
 40
14.0
 50
0.0
 51
90.0
  0
LINE
  5
100
  8
0
  6
CONTINUOUS
 62
     7
 10
2313.3484500574
 20
1804.0976151091
 30
0.0
 11
2313.3484500574
 21
1798.5298507463
 31
0.0
  0
LINE
  5
101
  8
0
  6
CONTINUOUS
 62
     7
 10
983.3484500574
 20
1742.4141082876
 30
0.0
 11
983.3484500574
 21
1747.9818726505
 31
0.0
  0
LINE
  5
102
  8
0
  6
CONTINUOUS
 62
     7
 10
2298.3484500574
 20
1708.5298507463
 30
0.0
 11
998.3484500574
 21
1708.5298507463
 31
0.0
  0
ARC
  5
103
  8
0
  6
CONTINUOUS
 62
     7
 10
2298.3484500574
 20
1723.5298507463
 30
0.0
 40
15.00000000000014
 50
270.0
 51
287.3194586874
  0
ARC
  5
104
  8
0
  6
CONTINUOUS
 62
     7
 10
998.3484500574
 20
1723.5298507463
 30
0.0
 40
15.00000000000014
 50
252.6805259914
 51
270.0
  0
ARC
  5
105
  8
0
  6
CONTINUOUS
 62
     7
 10
1023.3484500574
 20
2738.5298507463
 30
0.0
 40
40.00000000000034
 50
90.0
 51
180.0
  0
ARC
  5
106
  8
0
  6
CONTINUOUS
 62
     7
 10
2273.3484500574
 20
2738.5298507463
 30
0.0
 40
40.0
 50
0.0
 51
90.0
  0
LINE
  5
107
  8
0
  6
CONTINUOUS
 62
     7
 10
1023.3484500574
 20
2778.5298507463
 30
0.0
 11
2273.3484500574
 21
2778.5298507463
 31
0.0
  0
ARC
  5
108
  8
0
  6
CONTINUOUS
 62
     7
 10
998.3484500574
 20
1603.5298507463
 30
0.0
 40
15.0
 50
180.0
 51
270.0
  0
ARC
  5
109
  8
0
  6
CONTINUOUS
 62
     7
 10
2298.3484500574
 20
1603.5298507463
 30
0.0
 40
15.0
 50
270.0
 51
0.0
  0
LINE
  5
10A
  8
0
  6
CONTINUOUS
 62
     7
 10
2298.3484500574
 20
1588.5298507463
 30
0.0
 11
998.3484500574
 21
1588.5298507463
 31
0.0
  0
LINE
  5
10B
  8
0
  6
CONTINUOUS
 62
     7
 10
2328.3484500574
 20
2778.5298507463
 30
0.0
 11
2343.3484500574
 21
2778.5298507463
 31
0.0
  0
LINE
  5
10C
  8
0
  6
CONTINUOUS
 62
     7
 10
2313.3484500574
 20
1468.5298507463
 30
0.0
 11
2313.3484500574
 21
1742.4141082876
 31
0.0
  0
LINE
  5
10D
  8
0
  6
CONTINUOUS
 62
     7
 10
2313.3484500574
 20
1804.0976151091
 30
0.0
 11
2313.3484500574
 21
2738.5298507463
 31
0.0
  0
LINE
  5
10E
  8
0
  6
CONTINUOUS
 62
     7
 10
2328.3484500574
 20
1468.5298507463
 30
0.0
 11
2313.3484500574
 21
1468.5298507463
 31
0.0
  0
LINE
  5
10F
  8
0
  6
CONTINUOUS
 62
     7
 10
2313.3484500574
 20
2738.5298507463
 30
0.0
 11
2313.3484500574
 21
2763.5298507463
 31
0.0
  0
ARC
  5
110
  8
0
  6
CONTINUOUS
 62
     7
 10
2328.3484500574
 20
2763.5298507463
 30
0.0
 40
15.0
 50
90.0
 51
180.0
  0
ARC
  5
111
  8
0
  6
CONTINUOUS
 62
     7
 10
2343.3484500574
 20
2763.5298507463
 30
0.0
 40
15.0
 50
0.0
 51
90.0
  0
LINE
  5
112
  8
0
  6
CONTINUOUS
 62
     7
 10
2358.3484500574
 20
2763.5298507463
 30
0.0
 11
2358.3484500574
 21
2738.5298507463
 31
0.0
  0
LINE
  5
113
  8
0
  6
CONTINUOUS
 62
     7
 10
2328.3484500574
 20
1468.5298507463
 30
0.0
 11
2343.3484500574
 21
1468.5298507463
 31
0.0
  0
LINE
  5
114
  8
0
  6
CONTINUOUS
 62
     7
 10
2358.3484500574
 20
2738.5298507463
 30
0.0
 11
2358.3484500574
 21
1468.5298507463
 31
0.0
  0
LINE
  5
115
  8
0
  6
CONTINUOUS
 62
     7
 10
2358.3484500574
 20
1468.5298507463
 30
0.0
 11
2343.3484500574
 21
1468.5298507463
 31
0.0
  0
ARC
  5
116
  8
0
  6
CONTINUOUS
 62
     7
 10
2335.8484500574
 20
1386.5298507463
 30
0.0
 40
8.000000000000455
 50
180.0
 51
0.0
  0
LINE
  5
117
  8
0
  6
CONTINUOUS
 62
     7
 10
938.3484500574
 20
2738.5298507463
 30
0.0
 11
938.3484500574
 21
1468.5298507463
 31
0.0
  0
LINE
  5
118
  8
0
  6
CONTINUOUS
 62
     7
 10
938.3484500574
 20
1468.5298507463
 30
0.0
 11
953.3484500574
 21
1468.5298507463
 31
0.0
  0
LINE
  5
119
  8
0
  6
CONTINUOUS
 62
     7
 10
938.3484500574
 20
2763.5298507463
 30
0.0
 11
938.3484500574
 21
2738.5298507463
 31
0.0
  0
ARC
  5
11A
  8
0
  6
CONTINUOUS
 62
     7
 10
953.3484500574
 20
2763.5298507463
 30
0.0
 40
15.0
 50
90.0
 51
180.0
  0
LINE
  5
11B
  8
0
  6
CONTINUOUS
 62
     7
 10
983.3484500574
 20
1468.5298507463
 30
0.0
 11
983.3484500574
 21
1742.4141082876
 31
0.0
  0
LINE
  5
11C
  8
0
  6
CONTINUOUS
 62
     7
 10
983.3484500574
 20
1804.0976151091
 30
0.0
 11
983.3484500574
 21
2738.5298507463
 31
0.0
  0
LINE
  5
11D
  8
0
  6
CONTINUOUS
 62
     7
 10
968.3484500574
 20
1468.5298507463
 30
0.0
 11
983.3484500574
 21
1468.5298507463
 31
0.0
  0
LINE
  5
11E
  8
0
  6
CONTINUOUS
 62
     7
 10
968.3484500574
 20
1468.5298507463
 30
0.0
 11
953.3484500574
 21
1468.5298507463
 31
0.0
  0
ARC
  5
11F
  8
0
  6
CONTINUOUS
 62
     7
 10
968.3484500574
 20
2763.5298507463
 30
0.0
 40
15.00000000000011
 50
0.0
 51
90.0
  0
LINE
  5
120
  8
0
  6
CONTINUOUS
 62
     7
 10
983.3484500574
 20
2738.5298507463
 30
0.0
 11
983.3484500574
 21
2763.5298507463
 31
0.0
  0
LINE
  5
121
  8
0
  6
CONTINUOUS
 62
     7
 10
968.3484500574
 20
2778.5298507463
 30
0.0
 11
953.3484500574
 21
2778.5298507463
 31
0.0
  0
ARC
  5
122
  8
0
  6
CONTINUOUS
 62
     7
 10
960.8484500574
 20
1386.5298507463
 30
0.0
 40
8.000000000000114
 50
180.0
 51
0.0
  0
INSERT
  5
12E
  8
0
  6
CONTINUOUS
 62
     7
  2
SW_CENTERMARKSYMBOL_0
 10
2335.8484500574
 20
1386.5298507463
 30
0.0
  0
INSERT
  5
13A
  8
0
  6
CONTINUOUS
 62
     7
  2
SW_CENTERMARKSYMBOL_1
 10
960.8484500574
 20
1386.5298507463
 30
0.0
  0
ARC
  5
13B
  8
0
  6
CONTINUOUS
 62
     7
 10
2692.4058553387
 20
1416.5298507463
 30
0.0
 40
22.00000000000045
 50
180.0
 51
270.0
  0
ARC
  5
13C
  8
0
  6
CONTINUOUS
 62
     7
 10
2692.4058553387
 20
1416.5298507463
 30
0.0
 40
38.0
 50
180.0
 51
270.0
  0
LINE
  5
13D
  8
0
  6
CONTINUOUS
 62
     7
 10
2654.4058553387
 20
1468.5298507463
 30
0.0
 11
2654.4058553387
 21
1416.5298507463
 31
0.0
  0
LINE
  5
13E
  8
0
  6
CONTINUOUS
 62
     7
 10
2670.4058553387
 20
1416.5298507463
 30
0.0
 11
2670.4058553387
 21
1468.5298507463
 31
0.0
  0
LINE
  5
13F
  8
0
  6
CONTINUOUS
 62
     7
 10
3282.4058553387
 20
1394.5298507463
 30
0.0
 11
2692.4058553387
 21
1394.5298507463
 31
0.0
  0
LINE
  5
140
  8
0
  6
CONTINUOUS
 62
     7
 10
2692.4058553387
 20
1378.5298507463
 30
0.0
 11
3282.4058553387
 21
1378.5298507463
 31
0.0
  0
ARC
  5
141
  8
0
  6
CONTINUOUS
 62
     7
 10
3282.4058553387
 20
1416.5298507463
 30
0.0
 40
22.00000000000023
 50
270.0
 51
360.0
  0
ARC
  5
142
  8
0
  6
CONTINUOUS
 62
     7
 10
3282.4058553387
 20
1416.5298507463
 30
0.0
 40
38.0
 50
270.0
 51
360.0
  0
LINE
  5
143
  8
0
  6
CONTINUOUS
 62
     7
 10
3304.4058553387
 20
1468.5298507463
 30
0.0
 11
3304.4058553387
 21
1416.5298507463
 31
0.0
  0
LINE
  5
144
  8
0
  6
CONTINUOUS
 62
     7
 10
3320.4058553387
 20
1416.5298507463
 30
0.0
 11
3320.4058553387
 21
1468.5298507463
 31
0.0
  0
LINE
  5
145
  8
0
  6
CONTINUOUS
 62
     7
 10
2652.4058553387
 20
2738.5298507463
 30
0.0
 11
2652.4058553387
 21
2763.5298507463
 31
0.0
  0
ARC
  5
146
  8
0
  6
CONTINUOUS
 62
     7
 10
2667.4058553387
 20
2763.5298507463
 30
0.0
 40
15.0
 50
90.0
 51
180.0
  0
LINE
  5
147
  8
0
  6
CONTINUOUS
 62
     7
 10
2667.4058553387
 20
2778.5298507463
 30
0.0
 11
2692.4058553387
 21
2778.5298507463
 31
0.0
  0
LINE
  5
148
  8
0
  6
CONTINUOUS
 62
     7
 10
2652.4058553387
 20
2738.5298507463
 30
0.0
 11
2652.4058553387
 21
1468.5298507463
 31
0.0
  0
LINE
  5
149
  8
0
  6
CONTINUOUS
 62
     7
 10
2652.4058553387
 20
1468.5298507463
 30
0.0
 11
2667.4058553387
 21
1468.5298507463
 31
0.0
  0
LINE
  5
14A
  8
0
  6
CONTINUOUS
 62
     7
 10
3307.4058553387
 20
1468.5298507463
 30
0.0
 11
2667.4058553387
 21
1468.5298507463
 31
0.0
  0
ARC
  5
14B
  8
0
  6
CONTINUOUS
 62
     7
 10
2692.4058553387
 20
2738.5298507463
 30
0.0
 40
40.0
 50
90.0
 51
180.0
  0
LINE
  5
14C
  8
0
  6
CONTINUOUS
 62
     7
 10
3282.4058553387
 20
2778.5298507463
 30
0.0
 11
2692.4058553387
 21
2778.5298507463
 31
0.0
  0
LINE
  5
14D
  8
0
  6
CONTINUOUS
 62
     7
 10
3322.4058553387
 20
1468.5298507463
 30
0.0
 11
3322.4058553387
 21
2738.5298507463
 31
0.0
  0
LINE
  5
14E
  8
0
  6
CONTINUOUS
 62
     7
 10
3307.4058553387
 20
1468.5298507463
 30
0.0
 11
3322.4058553387
 21
1468.5298507463
 31
0.0
  0
ARC
  5
14F
  8
0
  6
CONTINUOUS
 62
     7
 10
3282.4058553387
 20
2738.5298507463
 30
0.0
 40
40.0
 50
0.0
 51
90.0
  0
LINE
  5
150
  8
0
  6
CONTINUOUS
 62
     7
 10
2299.3484500574
 20
1053.1596514273
 30
0.0
 11
997.3484500574
 21
1053.1596514273
 31
0.0
  0
ARC
  5
151
  8
0
  6
CONTINUOUS
 62
     7
 10
997.3484500574
 20
1039.1596514273
 30
0.0
 40
13.99999999999989
 50
90.0
 51
180.0
  0
ARC
  5
152
  8
0
  6
CONTINUOUS
 62
     7
 10
2299.3484500574
 20
1039.1596514273
 30
0.0
 40
14.0
 50
0.0
 51
90.0
  0
ARC
  5
153
  8
0
  6
CONTINUOUS
 62
     7
 10
998.3484500574
 20
1062.4700647771
 30
0.0
 40
15.00000000000003
 50
180.0
 51
232.5443168527
  0
ARC
  5
154
  8
0
  6
CONTINUOUS
 62
     7
 10
2298.3484500574
 20
1062.4700647771
 30
0.0
 40
15.0
 50
307.4556831468
 51
0.0
  0
LINE
  5
155
  8
0
  6
CONTINUOUS
 62
     7
 10
2299.3484500574
 20
504.0717566016
 30
0.0
 11
997.3484500574
 21
504.0717566016
 31
0.0
  0
LINE
  5
156
  8
0
  6
CONTINUOUS
 62
     7
 10
2313.3484500574
 20
519.0717566016
 30
0.0
 11
2313.3484500574
 21
518.0717566016
 31
0.0
  0
ARC
  5
157
  8
0
  6
CONTINUOUS
 62
     7
 10
2299.3484500574
 20
518.0717566016
 30
0.0
 40
14.00000000000006
 50
270.0
 51
0.0
  0
LINE
  5
158
  8
0
  6
CONTINUOUS
 62
     7
 10
983.3484500574
 20
518.0717566016
 30
0.0
 11
983.3484500574
 21
519.0717566016
 31
0.0
  0
ARC
  5
159
  8
0
  6
CONTINUOUS
 62
     7
 10
997.3484500574
 20
518.0717566016
 30
0.0
 40
14.00000000000006
 50
180.0
 51
270.0
  0
LINE
  5
15A
  8
0
  6
CONTINUOUS
 62
     7
 10
998.3484500574
 20
1174.0717566016
 30
0.0
 11
1023.3484500574
 21
1174.0717566016
 31
0.0
  0
ARC
  5
15B
  8
0
  6
CONTINUOUS
 62
     7
 10
998.3484500574
 20
1159.0717566016
 30
0.0
 40
15.0
 50
90.0
 51
180.0
  0
LINE
  5
15C
  8
0
  6
CONTINUOUS
 62
     7
 10
2273.3484500574
 20
1174.0717566016
 30
0.0
 11
2298.3484500574
 21
1174.0717566016
 31
0.0
  0
ARC
  5
15D
  8
0
  6
CONTINUOUS
 62
     7
 10
2298.3484500574
 20
1159.0717566016
 30
0.0
 40
15.0
 50
0.0
 51
90.0
  0
LINE
  5
15E
  8
0
  6
CONTINUOUS
 62
     7
 10
1023.3484500574
 20
1174.0717566016
 30
0.0
 11
2273.3484500574
 21
1174.0717566016
 31
0.0
  0
ARC
  5
15F
  8
0
  6
CONTINUOUS
 62
     7
 10
2343.3484500574
 20
1159.0717566016
 30
0.0
 40
15.0
 50
0.0
 51
90.0
  0
LINE
  5
160
  8
0
  6
CONTINUOUS
 62
     7
 10
2358.3484500574
 20
1159.0717566016
 30
0.0
 11
2358.3484500574
 21
1134.0717566016
 31
0.0
  0
LINE
  5
161
  8
0
  6
CONTINUOUS
 62
     7
 10
2313.3484500574
 20
544.0717566016
 30
0.0
 11
2313.3484500574
 21
1134.0717566016
 31
0.0
  0
LINE
  5
162
  8
0
  6
CONTINUOUS
 62
     7
 10
2358.3484500574
 20
1134.0717566016
 30
0.0
 11
2358.3484500574
 21
544.0717566016
 31
0.0
  0
LINE
  5
163
  8
0
  6
CONTINUOUS
 62
     7
 10
2313.3484500574
 20
1134.0717566016
 30
0.0
 11
2313.3484500574
 21
1159.0717566016
 31
0.0
  0
ARC
  5
164
  8
0
  6
CONTINUOUS
 62
     7
 10
2328.3484500574
 20
1159.0717566016
 30
0.0
 40
15.0
 50
90.0
 51
180.0
  0
LINE
  5
165
  8
0
  6
CONTINUOUS
 62
     7
 10
2328.3484500574
 20
1174.0717566016
 30
0.0
 11
2343.3484500574
 21
1174.0717566016
 31
0.0
  0
LINE
  5
166
  8
0
  6
CONTINUOUS
 62
     7
 10
2343.3484500574
 20
504.0717566016
 30
0.0
 11
2328.3484500574
 21
504.0717566016
 31
0.0
  0
LINE
  5
167
  8
0
  6
CONTINUOUS
 62
     7
 10
2313.3484500574
 20
519.0717566016
 30
0.0
 11
2313.3484500574
 21
544.0717566016
 31
0.0
  0
ARC
  5
168
  8
0
  6
CONTINUOUS
 62
     7
 10
2328.3484500574
 20
519.0717566016
 30
0.0
 40
15.00000000000006
 50
180.0
 51
270.0
  0
LINE
  5
169
  8
0
  6
CONTINUOUS
 62
     7
 10
2358.3484500574
 20
544.0717566016
 30
0.0
 11
2358.3484500574
 21
519.0717566016
 31
0.0
  0
ARC
  5
16A
  8
0
  6
CONTINUOUS
 62
     7
 10
2343.3484500574
 20
519.0717566016
 30
0.0
 40
15.00000000000006
 50
270.0
 51
0.0
  0
LINE
  5
16B
  8
0
  6
CONTINUOUS
 62
     7
 10
983.3484500574
 20
544.0717566016
 30
0.0
 11
983.3484500574
 21
1134.0717566016
 31
0.0
  0
ARC
  5
16C
  8
0
  6
CONTINUOUS
 62
     7
 10
968.3484500574
 20
1159.0717566016
 30
0.0
 40
15.00000000000011
 50
0.0
 51
90.0
  0
LINE
  5
16D
  8
0
  6
CONTINUOUS
 62
     7
 10
983.3484500574
 20
1134.0717566016
 30
0.0
 11
983.3484500574
 21
1159.0717566016
 31
0.0
  0
LINE
  5
16E
  8
0
  6
CONTINUOUS
 62
     7
 10
938.3484500574
 20
1134.0717566016
 30
0.0
 11
938.3484500574
 21
544.0717566016
 31
0.0
  0
LINE
  5
16F
  8
0
  6
CONTINUOUS
 62
     7
 10
938.3484500574
 20
1159.0717566016
 30
0.0
 11
938.3484500574
 21
1134.0717566016
 31
0.0
  0
ARC
  5
170
  8
0
  6
CONTINUOUS
 62
     7
 10
953.3484500574
 20
1159.0717566016
 30
0.0
 40
15.0
 50
90.0
 51
180.0
  0
LINE
  5
171
  8
0
  6
CONTINUOUS
 62
     7
 10
968.3484500574
 20
1174.0717566016
 30
0.0
 11
953.3484500574
 21
1174.0717566016
 31
0.0
  0
LINE
  5
172
  8
0
  6
CONTINUOUS
 62
     7
 10
953.3484500574
 20
504.0717566016
 30
0.0
 11
968.3484500574
 21
504.0717566016
 31
0.0
  0
LINE
  5
173
  8
0
  6
CONTINUOUS
 62
     7
 10
938.3484500574
 20
544.0717566016
 30
0.0
 11
938.3484500574
 21
519.0717566016
 31
0.0
  0
ARC
  5
174
  8
0
  6
CONTINUOUS
 62
     7
 10
953.3484500574
 20
519.0717566016
 30
0.0
 40
15.00000000000006
 50
180.0
 51
270.0
  0
LINE
  5
175
  8
0
  6
CONTINUOUS
 62
     7
 10
983.3484500574
 20
519.0717566016
 30
0.0
 11
983.3484500574
 21
544.0717566016
 31
0.0
  0
ARC
  5
176
  8
0
  6
CONTINUOUS
 62
     7
 10
968.3484500574
 20
519.0717566016
 30
0.0
 40
15.00000000000011
 50
270.0
 51
0.0
  0
ENDSEC
  0
EOF
